  0
SECTION
  2
HEADER
  9
$ACADVER
  1
AC1009
  9
$INSBASE
 10
0.0
 20
0.0
 30
0.0
  9
$EXTMIN
 10
1903.0405749290021
 20
1433.173578249188
 30
0.0
  9
$EXTMAX
 10
2348.540574929003
 20
1748.173578249188
 30
0.0
  9
$LIMMIN
 10
0.0
 20
0.0
  9
$LIMMAX
 10
12.0
 20
9.0
  9
$ORTHOMODE
 70
     0
  9
$REGENMODE
 70
     1
  9
$FILLMODE
 70
     1
  9
$QTEXTMODE
 70
     0
  9
$MIRRTEXT
 70
     0
  9
$DRAGMODE
 70
     2
  9
$LTSCALE
 40
5.0
  9
$OSMODE
 70
  2239
  9
$ATTMODE
 70
     1
  9
$TEXTSIZE
 40
2.5
  9
$TRACEWID
 40
0.05
  9
$TEXTSTYLE
  7
BIG
  9
$CLAYER
  8
0
  9
$CELTYPE
  6
BYLAYER
  9
$CECOLOR
 62
   256
  9
$DIMSCALE
 40
1.0
  9
$DIMASZ
 40
3.0
  9
$DIMEXO
 40
1.0
  9
$DIMDLI
 40
0.0
  9
$DIMRND
 40
0.0
  9
$DIMDLE
 40
0.0
  9
$DIMEXE
 40
1.0
  9
$DIMTP
 40
0.0
  9
$DIMTM
 40
0.0
  9
$DIMTXT
 40
3.0
  9
$DIMCEN
 40
0.0
  9
$DIMTSZ
 40
0.0
  9
$DIMTOL
 70
     0
  9
$DIMLIM
 70
     0
  9
$DIMTIH
 70
     0
  9
$DIMTOH
 70
     0
  9
$DIMSE1
 70
     0
  9
$DIMSE2
 70
     0
  9
$DIMTAD
 70
     1
  9
$DIMZIN
 70
     8
  9
$DIMBLK
  1

  9
$DIMASO
 70
     1
  9
$DIMSHO
 70
     1
  9
$DIMPOST
  1

  9
$DIMAPOST
  1

  9
$DIMALT
 70
     0
  9
$DIMALTD
 70
     2
  9
$DIMALTF
 40
25.399999999999999
  9
$DIMLFAC
 40
1.0
  9
$DIMTOFL
 70
     1
  9
$DIMTVP
 40
0.0
  9
$DIMTIX
 70
     1
  9
$DIMSOXD
 70
     0
  9
$DIMSAH
 70
     0
  9
$DIMBLK1
  1

  9
$DIMBLK2
  1

  9
$DIMSTYLE
  2
DUKITEC
  9
$DIMCLRD
 70
     5
  9
$DIMCLRE
 70
     5
  9
$DIMCLRT
 70
     0
  9
$DIMTFAC
 40
1.0
  9
$DIMGAP
 40
1.0
  9
$LUNITS
 70
     2
  9
$LUPREC
 70
     4
  9
$SKETCHINC
 40
0.1
  9
$FILLETRAD
 40
0.2
  9
$AUNITS
 70
     0
  9
$AUPREC
 70
     0
  9
$MENU
  1
.
  9
$ELEVATION
 40
0.0
  9
$PELEVATION
 40
0.0
  9
$THICKNESS
 40
0.0
  9
$LIMCHECK
 70
     0
  9
$BLIPMODE
 70
     0
  9
$CHAMFERA
 40
0.5
  9
$CHAMFERB
 40
0.5
  9
$SKPOLY
 70
     0
  9
$TDCREATE
 40
2454396.7097847918
  9
$TDUPDATE
 40
2456630.6248098612
  9
$TDINDWG
 40
0.0029865162
  9
$TDUSRTIMER
 40
0.002986331
  9
$USRTIMER
 70
     1
  9
$ANGBASE
 50
0.0
  9
$ANGDIR
 70
     0
  9
$PDMODE
 70
     0
  9
$PDSIZE
 40
0.0
  9
$PLINEWID
 40
0.0
  9
$COORDS
 70
     1
  9
$SPLFRAME
 70
     0
  9
$SPLINETYPE
 70
     6
  9
$SPLINESEGS
 70
     8
  9
$ATTDIA
 70
     0
  9
$ATTREQ
 70
     1
  9
$HANDLING
 70
     1
  9
$HANDSEED
  5
143BA
  9
$SURFTAB1
 70
     6
  9
$SURFTAB2
 70
     6
  9
$SURFTYPE
 70
     6
  9
$SURFU
 70
     6
  9
$SURFV
 70
     6
  9
$UCSNAME
  2

  9
$UCSORG
 10
0.0
 20
0.0
 30
0.0
  9
$UCSXDIR
 10
1.0
 20
0.0
 30
0.0
  9
$UCSYDIR
 10
0.0
 20
1.0
 30
0.0
  9
$PUCSNAME
  2

  9
$PUCSORG
 10
0.0
 20
0.0
 30
0.0
  9
$PUCSXDIR
 10
1.0
 20
0.0
 30
0.0
  9
$PUCSYDIR
 10
0.0
 20
1.0
 30
0.0
  9
$USERI1
 70
     0
  9
$USERI2
 70
     0
  9
$USERI3
 70
     0
  9
$USERI4
 70
     0
  9
$USERI5
 70
     0
  9
$USERR1
 40
0.0
  9
$USERR2
 40
0.0
  9
$USERR3
 40
0.0
  9
$USERR4
 40
0.0
  9
$USERR5
 40
0.0
  9
$WORLDVIEW
 70
     1
  9
$SHADEDGE
 70
     3
  9
$SHADEDIF
 70
    70
  9
$TILEMODE
 70
     1
  9
$MAXACTVP
 70
    64
  9
$PLIMCHECK
 70
     0
  9
$PEXTMIN
 10
0.0
 20
0.0
 30
0.0
  9
$PEXTMAX
 10
0.0
 20
0.0
 30
0.0
  9
$PLIMMIN
 10
0.0
 20
0.0
  9
$PLIMMAX
 10
12.0
 20
9.0
  9
$UNITMODE
 70
     0
  9
$VISRETAIN
 70
     1
  9
$PLINEGEN
 70
     0
  9
$PSLTSCALE
 70
     1
  0
ENDSEC
  0
SECTION
  2
TABLES
  0
TABLE
  2
VPORT
 70
     1
  0
VPORT
  2
*ACTIVE
 70
     0
 10
0.0
 20
0.0
 11
1.0
 21
1.0
 12
2150.0334439256858
 22
1570.388305730793
 13
0.0
 23
0.0
 14
0.5
 24
0.5
 15
0.5
 25
0.5
 16
0.0
 26
0.0
 36
1.0
 17
0.0
 27
0.0
 37
0.0
 40
210.09310106672891
 41
2.1408934707903771
 42
50.0
 43
0.0
 44
0.0
 50
0.0
 51
0.0
 71
     0
 72
  2000
 73
     1
 74
     3
 75
     0
 76
     0
 77
     0
 78
     0
  0
ENDTAB
  0
TABLE
  2
LTYPE
 70
     5
  0
LTYPE
  2
CONTINUOUS
 70
     0
  3
Solid line
 72
    65
 73
     0
 40
0.0
  0
LTYPE
  2
PHANTOM2
 70
     0
  3
Phantom (.5x) ___ _ _ ___ _ _ ___ _ _ ___ _ _
 72
    65
 73
     6
 40
1.25
 49
0.625
 49
-0.125
 49
0.125
 49
-0.125
 49
0.125
 49
-0.125
  0
LTYPE
  2
CENTER
 70
     0
  3
___ _ ___ _ ___ _ ___ _ ___ _ ___ _ ___ _ ___ _
 72
    65
 73
     4
 40
0.95
 49
0.625
 49
-0.125
 49
0.075
 49
-0.125
  0
LTYPE
  2
DASHED2
 70
     0
  3
Dashed (.5x) _ _ _ _ _ _ _ _ _ _ _ _ _ _ _ _ _
 72
    65
 73
     2
 40
0.375
 49
0.25
 49
-0.125
  0
ENDTAB
  0
TABLE
  2
LAYER
 70
     4
  0
LAYER
  2
0
 70
     0
 62
     7
  6
CONTINUOUS
  0
LAYER
  2
HIDE
 70
     0
 62
     1
  6
DASHED2
  0
LAYER
  2
CENTER
 70
     0
 62
     3
  6
CENTER
  0
ENDTAB
  0
TABLE
  2
STYLE
 70
     3
  0
STYLE
  2
STANDARD
 70
     0
 40
5.0
 41
1.0
 50
0.0
 71
     0
 42
5.0
  3
txt.shx
  4
whgtxt.shx
  0
STYLE
  2
BIG
 70
     0
 40
20.0
 41
1.0
 50
0.0
 71
     0
 42
2.5
  3
txt
  4

  0
ENDTAB
  0
TABLE
  2
VIEW
 70
     0
  0
ENDTAB
  0
TABLE
  2
UCS
 70
     0
  0
ENDTAB
  0
TABLE
  2
APPID
 70
    11
  0
APPID
  2
ACAD
 70
     0
  0
APPID
  2
ACADANNOTATIVE
 70
     0
  0
APPID
  2
ACAD_EXEMPT_FROM_CAD_STANDARDS
 70
     0
  0
APPID
  2
ACAD_DSTYLE_DIMJOGGED_JOGA
 70
     0
  0
APPID
  2
ACAD_PSEXT
 70
     0
  0
APPID
  2
ACAECLAYERSTANDARD
 70
     0
  0
APPID
  2
DCO15
 70
     0
  0
APPID
  2
CONTENTBLOCKICON
 70
     0
  0
APPID
  2
ACAD_NAV_VCDISPLAY
 70
     0
  0
APPID
  2
ACAD_DSTYLE_DIMRADIAL_EXTENSION
 70
     0
  0
APPID
  2
ACAD_MLEADERVER
 70
     0
  0
ENDTAB
  0
TABLE
  2
DIMSTYLE
 70
     4
  0
DIMSTYLE
  2
DUKITEC
 70
     0
  3

  4

  5

  6

  7

 40
1.0
 41
3.0
 42
1.0
 43
0.0
 44
1.0
 45
0.0
 46
0.0
 47
0.0
 48
0.0
140
3.0
141
0.0
142
0.0
143
25.399999999999999
144
1.0
145
0.0
146
1.0
147
1.0
 71
     0
 72
     0
 73
     0
 74
     0
 75
     0
 76
     0
 77
     1
 78
     8
170
     0
171
     2
172
     1
173
     0
174
     1
175
     0
176
     5
177
     5
178
     0
  0
ENDTAB
  0
ENDSEC
  0
SECTION
  2
BLOCKS
  0
BLOCK
  8
0
  2
$MODEL_SPACE
 70
     0
 10
0.0
 20
0.0
 30
0.0
  3
$MODEL_SPACE
  1

  0
ENDBLK
  5
140B9
  8
0
  0
BLOCK
 67
     1
  8
0
  2
$PAPER_SPACE
 70
     0
 10
0.0
 20
0.0
 30
0.0
  3
$PAPER_SPACE
  1

  0
ENDBLK
  5
140B5
 67
     1
  8
0
  0
ENDSEC
  0
SECTION
  2
ENTITIES
  0
POLYLINE
  5
13E1C
  8
0
 66
     1
 10
0.0
 20
0.0
 30
0.0
 70
     1
  0
VERTEX
  5
14356
  8
0
 10
1989.862611390133
 20
1476.2464098854291
 30
0.0
  0
VERTEX
  5
14357
  8
0
 10
1989.862611390133
 20
1696.7464098854291
 30
0.0
  0
VERTEX
  5
14358
  8
0
 10
2301.712611390134
 20
1696.7464098854291
 30
0.0
  0
VERTEX
  5
14359
  8
0
 10
2301.712611390134
 20
1476.2464098854291
 30
0.0
  0
VERTEX
  5
1435A
  8
0
 10
1989.862611390133
 20
1476.2464098854291
 30
0.0
  0
SEQEND
  5
1435B
  8
0
  0
TEXT
  5
14012
  8
0
 10
2111.3376214241639
 20
1492.3036870035689
 30
0.0
 40
20.0
  1
AK 10
  7
BIG
  0
ARC
  5
1411E
  8
CENTER
 10
2115.727697111115
 20
1571.1534755611201
 30
0.0
 40
16.0
 50
118.12257009414201
 51
152.40997700455259
  0
ARC
  5
1411F
  8
CENTER
 10
2115.727697111115
 20
1571.1534755611201
 30
0.0
 40
16.0
 50
27.32330016572579
 51
62.329954784831337
  0
ARC
  5
14120
  8
CENTER
 10
2115.727697111115
 20
1571.1534755611201
 30
0.0
 40
16.0
 50
299.2138620418001
 51
331.99845584127092
  0
CIRCLE
  5
14121
  8
0
 10
2115.727697111115
 20
1571.1534755611201
 30
0.0
 40
11.0
  0
ARC
  5
14122
  8
CENTER
 10
2115.727697111115
 20
1571.1534755611201
 30
0.0
 40
16.0
 50
209.32223899682199
 51
242.15484192175529
  0
CIRCLE
  5
14123
  8
0
 10
2127.041418111115
 20
1582.4669405611201
 30
0.0
 40
3.5
  0
CIRCLE
  5
14124
  8
0
 10
2104.4142201111149
 20
1582.4671845611199
 30
0.0
 40
3.5
  0
CIRCLE
  5
14125
  8
0
 10
2104.4142201111149
 20
1559.83999856112
 30
0.0
 40
3.5
  0
CIRCLE
  5
14126
  8
0
 10
2127.0411741111152
 20
1559.8399835611201
 30
0.0
 40
3.5
  0
ARC
  5
14127
  8
0
 10
2115.727697111115
 20
1571.1534755611201
 30
0.0
 40
21.0
 50
38.213207999986011
 51
51.786787999993031
  0
ARC
  5
14128
  8
0
 10
2115.727697111115
 20
1571.1534755611201
 30
0.0
 40
21.0
 50
218.21324999998069
 51
231.78680000001981
  0
ARC
  5
14129
  8
0
 10
2115.727697111115
 20
1571.1534755611201
 30
0.0
 40
21.0
 50
308.21320999998858
 51
321.78679000001131
  0
ARC
  5
1412A
  8
0
 10
2115.727697111115
 20
1571.1534755611201
 30
0.0
 40
21.0
 50
128.21319999998011
 51
141.78675000001931
  0
LINE
  5
1412B
  8
0
 10
2105.5700461111151
 20
1557.84172556112
 30
0.0
 11
2106.7247091111149
 21
1559.8416605611201
 31
0.0
  0
LINE
  5
1412C
  8
CENTER
 10
2130.3092515054518
 20
1585.7344999554571
 30
0.0
 11
2123.9741497277569
 21
1579.3993981777619
 31
0.0
  0
LINE
  5
1412D
  8
0
 10
2128.1962031111152
 20
1584.4671845611199
 30
0.0
 11
2125.8868771111152
 21
1584.4671845611199
 31
0.0
  0
LINE
  5
1412E
  8
0
 10
2128.1962031111152
 20
1580.4671845611199
 30
0.0
 11
2125.8868771111152
 21
1580.4671845611199
 31
0.0
  0
LINE
  5
1412F
  8
0
 10
2128.1952991111152
 20
1584.4662865611199
 30
0.0
 11
2129.349962111115
 21
1582.4663515611201
 31
0.0
  0
LINE
  5
14130
  8
0
 10
2124.7311971111149
 20
1582.4662865611199
 30
0.0
 11
2125.8858601111151
 21
1580.4663515611201
 31
0.0
  0
LINE
  5
14131
  8
0
 10
2129.349841111115
 20
1582.46508856112
 30
0.0
 11
2128.1951781111152
 21
1580.4651535611199
 31
0.0
  0
LINE
  5
14132
  8
0
 10
2103.2602321111149
 20
1557.84051256112
 30
0.0
 11
2102.1055691111151
 21
1559.84044856112
 31
0.0
  0
LINE
  5
14133
  8
0
 10
2125.8857391111151
 20
1584.46508856112
 30
0.0
 11
2124.7310771111152
 21
1582.4651535611199
 31
0.0
  0
LINE
  5
14134
  8
0
 10
2106.7243331111149
 20
1559.84051256112
 30
0.0
 11
2105.5696701111151
 21
1561.84044856112
 31
0.0
  0
LINE
  5
14135
  8
0
 10
2102.1059441111152
 20
1559.84172556112
 30
0.0
 11
2103.260607111115
 21
1561.8416605611201
 31
0.0
  0
LINE
  5
14136
  8
CENTER
 10
2101.3349492768189
 20
1585.5462624884219
 30
0.0
 11
2107.4122521637728
 21
1579.4689604172131
 31
0.0
  0
LINE
  5
14137
  8
CENTER
 10
2130.1746494929198
 20
1556.706671093501
 30
0.0
 11
2123.913142872872
 21
1562.96817687308
 31
0.0
  0
LINE
  5
14138
  8
0
 10
2129.041418111115
 20
1558.6851985611199
 30
0.0
 11
2129.041418111115
 21
1560.99452456112
 31
0.0
  0
LINE
  5
14139
  8
0
 10
2102.4142201111149
 20
1583.6218475611199
 30
0.0
 11
2102.4142201111149
 21
1581.3124415611201
 31
0.0
  0
LINE
  5
1413A
  8
0
 10
2106.4142201111149
 20
1583.6218475611199
 30
0.0
 11
2106.4142201111149
 21
1581.3124415611201
 31
0.0
  0
LINE
  5
1413B
  8
0
 10
2102.4147531111162
 20
1583.62096656112
 30
0.0
 11
2104.4147411111148
 21
1584.77566056112
 31
0.0
  0
LINE
  5
1413C
  8
0
 10
2104.4147531111148
 20
1580.15686556112
 30
0.0
 11
2106.4147411111148
 21
1581.31155956112
 31
0.0
  0
LINE
  5
1413D
  8
0
 10
2104.416234111115
 20
1584.77539456112
 30
0.0
 11
2106.4161691111149
 21
1583.62073156112
 31
0.0
  0
LINE
  5
1413E
  8
0
 10
2102.416234111115
 20
1581.3112925611199
 30
0.0
 11
2104.4161691111149
 21
1580.1566295611201
 31
0.0
  0
LINE
  5
1413F
  8
CENTER
 10
2101.3591694267252
 20
1556.7844177804809
 30
0.0
 11
2107.5469948263049
 21
1562.97224234948
 31
0.0
  0
LINE
  5
14140
  8
0
 10
2103.2594351111161
 20
1557.8399835611201
 30
0.0
 11
2105.5687611111148
 21
1557.8399835611201
 31
0.0
  0
LINE
  5
14141
  8
0
 10
2102.7374631111152
 20
1587.653471561119
 30
0.0
 11
2128.718176111116
 21
1587.653471561119
 31
0.0
  0
LINE
  5
14142
  8
0
 10
2125.041418111115
 20
1558.6851985611199
 30
0.0
 11
2125.041418111115
 21
1560.99452456112
 31
0.0
  0
LINE
  5
14143
  8
0
 10
2102.7374631111152
 20
1554.6534755611201
 30
0.0
 11
2128.718176111116
 21
1554.6534755611201
 31
0.0
  0
LINE
  5
14144
  8
0
 10
2103.2594351111161
 20
1561.8399835611201
 30
0.0
 11
2105.5687611111148
 21
1561.8399835611201
 31
0.0
  0
LINE
  5
14145
  8
0
 10
2129.0406931111152
 20
1558.68597856112
 30
0.0
 11
2127.0407581111149
 21
1557.53131556112
 31
0.0
  0
LINE
  5
14146
  8
0
 10
2127.0406931111152
 20
1562.1500805611199
 30
0.0
 11
2125.0407581111149
 21
1560.9954175611199
 31
0.0
  0
LINE
  5
14147
  8
0
 10
2127.0395741111151
 20
1557.5314575611201
 30
0.0
 11
2125.0396391111149
 21
1558.6861205611201
 31
0.0
  0
LINE
  5
14148
  8
0
 10
2129.0395741111151
 20
1560.99555956112
 30
0.0
 11
2127.0396391111149
 21
1562.15022256112
 31
0.0
  0
LINE
  5
14149
  8
0
 10
2099.227697111115
 20
1584.1438435611201
 30
0.0
 11
2099.227697111115
 21
1558.16308856112
 31
0.0
  0
LINE
  5
1414A
  8
0
 10
2132.227697111115
 20
1584.1438435611201
 30
0.0
 11
2132.227697111115
 21
1558.16308856112
 31
0.0
  0
ARC
  5
1414B
  8
0
 10
2115.727697111115
 20
1571.1534755611201
 30
0.0
 40
10.0
 50
81.869897645832935
 51
98.13010235416705
  0
ARC
  5
1414C
  8
0
 10
2115.727697111115
 20
1571.1534755611201
 30
0.0
 40
10.0
 50
171.86989764583299
 51
188.13010235416701
  0
ARC
  5
1414D
  8
0
 10
2115.727697111115
 20
1571.1534755611201
 30
0.0
 40
10.0
 50
261.86989764583291
 51
278.13010235416698
  0
ARC
  5
1414E
  8
0
 10
2115.727697111115
 20
1571.1534755611201
 30
0.0
 40
10.0
 50
351.86989764583302
 51
8.1301023541669828
  0
POLYLINE
  5
1414F
  8
0
 66
     1
 10
0.0
 20
0.0
 30
0.0
  0
VERTEX
  5
143A4
  8
0
 10
2125.627192047727
 20
1572.567689123493
 30
0.0
  0
VERTEX
  5
143A5
  8
0
 10
2117.1419106734879
 20
1581.0529704977309
 30
0.0
  0
SEQEND
  5
143A6
  8
0
  0
POLYLINE
  5
14150
  8
0
 66
     1
 10
0.0
 20
0.0
 30
0.0
  0
VERTEX
  5
143A7
  8
0
 10
2114.3134835487422
 20
1581.052970497733
 30
0.0
  0
VERTEX
  5
143A8
  8
0
 10
2105.828202174504
 20
1572.567689123493
 30
0.0
  0
SEQEND
  5
143A9
  8
0
  0
POLYLINE
  5
14151
  8
0
 66
     1
 10
0.0
 20
0.0
 30
0.0
  0
VERTEX
  5
143AA
  8
0
 10
2105.828202174504
 20
1569.739261998747
 30
0.0
  0
VERTEX
  5
143AB
  8
0
 10
2114.3134835487422
 20
1561.2539806245079
 30
0.0
  0
SEQEND
  5
143AC
  8
0
  0
POLYLINE
  5
14152
  8
0
 66
     1
 10
0.0
 20
0.0
 30
0.0
  0
VERTEX
  5
143AD
  8
0
 10
2117.1419106734879
 20
1561.2539806245079
 30
0.0
  0
VERTEX
  5
143AE
  8
0
 10
2125.627192047727
 20
1569.739261998747
 30
0.0
  0
SEQEND
  5
143AF
  8
0
  0
ARC
  5
14153
  8
HIDE
 10
2115.727697111115
 20
1571.1534755611201
 30
0.0
 40
5.0
 50
270.0
 51
180.0
  0
CIRCLE
  5
14154
  8
0
 10
2115.727697111115
 20
1571.1534755611201
 30
0.0
 40
4.5
  0
LINE
  5
14155
  8
HIDE
 10
2117.227697111115
 20
1580.967184060105
 30
0.0
 11
2117.227697111115
 21
1575.396116248239
 31
0.0
  0
LINE
  5
14156
  8
HIDE
 10
2116.977697111115
 20
1581.0750429776119
 30
0.0
 11
2116.977697111115
 21
1575.476379677568
 31
0.0
  0
LINE
  5
14157
  8
HIDE
 10
2114.2276971111169
 20
1580.9671840601079
 30
0.0
 11
2114.2276971111191
 21
1575.396116248241
 31
0.0
  0
LINE
  5
14158
  8
HIDE
 10
2114.477697111115
 20
1581.0750429776119
 30
0.0
 11
2114.4776971111128
 21
1575.476379677568
 31
0.0
  0
LINE
  5
14159
  8
HIDE
 10
2114.2276971111191
 20
1577.626500694957
 30
0.0
 11
2117.2276971111191
 21
1577.626500694957
 31
0.0
  0
LINE
  5
1415A
  8
HIDE
 10
2114.2276971111191
 20
1580.626500694957
 30
0.0
 11
2117.2276971111191
 21
1580.626500694957
 31
0.0
  0
LINE
  5
1415B
  8
HIDE
 10
2114.2276971111191
 20
1577.626500694955
 30
0.0
 11
2114.477697111115
 21
1577.48216312766
 31
0.0
  0
LINE
  5
1415C
  8
HIDE
 10
2117.227697111115
 20
1577.6265006949559
 30
0.0
 11
2116.977697111115
 21
1577.4821631276591
 31
0.0
  0
LINE
  5
1415D
  8
HIDE
 10
2114.477697111115
 20
1577.48216312766
 30
0.0
 11
2116.977697111115
 21
1577.4821631276591
 31
0.0
  0
LINE
  5
1415E
  8
HIDE
 10
2082.727697111115
 20
1581.15347656112
 30
0.0
 11
2082.727697111115
 21
1570.15347656112
 31
0.0
  0
LINE
  5
1415F
  8
HIDE
 10
2085.477697111115
 20
1570.15347656112
 30
0.0
 11
2085.477697111115
 21
1546.15347656112
 31
0.0
  0
LINE
  5
14160
  8
HIDE
 10
2096.727697111115
 20
1581.15347656112
 30
0.0
 11
2096.727697111115
 21
1570.15347656112
 31
0.0
  0
LINE
  5
14161
  8
HIDE
 10
2093.977697111115
 20
1570.15347656112
 30
0.0
 11
2093.977697111115
 21
1546.15347656112
 31
0.0
  0
LINE
  5
14162
  8
HIDE
 10
2082.727697111115
 20
1570.15347656112
 30
0.0
 11
2096.727697111115
 21
1570.15347656112
 31
0.0
  0
LINE
  5
14163
  8
HIDE
 10
2134.727697111115
 20
1570.15347656112
 30
0.0
 11
2148.727697111115
 21
1570.15347656112
 31
0.0
  0
LINE
  5
14164
  8
HIDE
 10
2145.977697111115
 20
1570.15347656112
 30
0.0
 11
2145.977697111115
 21
1546.15347656112
 31
0.0
  0
LINE
  5
14165
  8
HIDE
 10
2137.477697111115
 20
1570.15347656112
 30
0.0
 11
2137.477697111115
 21
1546.15347656112
 31
0.0
  0
LINE
  5
14166
  8
HIDE
 10
2134.727697111115
 20
1581.15347656112
 30
0.0
 11
2134.727697111115
 21
1570.15347656112
 31
0.0
  0
LINE
  5
14167
  8
HIDE
 10
2148.727697111115
 20
1581.15347656112
 30
0.0
 11
2148.727697111115
 21
1570.15347656112
 31
0.0
  0
LINE
  5
14168
  8
0
 10
2097.727697111115
 20
1587.0279845611201
 30
0.0
 11
2099.8531851111152
 21
1589.15347256112
 31
0.0
  0
LINE
  5
14169
  8
0
 10
2133.727697111115
 20
1587.0279845611201
 30
0.0
 11
2131.6022091111149
 21
1589.15347256112
 31
0.0
  0
LINE
  5
1416D
  8
0
 10
2133.727697111115
 20
1581.15347656112
 30
0.0
 11
2150.727697111115
 21
1581.15347656112
 31
0.0
  0
LINE
  5
1416E
  8
0
 10
2080.727697111115
 20
1581.15347656112
 30
0.0
 11
2097.727697111115
 21
1581.15347656112
 31
0.0
  0
LINE
  5
14175
  8
0
 10
2080.727697111115
 20
1546.15347656112
 30
0.0
 11
2150.727697111115
 21
1546.15347656112
 31
0.0
  0
LINE
  5
14176
  8
0
 10
2150.727697111115
 20
1546.15347656112
 30
0.0
 11
2150.727697111115
 21
1581.15347656112
 31
0.0
  0
LINE
  5
14177
  8
0
 10
2080.727697111115
 20
1546.15347656112
 30
0.0
 11
2080.727697111115
 21
1581.15347656112
 31
0.0
  0
LINE
  5
14178
  8
0
 10
2133.727697111115
 20
1581.15347656112
 30
0.0
 11
2133.727697111115
 21
1587.0279845611201
 31
0.0
  0
LINE
  5
14179
  8
0
 10
2097.727697111115
 20
1581.15347656112
 30
0.0
 11
2097.727697111115
 21
1587.0279845611201
 31
0.0
  0
LINE
  5
1417A
  8
0
 10
2099.8531851111152
 20
1589.15347256112
 30
0.0
 11
2131.6022091111149
 21
1589.15347256112
 31
0.0
  0
LINE
  5
1417C
  8
CENTER
 10
2115.727697111115
 20
1542.8429315611199
 30
0.0
 11
2115.727697111115
 21
1593.65347256112
 31
0.0
  0
LINE
  5
1417D
  8
CENTER
 10
2078.727697111115
 20
1571.1534743860359
 30
0.0
 11
2152.727697111115
 21
1571.1534767530391
 31
0.0
  0
LINE
  5
1417E
  8
CENTER
 10
2089.727697111115
 20
1544.74934756112
 30
0.0
 11
2089.727697111115
 21
1582.7930825611199
 31
0.0
  0
LINE
  5
1417F
  8
CENTER
 10
2141.727697111115
 20
1544.74934756112
 30
0.0
 11
2141.727697111115
 21
1582.7930825611199
 31
0.0
  0
LINE
  5
141B3
  8
HIDE
 10
2110.727697111115
 20
1618.88496303537
 30
0.0
 11
2110.727697111115
 21
1654.8849630353691
 31
0.0
  0
LINE
  5
141B4
  8
HIDE
 10
2120.727697111115
 20
1618.88496303537
 30
0.0
 11
2120.727697111115
 21
1654.8849630353691
 31
0.0
  0
LINE
  5
141B5
  8
0
 10
2099.8531851111152
 20
1629.8849480353699
 30
0.0
 11
2099.8531851111152
 21
1653.88496303537
 31
0.0
  0
LINE
  5
141B6
  8
0
 10
2131.6022091111149
 20
1629.8849480353699
 30
0.0
 11
2131.6022091111149
 21
1653.88496303537
 31
0.0
  0
LINE
  5
141B9
  8
0
 10
2105.727697111115
 20
1618.88496303537
 30
0.0
 11
2105.727697111115
 21
1623.884917035369
 31
0.0
  0
LINE
  5
141BA
  8
0
 10
2125.727697111115
 20
1618.88496303537
 30
0.0
 11
2125.727697111115
 21
1623.884917035369
 31
0.0
  0
LINE
  5
141BB
  8
0
 10
2105.727697111115
 20
1618.88496303537
 30
0.0
 11
2125.727697111115
 21
1618.88496303537
 31
0.0
  0
LINE
  5
141BC
  8
CENTER
 10
2131.858872111115
 20
1641.884948035369
 30
0.0
 11
2150.8830681111149
 21
1641.884948035369
 31
0.0
  0
LINE
  5
141BD
  8
CENTER
 10
2141.727697111115
 20
1633.79094503537
 30
0.0
 11
2141.727697111115
 21
1650.0356280353701
 31
0.0
  0
CIRCLE
  5
141BE
  8
0
 10
2141.727697111115
 20
1641.884948035369
 30
0.0
 40
7.0
  0
CIRCLE
  5
141BF
  8
0
 10
2141.727697111115
 20
1641.884948035369
 30
0.0
 40
4.25
  0
CIRCLE
  5
141C0
  8
0
 10
2089.727697111115
 20
1641.884948035369
 30
0.0
 40
4.25
  0
CIRCLE
  5
141C1
  8
0
 10
2089.727697111115
 20
1641.884948035369
 30
0.0
 40
7.0
  0
LINE
  5
141C2
  8
0
 10
2108.727697111115
 20
1653.88496303537
 30
0.0
 11
2108.727697111115
 21
1654.8849630353691
 31
0.0
  0
LINE
  5
141C3
  8
0
 10
2122.727697111115
 20
1653.88496303537
 30
0.0
 11
2122.727697111115
 21
1654.8849630353691
 31
0.0
  0
LINE
  5
141C4
  8
0
 10
2108.727697111115
 20
1654.8849630353691
 30
0.0
 11
2122.727697111115
 21
1654.8849630353691
 31
0.0
  0
LINE
  5
141C5
  8
CENTER
 10
2113.227697111115
 20
1622.384913035369
 30
0.0
 11
2118.227697111115
 21
1622.384913035369
 31
0.0
  0
LINE
  5
141C6
  8
CENTER
 10
2115.727697111115
 20
1616.485895061857
 30
0.0
 11
2115.727697111115
 21
1657.8884518592929
 31
0.0
  0
LINE
  5
141C7
  8
0
 10
2097.727697111115
 20
1629.8849480353699
 30
0.0
 11
2097.727697111115
 21
1653.88496303537
 31
0.0
  0
LINE
  5
141C8
  8
0
 10
2133.727697111115
 20
1629.8849480353699
 30
0.0
 11
2133.727697111115
 21
1653.88496303537
 31
0.0
  0
LINE
  5
141C9
  8
0
 10
2080.727697111115
 20
1629.8849480353699
 30
0.0
 11
2080.727697111115
 21
1653.88496303537
 31
0.0
  0
LINE
  5
141CA
  8
0
 10
2150.727697111115
 20
1629.8849480353699
 30
0.0
 11
2150.727697111115
 21
1653.88496303537
 31
0.0
  0
LINE
  5
141CB
  8
0
 10
2080.727697111115
 20
1629.8849480353699
 30
0.0
 11
2150.727697111115
 21
1629.8849480353699
 31
0.0
  0
LINE
  5
141CC
  8
0
 10
2080.727697111115
 20
1653.88496303537
 30
0.0
 11
2150.727697111115
 21
1653.88496303537
 31
0.0
  0
LINE
  5
141CD
  8
0
 10
2114.313390111115
 20
1623.884917035369
 30
0.0
 11
2114.313390111115
 21
1618.88496303537
 31
0.0
  0
LINE
  5
141CE
  8
0
 10
2117.141973111115
 20
1623.884917035369
 30
0.0
 11
2117.141973111115
 21
1618.88496303537
 31
0.0
  0
LINE
  5
141CF
  8
CENTER
 10
2079.858872111115
 20
1641.884948035369
 30
0.0
 11
2098.8830681111149
 21
1641.884948035369
 31
0.0
  0
LINE
  5
141D0
  8
CENTER
 10
2089.727697111115
 20
1633.79094503537
 30
0.0
 11
2089.727697111115
 21
1650.0356280353701
 31
0.0
  0
LINE
  5
141D1
  8
0
 10
2099.227697111115
 20
1623.8849170353701
 30
0.0
 11
2132.2276977236702
 21
1623.884917035369
 31
0.0
  0
ARC
  5
141D2
  8
0
 10
2115.727682111115
 20
1622.384913035369
 30
0.0
 40
1.6499849999995591
 50
114.6185072286229
 51
65.381492771377054
  0
ARC
  5
141D3
  8
0
 10
2115.727697111115
 20
1622.384913035369
 30
0.0
 40
1.9999999999995439
 50
131.40944886280539
 51
48.590551137194531
  0
POLYLINE
  5
141D4
  8
0
 66
     1
 10
0.0
 20
0.0
 30
0.0
 70
     1
  0
VERTEX
  5
143B0
  8
0
 10
2117.0717288060901
 20
1622.384913035369
 30
0.0
  0
VERTEX
  5
143B1
  8
0
 10
2116.3997129586019
 20
1623.548878626709
 30
0.0
  0
VERTEX
  5
143B2
  8
0
 10
2115.0556812636278
 20
1623.548878626709
 30
0.0
  0
VERTEX
  5
143B3
  8
0
 10
2114.38366541614
 20
1622.384913035369
 30
0.0
  0
VERTEX
  5
143B4
  8
0
 10
2115.0556812636278
 20
1621.2209474440299
 30
0.0
  0
VERTEX
  5
143B5
  8
0
 10
2116.3997129586019
 20
1621.2209474440299
 30
0.0
  0
SEQEND
  5
143B6
  8
0
  0
LINE
  5
141D6
  8
0
 10
2190.196905111115
 20
1553.1534759767201
 30
0.0
 11
2196.196905111115
 21
1553.1534759767201
 31
0.0
  0
LINE
  5
141D7
  8
0
 10
2196.196905111115
 20
1581.15347656112
 30
0.0
 11
2220.1969071111148
 21
1581.15347656112
 31
0.0
  0
LINE
  5
141D8
  8
0
 10
2196.196905111115
 20
1587.15347256112
 30
0.0
 11
2220.1969071111148
 21
1587.15347256112
 31
0.0
  0
LINE
  5
141D9
  8
0
 10
2220.1969071111148
 20
1546.15347656112
 30
0.0
 11
2220.1969071111148
 21
1589.15347256112
 31
0.0
  0
LINE
  5
141DA
  8
0
 10
2196.196905111115
 20
1546.15347656112
 30
0.0
 11
2196.196905111115
 21
1589.1534768684569
 31
0.0
  0
LINE
  5
141DB
  8
0
 10
2190.196905111115
 20
1553.1534759767201
 30
0.0
 11
2190.196905111115
 21
1587.653471561119
 31
0.0
  0
LINE
  5
141DC
  8
0
 10
2196.196905111115
 20
1546.15347656112
 30
0.0
 11
2220.1969071111148
 21
1546.15347656112
 31
0.0
  0
LINE
  5
141DD
  8
0
 10
2196.196905111115
 20
1589.15347256112
 30
0.0
 11
2220.1969071111148
 21
1589.15347256112
 31
0.0
  0
LINE
  5
141DE
  8
CENTER
 10
2182.6787518081251
 20
1571.15347656112
 30
0.0
 11
2223.228190428893
 21
1571.15347656112
 31
0.0
  0
LINE
  5
141DF
  8
HIDE
 10
2193.1969071111148
 20
1566.15347656112
 30
0.0
 11
2198.1969071111148
 21
1566.1534765611191
 31
0.0
  0
LINE
  5
141E0
  8
HIDE
 10
2214.1969071111139
 20
1566.1534765611191
 30
0.0
 11
2221.1969071111148
 21
1566.15347656112
 31
0.0
  0
LINE
  5
141E1
  8
HIDE
 10
2193.1969071111148
 20
1576.1534765611191
 30
0.0
 11
2198.1969071111148
 21
1576.1534765611191
 31
0.0
  0
LINE
  5
141E2
  8
HIDE
 10
2214.1969071111139
 20
1576.1534765611191
 30
0.0
 11
2221.1969071111148
 21
1576.15347656112
 31
0.0
  0
LINE
  5
141E3
  8
HIDE
 10
2193.1969071111148
 20
1564.15347656112
 30
0.0
 11
2198.1969071111148
 21
1564.15347656112
 31
0.0
  0
LINE
  5
141E4
  8
HIDE
 10
2214.1969071111148
 20
1564.15347656112
 30
0.0
 11
2220.1969071111148
 21
1564.15347656112
 31
0.0
  0
LINE
  5
141E5
  8
HIDE
 10
2193.1969071111148
 20
1578.15347656112
 30
0.0
 11
2198.1969071111148
 21
1578.15347656112
 31
0.0
  0
LINE
  5
141E6
  8
HIDE
 10
2214.1969071111148
 20
1578.15347656112
 30
0.0
 11
2220.1969071111148
 21
1578.15347656112
 31
0.0
  0
LINE
  5
141E7
  8
CENTER
 10
2195.2811579012109
 20
1571.15347656112
 30
0.0
 11
2184.2966544849101
 21
1571.15347656112
 31
0.0
  0
LINE
  5
141E8
  8
0
 10
2190.196905111115
 20
1581.15347656112
 30
0.0
 11
2185.1969071111171
 21
1581.15347656112
 31
0.0
  0
LINE
  5
141E9
  8
HIDE
 10
2192.6969071111148
 20
1581.15347656112
 30
0.0
 11
2192.6969071111148
 21
1571.15347656112
 31
0.0
  0
LINE
  5
141EA
  8
HIDE
 10
2193.1969071111148
 20
1578.65347656112
 30
0.0
 11
2193.1969071111148
 21
1571.15347656112
 31
0.0
  0
LINE
  5
141EB
  8
CENTER
 10
2188.6969071111148
 20
1581.7506682382179
 30
0.0
 11
2188.6969071111148
 21
1574.9601468554811
 31
0.0
  0
LINE
  5
141EC
  8
0
 10
2185.1969071111148
 20
1581.15347656112
 30
0.0
 11
2185.1969071111148
 21
1571.15347656112
 31
0.0
  0
LINE
  5
141ED
  8
HIDE
 10
2193.196907111113
 20
1578.6534765611209
 30
0.0
 11
2192.696907111113
 21
1578.942151695717
 31
0.0
  0
LINE
  5
141EE
  8
0
 10
2190.196905111115
 20
1572.5676901234949
 30
0.0
 11
2185.1969071111148
 21
1572.567690123496
 31
0.0
  0
LINE
  5
141EF
  8
HIDE
 10
2193.1969071111148
 20
1575.6534765611209
 30
0.0
 11
2185.1969071111148
 21
1575.65347656112
 31
0.0
  0
LINE
  5
141F0
  8
HIDE
 10
2193.1969071111148
 20
1576.15347656112
 30
0.0
 11
2185.1969071111148
 21
1576.15347656112
 31
0.0
  0
LINE
  5
141F1
  8
HIDE
 10
2187.1969071111148
 20
1581.15347656112
 30
0.0
 11
2187.196907111113
 21
1575.65347656112
 31
0.0
  0
LINE
  5
141F2
  8
HIDE
 10
2187.4469071111148
 20
1581.15347656112
 30
0.0
 11
2187.4469071111148
 21
1575.65347656112
 31
0.0
  0
LINE
  5
141F3
  8
HIDE
 10
2190.196907111113
 20
1581.15347656112
 30
0.0
 11
2190.1969071111112
 21
1575.65347656112
 31
0.0
  0
LINE
  5
141F4
  8
HIDE
 10
2189.9469071111148
 20
1581.15347656112
 30
0.0
 11
2189.9469071111148
 21
1575.65347656112
 31
0.0
  0
LINE
  5
141F5
  8
HIDE
 10
2190.1969071111112
 20
1577.6265016949569
 30
0.0
 11
2187.1969071111112
 21
1577.6265016949569
 31
0.0
  0
LINE
  5
141F6
  8
HIDE
 10
2190.1969071111112
 20
1580.6265016949569
 30
0.0
 11
2187.1969071111112
 21
1580.6265016949569
 31
0.0
  0
LINE
  5
141F7
  8
HIDE
 10
2190.1969071111112
 20
1577.6265016949551
 30
0.0
 11
2189.9469071111148
 21
1577.4821641276601
 31
0.0
  0
LINE
  5
141F8
  8
HIDE
 10
2187.1969071111148
 20
1577.626501694956
 30
0.0
 11
2187.4469071111148
 21
1577.482164127659
 31
0.0
  0
LINE
  5
141F9
  8
HIDE
 10
2189.9469071111148
 20
1577.4821641276601
 30
0.0
 11
2187.4469071111148
 21
1577.482164127659
 31
0.0
  0
LINE
  5
141FA
  8
0
 10
2190.196905111115
 20
1561.1534765611191
 30
0.0
 11
2185.1969071111171
 21
1561.15347656112
 31
0.0
  0
LINE
  5
141FB
  8
HIDE
 10
2192.6969071111148
 20
1561.15347656112
 30
0.0
 11
2192.6969071111148
 21
1571.15347656112
 31
0.0
  0
LINE
  5
141FC
  8
HIDE
 10
2193.1969071111148
 20
1563.65347656112
 30
0.0
 11
2193.1969071111148
 21
1571.15347656112
 31
0.0
  0
LINE
  5
141FD
  8
0
 10
2185.1969071111148
 20
1561.15347656112
 30
0.0
 11
2185.1969071111148
 21
1571.15347656112
 31
0.0
  0
LINE
  5
141FE
  8
HIDE
 10
2193.196907111113
 20
1563.6534765611191
 30
0.0
 11
2192.696907111113
 21
1563.3648014265229
 31
0.0
  0
LINE
  5
141FF
  8
0
 10
2190.196905111115
 20
1569.7392629987439
 30
0.0
 11
2185.1969071111148
 21
1569.7392629987439
 31
0.0
  0
LINE
  5
14200
  8
HIDE
 10
2193.1969071111148
 20
1566.6534765611191
 30
0.0
 11
2185.1969071111148
 21
1566.65347656112
 31
0.0
  0
LINE
  5
14201
  8
HIDE
 10
2193.1969071111148
 20
1566.15347656112
 30
0.0
 11
2185.1969071111148
 21
1566.15347656112
 31
0.0
  0
CIRCLE
  5
14202
  8
HIDE
 10
2210.1969071111148
 20
1562.15347656112
 30
0.0
 40
2.399999999999999
  0
CIRCLE
  5
14203
  8
HIDE
 10
2210.1969071111148
 20
1580.15347656112
 30
0.0
 40
2.399999999999999
  0
CIRCLE
  5
14204
  8
HIDE
 10
2202.1969071111148
 20
1562.15347656112
 30
0.0
 40
2.399999999999999
  0
CIRCLE
  5
14205
  8
HIDE
 10
2202.1969071111148
 20
1580.15347656112
 30
0.0
 40
2.399999999999999
  0
ARC
  5
14206
  8
HIDE
 10
2206.0469071111152
 20
1584.0034765611199
 30
0.0
 40
0.1500000000000003
 50
0.0
 51
90.0
  0
ARC
  5
14207
  8
HIDE
 10
2198.496907111115
 20
1583.85347656112
 30
0.0
 40
0.3000000000000007
 50
90.0
 51
180.0
  0
ARC
  5
14208
  8
HIDE
 10
2205.8969071111151
 20
1576.4534765611199
 30
0.0
 40
0.2999999999999998
 50
270.0
 51
0.0
  0
ARC
  5
14209
  8
HIDE
 10
2205.8969071111151
 20
1565.85347656112
 30
0.0
 40
0.3000000000000007
 50
0.0
 51
90.0
  0
ARC
  5
1420A
  8
HIDE
 10
2198.3469071111149
 20
1576.3034765611189
 30
0.0
 40
0.1500000000000003
 50
180.0
 51
270.0
  0
ARC
  5
1420B
  8
HIDE
 10
2198.3469071111149
 20
1566.0034765611199
 30
0.0
 40
0.1500000000000003
 50
90.0
 51
180.0
  0
ARC
  5
1420C
  8
HIDE
 10
2206.0469071111152
 20
1558.3034765611201
 30
0.0
 40
0.1500000000000003
 50
270.0
 51
0.0
  0
ARC
  5
1420D
  8
HIDE
 10
2198.496907111115
 20
1558.4534765611199
 30
0.0
 40
0.2999999999999989
 50
180.0
 51
270.0
  0
LINE
  5
1420E
  8
HIDE
 10
2198.1969071111148
 20
1581.4534765611199
 30
0.0
 11
2200.179483010932
 21
1581.4534765611199
 31
0.0
  0
LINE
  5
1420F
  8
HIDE
 10
2198.496907111115
 20
1584.15347656112
 30
0.0
 11
2206.0469071111152
 21
1584.15347656112
 31
0.0
  0
LINE
  5
14210
  8
HIDE
 10
2206.1969071111148
 20
1578.85347656112
 30
0.0
 11
2204.214331211298
 21
1578.85347656112
 31
0.0
  0
LINE
  5
14211
  8
HIDE
 10
2203.050182601206
 20
1582.3966709214039
 30
0.0
 11
2206.1969071111148
 21
1582.7034765611199
 31
0.0
  0
LINE
  5
14212
  8
HIDE
 10
2198.1969071111148
 20
1578.85347656112
 30
0.0
 11
2200.179483010932
 21
1578.85347656112
 31
0.0
  0
LINE
  5
14213
  8
HIDE
 10
2198.1969071111148
 20
1563.4534765611199
 30
0.0
 11
2200.179483010932
 21
1563.4534765611199
 31
0.0
  0
LINE
  5
14214
  8
HIDE
 10
2198.3469071111149
 20
1576.15347656112
 30
0.0
 11
2205.8969071111151
 21
1576.15347656112
 31
0.0
  0
LINE
  5
14215
  8
HIDE
 10
2198.3469071111149
 20
1566.15347656112
 30
0.0
 11
2205.8969071111151
 21
1566.15347656112
 31
0.0
  0
LINE
  5
14216
  8
HIDE
 10
2206.1969071111148
 20
1563.4534765611199
 30
0.0
 11
2204.214331211298
 21
1563.4534765611199
 31
0.0
  0
LINE
  5
14217
  8
HIDE
 10
2198.1969071111148
 20
1560.85347656112
 30
0.0
 11
2200.179483010932
 21
1560.85347656112
 31
0.0
  0
LINE
  5
14218
  8
HIDE
 10
2206.0469071111152
 20
1558.15347656112
 30
0.0
 11
2198.496907111115
 21
1558.15347656112
 31
0.0
  0
LINE
  5
14219
  8
HIDE
 10
2203.050182601206
 20
1559.910282200836
 30
0.0
 11
2206.1969071111148
 21
1559.60347656112
 31
0.0
  0
LINE
  5
1421A
  8
HIDE
 10
2198.1969071111148
 20
1558.4534765611199
 30
0.0
 11
2198.1969071111148
 21
1583.85347656112
 31
0.0
  0
LINE
  5
1421B
  8
HIDE
 10
2206.1969071111148
 20
1584.0034765611199
 30
0.0
 11
2206.1969071111148
 21
1558.3034765611201
 31
0.0
  0
ARC
  5
1421C
  8
HIDE
 10
2206.3469071111149
 20
1558.3034765611201
 30
0.0
 40
0.1500000000000003
 50
180.0
 51
270.0
  0
ARC
  5
1421D
  8
HIDE
 10
2213.8969071111151
 20
1558.4534765611199
 30
0.0
 40
0.3000000000000007
 50
270.0
 51
0.0
  0
ARC
  5
1421E
  8
HIDE
 10
2206.496907111115
 20
1565.85347656112
 30
0.0
 40
0.2999999999999998
 50
90.0
 51
180.0
  0
ARC
  5
1421F
  8
HIDE
 10
2206.496907111115
 20
1576.4534765611199
 30
0.0
 40
0.2999999999999998
 50
180.0
 51
270.0
  0
ARC
  5
14220
  8
HIDE
 10
2214.0469071111152
 20
1566.0034765611199
 30
0.0
 40
0.15
 50
0.0
 51
90.0
  0
ARC
  5
14221
  8
HIDE
 10
2214.0469071111152
 20
1576.3034765611189
 30
0.0
 40
0.1500000000000003
 50
270.0
 51
0.0
  0
ARC
  5
14222
  8
HIDE
 10
2206.3469071111149
 20
1584.0034765611199
 30
0.0
 40
0.1500000000000003
 50
90.0
 51
180.0
  0
ARC
  5
14223
  8
HIDE
 10
2213.8969071111151
 20
1583.85347656112
 30
0.0
 40
0.3
 50
0.0
 51
90.0
  0
LINE
  5
14224
  8
HIDE
 10
2214.1969071111148
 20
1560.85347656112
 30
0.0
 11
2212.214331211298
 21
1560.85347656112
 31
0.0
  0
LINE
  5
14225
  8
HIDE
 10
2213.8969071111151
 20
1558.15347656112
 30
0.0
 11
2206.3469071111149
 21
1558.15347656112
 31
0.0
  0
LINE
  5
14226
  8
HIDE
 10
2206.1969071111148
 20
1563.4534765611199
 30
0.0
 11
2208.179483010932
 21
1563.4534765611199
 31
0.0
  0
LINE
  5
14227
  8
HIDE
 10
2209.3436316210241
 20
1559.910282200836
 30
0.0
 11
2206.1969071111148
 21
1559.60347656112
 31
0.0
  0
LINE
  5
14228
  8
HIDE
 10
2214.1969071111148
 20
1563.4534765611199
 30
0.0
 11
2212.214331211298
 21
1563.4534765611199
 31
0.0
  0
LINE
  5
14229
  8
HIDE
 10
2214.1969071111148
 20
1578.85347656112
 30
0.0
 11
2212.214331211298
 21
1578.85347656112
 31
0.0
  0
LINE
  5
1422A
  8
HIDE
 10
2214.0469071111152
 20
1566.15347656112
 30
0.0
 11
2206.496907111115
 21
1566.15347656112
 31
0.0
  0
LINE
  5
1422B
  8
HIDE
 10
2214.0469071111152
 20
1576.15347656112
 30
0.0
 11
2206.496907111115
 21
1576.15347656112
 31
0.0
  0
LINE
  5
1422C
  8
HIDE
 10
2206.1969071111148
 20
1578.85347656112
 30
0.0
 11
2208.179483010932
 21
1578.85347656112
 31
0.0
  0
LINE
  5
1422D
  8
HIDE
 10
2214.1969071111148
 20
1581.4534765611199
 30
0.0
 11
2212.214331211298
 21
1581.4534765611199
 31
0.0
  0
LINE
  5
1422E
  8
HIDE
 10
2206.3469071111149
 20
1584.15347656112
 30
0.0
 11
2213.8969071111151
 21
1584.15347656112
 31
0.0
  0
LINE
  5
1422F
  8
HIDE
 10
2209.3436316210241
 20
1582.3966709214039
 30
0.0
 11
2206.1969071111148
 21
1582.7034765611199
 31
0.0
  0
LINE
  5
14230
  8
HIDE
 10
2214.1969071111148
 20
1583.85347656112
 30
0.0
 11
2214.1969071111148
 21
1558.4534765611199
 31
0.0
  0
LINE
  5
14231
  8
0
 10
2220.1969071111148
 20
1578.15347656112
 30
0.0
 11
2221.1969071111148
 21
1578.15347656112
 31
0.0
  0
LINE
  5
14232
  8
0
 10
2220.1969071111148
 20
1564.15347656112
 30
0.0
 11
2221.1969071111148
 21
1564.15347656112
 31
0.0
  0
LINE
  5
14233
  8
0
 10
2221.1969071111148
 20
1578.15347656112
 30
0.0
 11
2221.1969071111148
 21
1564.15347656112
 31
0.0
  0
LINE
  5
14234
  8
HIDE
 10
2190.196905111115
 20
1581.15347656112
 30
0.0
 11
2192.6969071111148
 21
1581.15347656112
 31
0.0
  0
LINE
  5
14235
  8
HIDE
 10
2190.196905111115
 20
1572.5676901234949
 30
0.0
 11
2192.6969071111148
 21
1572.567690123496
 31
0.0
  0
LINE
  5
14236
  8
HIDE
 10
2190.196905111115
 20
1569.7392629987439
 30
0.0
 11
2192.6969071111148
 21
1569.7392629987439
 31
0.0
  0
LINE
  5
14237
  8
HIDE
 10
2190.196905111115
 20
1561.1534765611191
 30
0.0
 11
2192.6969071111148
 21
1561.15347656112
 31
0.0
  0
LINE
  5
14238
  8
CENTER
 10
2208.1969061111149
 20
1539.9897104112561
 30
0.0
 11
2208.1969061111149
 21
1552.570746722565
 31
0.0
  0
LINE
  5
1423F
  8
0
 10
2190.196905111115
 20
1587.653471561119
 30
0.0
 11
2196.196905111115
 21
1587.653471561119
 31
0.0
  0
LINE
  5
14241
  8
0
 10
2099.227697111115
 20
1623.884917035369
 30
0.0
 11
2099.227697111115
 21
1629.8849480353699
 31
0.0
  0
LINE
  5
14242
  8
0
 10
2132.2276977236702
 20
1623.884917035369
 30
0.0
 11
2132.2276977236702
 21
1629.8849480353699
 31
0.0
  0
ENDSEC
  0
EOF
