  0
SECTION
  2
HEADER
  9
$ACADVER
  1
AC1009
  9
$INSBASE
 10
0.0
 20
0.0
 30
0.0
  9
$EXTMIN
 10
1854.057268527424
 20
1433.173578249188
 30
0.0
  9
$EXTMAX
 10
2348.540574929003
 20
1781.974764523374
 30
0.0
  9
$LIMMIN
 10
0.0
 20
0.0
  9
$LIMMAX
 10
12.0
 20
9.0
  9
$ORTHOMODE
 70
     0
  9
$REGENMODE
 70
     1
  9
$FILLMODE
 70
     1
  9
$QTEXTMODE
 70
     0
  9
$MIRRTEXT
 70
     0
  9
$DRAGMODE
 70
     2
  9
$LTSCALE
 40
5.0
  9
$OSMODE
 70
  2239
  9
$ATTMODE
 70
     1
  9
$TEXTSIZE
 40
2.5
  9
$TRACEWID
 40
0.05
  9
$TEXTSTYLE
  7
BIG
  9
$CLAYER
  8
0
  9
$CELTYPE
  6
BYLAYER
  9
$CECOLOR
 62
   256
  9
$DIMSCALE
 40
1.0
  9
$DIMASZ
 40
3.0
  9
$DIMEXO
 40
1.0
  9
$DIMDLI
 40
0.0
  9
$DIMRND
 40
0.0
  9
$DIMDLE
 40
0.0
  9
$DIMEXE
 40
1.0
  9
$DIMTP
 40
0.0
  9
$DIMTM
 40
0.0
  9
$DIMTXT
 40
3.0
  9
$DIMCEN
 40
0.0
  9
$DIMTSZ
 40
0.0
  9
$DIMTOL
 70
     0
  9
$DIMLIM
 70
     0
  9
$DIMTIH
 70
     0
  9
$DIMTOH
 70
     0
  9
$DIMSE1
 70
     0
  9
$DIMSE2
 70
     0
  9
$DIMTAD
 70
     1
  9
$DIMZIN
 70
     8
  9
$DIMBLK
  1

  9
$DIMASO
 70
     1
  9
$DIMSHO
 70
     1
  9
$DIMPOST
  1

  9
$DIMAPOST
  1

  9
$DIMALT
 70
     0
  9
$DIMALTD
 70
     2
  9
$DIMALTF
 40
25.399999999999999
  9
$DIMLFAC
 40
1.0
  9
$DIMTOFL
 70
     1
  9
$DIMTVP
 40
0.0
  9
$DIMTIX
 70
     1
  9
$DIMSOXD
 70
     0
  9
$DIMSAH
 70
     0
  9
$DIMBLK1
  1

  9
$DIMBLK2
  1

  9
$DIMSTYLE
  2
DUKITEC
  9
$DIMCLRD
 70
     5
  9
$DIMCLRE
 70
     5
  9
$DIMCLRT
 70
     0
  9
$DIMTFAC
 40
1.0
  9
$DIMGAP
 40
1.0
  9
$LUNITS
 70
     2
  9
$LUPREC
 70
     4
  9
$SKETCHINC
 40
0.1
  9
$FILLETRAD
 40
0.2
  9
$AUNITS
 70
     0
  9
$AUPREC
 70
     0
  9
$MENU
  1
.
  9
$ELEVATION
 40
0.0
  9
$PELEVATION
 40
0.0
  9
$THICKNESS
 40
0.0
  9
$LIMCHECK
 70
     0
  9
$BLIPMODE
 70
     0
  9
$CHAMFERA
 40
0.5
  9
$CHAMFERB
 40
0.5
  9
$SKPOLY
 70
     0
  9
$TDCREATE
 40
2454396.7100739582
  9
$TDUPDATE
 40
2456630.6297137849
  9
$TDINDWG
 40
0.0024944213
  9
$TDUSRTIMER
 40
0.0024942014
  9
$USRTIMER
 70
     1
  9
$ANGBASE
 50
0.0
  9
$ANGDIR
 70
     0
  9
$PDMODE
 70
     0
  9
$PDSIZE
 40
0.0
  9
$PLINEWID
 40
0.0
  9
$COORDS
 70
     1
  9
$SPLFRAME
 70
     0
  9
$SPLINETYPE
 70
     6
  9
$SPLINESEGS
 70
     8
  9
$ATTDIA
 70
     0
  9
$ATTREQ
 70
     1
  9
$HANDLING
 70
     1
  9
$HANDSEED
  5
1437C
  9
$SURFTAB1
 70
     6
  9
$SURFTAB2
 70
     6
  9
$SURFTYPE
 70
     6
  9
$SURFU
 70
     6
  9
$SURFV
 70
     6
  9
$UCSNAME
  2

  9
$UCSORG
 10
0.0
 20
0.0
 30
0.0
  9
$UCSXDIR
 10
1.0
 20
0.0
 30
0.0
  9
$UCSYDIR
 10
0.0
 20
1.0
 30
0.0
  9
$PUCSNAME
  2

  9
$PUCSORG
 10
0.0
 20
0.0
 30
0.0
  9
$PUCSXDIR
 10
1.0
 20
0.0
 30
0.0
  9
$PUCSYDIR
 10
0.0
 20
1.0
 30
0.0
  9
$USERI1
 70
     0
  9
$USERI2
 70
     0
  9
$USERI3
 70
     0
  9
$USERI4
 70
     0
  9
$USERI5
 70
     0
  9
$USERR1
 40
0.0
  9
$USERR2
 40
0.0
  9
$USERR3
 40
0.0
  9
$USERR4
 40
0.0
  9
$USERR5
 40
0.0
  9
$WORLDVIEW
 70
     1
  9
$SHADEDGE
 70
     3
  9
$SHADEDIF
 70
    70
  9
$TILEMODE
 70
     1
  9
$MAXACTVP
 70
    64
  9
$PLIMCHECK
 70
     0
  9
$PEXTMIN
 10
0.0
 20
0.0
 30
0.0
  9
$PEXTMAX
 10
0.0
 20
0.0
 30
0.0
  9
$PLIMMIN
 10
0.0
 20
0.0
  9
$PLIMMAX
 10
12.0
 20
9.0
  9
$UNITMODE
 70
     0
  9
$VISRETAIN
 70
     1
  9
$PLINEGEN
 70
     0
  9
$PSLTSCALE
 70
     1
  0
ENDSEC
  0
SECTION
  2
TABLES
  0
TABLE
  2
VPORT
 70
     1
  0
VPORT
  2
*ACTIVE
 70
     0
 10
0.0
 20
0.0
 11
1.0
 21
1.0
 12
2083.201462109389
 22
1578.798997088544
 13
0.0
 23
0.0
 14
0.5
 24
0.5
 15
0.5
 25
0.5
 16
0.0
 26
0.0
 36
1.0
 17
0.0
 27
0.0
 37
0.0
 40
201.201228284096
 41
2.1408934707903771
 42
50.0
 43
0.0
 44
0.0
 50
0.0
 51
0.0
 71
     0
 72
  2000
 73
     1
 74
     3
 75
     0
 76
     1
 77
     0
 78
     0
  0
ENDTAB
  0
TABLE
  2
LTYPE
 70
     5
  0
LTYPE
  2
CONTINUOUS
 70
     0
  3
Solid line
 72
    65
 73
     0
 40
0.0
  0
LTYPE
  2
PHANTOM2
 70
     0
  3
Phantom (.5x) ___ _ _ ___ _ _ ___ _ _ ___ _ _
 72
    65
 73
     6
 40
1.25
 49
0.625
 49
-0.125
 49
0.125
 49
-0.125
 49
0.125
 49
-0.125
  0
LTYPE
  2
CENTER
 70
     0
  3
___ _ ___ _ ___ _ ___ _ ___ _ ___ _ ___ _ ___ _
 72
    65
 73
     4
 40
0.95
 49
0.625
 49
-0.125
 49
0.075
 49
-0.125
  0
LTYPE
  2
DASHED2
 70
     0
  3
Dashed (.5x) _ _ _ _ _ _ _ _ _ _ _ _ _ _ _ _ _
 72
    65
 73
     2
 40
0.375
 49
0.25
 49
-0.125
  0
ENDTAB
  0
TABLE
  2
LAYER
 70
     4
  0
LAYER
  2
0
 70
     0
 62
     7
  6
CONTINUOUS
  0
LAYER
  2
HIDE
 70
     0
 62
     1
  6
DASHED2
  0
LAYER
  2
CENTER
 70
     0
 62
     3
  6
CENTER
  0
ENDTAB
  0
TABLE
  2
STYLE
 70
     3
  0
STYLE
  2
STANDARD
 70
     0
 40
5.0
 41
1.0
 50
0.0
 71
     0
 42
5.0
  3
txt.shx
  4
whgtxt.shx
  0
STYLE
  2
BIG
 70
     0
 40
20.0
 41
1.0
 50
0.0
 71
     0
 42
2.5
  3
txt
  4

  0
ENDTAB
  0
TABLE
  2
VIEW
 70
     0
  0
ENDTAB
  0
TABLE
  2
UCS
 70
     0
  0
ENDTAB
  0
TABLE
  2
APPID
 70
    11
  0
APPID
  2
ACAD
 70
     0
  0
APPID
  2
ACADANNOTATIVE
 70
     0
  0
APPID
  2
ACAD_EXEMPT_FROM_CAD_STANDARDS
 70
     0
  0
APPID
  2
ACAD_DSTYLE_DIMJOGGED_JOGA
 70
     0
  0
APPID
  2
ACAD_PSEXT
 70
     0
  0
APPID
  2
ACAECLAYERSTANDARD
 70
     0
  0
APPID
  2
DCO15
 70
     0
  0
APPID
  2
CONTENTBLOCKICON
 70
     0
  0
APPID
  2
ACAD_NAV_VCDISPLAY
 70
     0
  0
APPID
  2
ACAD_DSTYLE_DIMRADIAL_EXTENSION
 70
     0
  0
APPID
  2
ACAD_MLEADERVER
 70
     0
  0
ENDTAB
  0
TABLE
  2
DIMSTYLE
 70
     4
  0
DIMSTYLE
  2
DUKITEC
 70
     0
  3

  4

  5

  6

  7

 40
1.0
 41
3.0
 42
1.0
 43
0.0
 44
1.0
 45
0.0
 46
0.0
 47
0.0
 48
0.0
140
3.0
141
0.0
142
0.0
143
25.399999999999999
144
1.0
145
0.0
146
1.0
147
1.0
 71
     0
 72
     0
 73
     0
 74
     0
 75
     0
 76
     0
 77
     1
 78
     8
170
     0
171
     2
172
     1
173
     0
174
     1
175
     0
176
     5
177
     5
178
     0
  0
ENDTAB
  0
ENDSEC
  0
SECTION
  2
BLOCKS
  0
BLOCK
  8
0
  2
$MODEL_SPACE
 70
     0
 10
0.0
 20
0.0
 30
0.0
  3
$MODEL_SPACE
  1

  0
ENDBLK
  5
140C1
  8
0
  0
BLOCK
 67
     1
  8
0
  2
$PAPER_SPACE
 70
     0
 10
0.0
 20
0.0
 30
0.0
  3
$PAPER_SPACE
  1

  0
ENDBLK
  5
140BD
 67
     1
  8
0
  0
ENDSEC
  0
SECTION
  2
ENTITIES
  0
POLYLINE
  5
13E1C
  8
0
 66
     1
 10
0.0
 20
0.0
 30
0.0
 70
     1
  0
VERTEX
  5
14318
  8
0
 10
1945.2310921831061
 20
1465.894526478485
 30
0.0
  0
VERTEX
  5
14319
  8
0
 10
1945.2310921831061
 20
1686.394526478485
 30
0.0
  0
VERTEX
  5
1431A
  8
0
 10
2257.0810921831071
 20
1686.394526478485
 30
0.0
  0
VERTEX
  5
1431B
  8
0
 10
2257.0810921831071
 20
1465.894526478485
 30
0.0
  0
VERTEX
  5
1431C
  8
0
 10
1945.2310921831061
 20
1465.894526478485
 30
0.0
  0
SEQEND
  5
1431D
  8
0
  0
TEXT
  5
1401A
  8
0
 10
2049.4412860374782
 20
1486.4369800370409
 30
0.0
 40
20.0
  1
AK 12
  7
BIG
  0
ARC
  5
14126
  8
CENTER
 10
2062.648508439057
 20
1554.736357759954
 30
0.0
 40
17.0
 50
119.4810775055881
 51
150.67110791968099
  0
ARC
  5
14127
  8
CENTER
 10
2062.648508439057
 20
1554.736357759954
 30
0.0
 40
17.0
 50
31.120499175417208
 51
60.098043755689183
  0
ARC
  5
14128
  8
CENTER
 10
2062.648508439057
 20
1554.736357759954
 30
0.0
 40
17.0
 50
300.61809696235059
 51
330.15465030819502
  0
CIRCLE
  5
14129
  8
0
 10
2062.648508439057
 20
1554.736357759954
 30
0.0
 40
12.5
  0
CIRCLE
  5
1412A
  8
0
 10
2074.6692604390569
 20
1566.7571177599541
 30
0.0
 40
3.25
  0
CIRCLE
  5
1412B
  8
0
 10
2050.6277564390571
 20
1542.715605759953
 30
0.0
 40
3.25
  0
CIRCLE
  5
1412C
  8
0
 10
2050.6277564390571
 20
1566.7571177599541
 30
0.0
 40
3.25
  0
ARC
  5
1412D
  8
0
 10
2062.648508439057
 20
1554.736357759954
 30
0.0
 40
21.75
 50
308.59184999998422
 51
321.40816000000387
  0
ARC
  5
1412E
  8
0
 10
2062.648508439057
 20
1554.736357759954
 30
0.0
 40
21.75
 50
218.59185999998849
 51
231.40819000001321
  0
ARC
  5
1412F
  8
0
 10
2062.648508439057
 20
1554.736357759954
 30
0.0
 40
21.75
 50
128.5918599999884
 51
141.4081400000114
  0
ARC
  5
14130
  8
0
 10
2062.648508439057
 20
1554.736357759954
 30
0.0
 40
21.75
 50
38.59184899998634
 51
51.408150000015759
  0
CIRCLE
  5
14131
  8
0
 10
2074.6692604390569
 20
1542.7155447599539
 30
0.0
 40
3.25
  0
ARC
  5
14132
  8
CENTER
 10
2062.648508439057
 20
1554.736357759954
 30
0.0
 40
17.0
 50
211.00408891408509
 51
240.35700389321161
  0
LINE
  5
14133
  8
CENTER
 10
2047.75209152004
 20
1539.8400188409371
 30
0.0
 11
2053.5281654390569
 21
1545.616092759954
 31
0.0
  0
LINE
  5
14134
  8
CENTER
 10
2047.2840984390571
 20
1570.100786759954
 30
0.0
 11
2053.6740834390571
 21
1563.7108007599541
 31
0.0
  0
LINE
  5
14135
  8
0
 10
2051.8524994390568
 20
1541.490691759954
 30
0.0
 11
2052.3008204390571
 21
1543.163847759954
 31
0.0
  0
LINE
  5
14136
  8
0
 10
2048.9547214390568
 20
1542.2671497599531
 30
0.0
 11
2049.403043439057
 21
1543.940304759954
 31
0.0
  0
LINE
  5
14137
  8
0
 10
2052.3009574390571
 20
1543.1638767599541
 30
0.0
 11
2051.0761224390571
 21
1544.388711759954
 31
0.0
  0
LINE
  5
14138
  8
0
 10
2050.179636439057
 20
1541.042556759953
 30
0.0
 11
2048.9548014390571
 21
1542.2673917599541
 31
0.0
  0
LINE
  5
14139
  8
0
 10
2050.179398439057
 20
1541.0425257599541
 30
0.0
 11
2051.852552439057
 21
1541.4908457599529
 31
0.0
  0
LINE
  5
1413A
  8
0
 10
2049.4029404390571
 20
1543.9403037599529
 30
0.0
 11
2051.0760364390571
 21
1544.3886077599541
 31
0.0
  0
LINE
  5
1413B
  8
0
 10
2075.8940974390571
 20
1543.9403617599539
 30
0.0
 11
2074.2209414390568
 21
1544.388682759954
 31
0.0
  0
LINE
  5
1413C
  8
0
 10
2075.1176394390568
 20
1541.042584759954
 30
0.0
 11
2073.4444854390572
 21
1541.4909047599531
 31
0.0
  0
LINE
  5
1413D
  8
0
 10
2074.2210944390572
 20
1544.3887107599539
 30
0.0
 11
2072.9962594390572
 21
1543.1638767599541
 31
0.0
  0
LINE
  5
1413E
  8
0
 10
2076.3424144390569
 20
1542.2673917599541
 30
0.0
 11
2075.117579439057
 21
1541.042556759953
 31
0.0
  0
LINE
  5
1413F
  8
0
 10
2076.3423584390571
 20
1542.2672267599539
 30
0.0
 11
2075.8940364390569
 21
1543.940382759954
 31
0.0
  0
LINE
  5
14140
  8
0
 10
2073.4445804390571
 20
1541.4907707599541
 30
0.0
 11
2072.996269439057
 21
1543.163888759954
 31
0.0
  0
LINE
  5
14141
  8
0
 10
2073.4444264390572
 20
1567.981959759954
 30
0.0
 11
2072.9961064390568
 21
1566.3088047599531
 31
0.0
  0
LINE
  5
14142
  8
0
 10
2076.3422044390568
 20
1567.205502759954
 30
0.0
 11
2075.8938844390568
 21
1565.532346759954
 31
0.0
  0
LINE
  5
14143
  8
0
 10
2072.9962604390571
 20
1566.308849759954
 30
0.0
 11
2074.2210944390572
 21
1565.084014759954
 31
0.0
  0
LINE
  5
14144
  8
0
 10
2075.117579439057
 20
1568.4301687599541
 30
0.0
 11
2076.3424154390568
 21
1567.205334759954
 31
0.0
  0
LINE
  5
14145
  8
0
 10
2075.1176594390572
 20
1568.4301727599529
 30
0.0
 11
2073.4445044390568
 21
1567.9818527599541
 31
0.0
  0
LINE
  5
14146
  8
0
 10
2075.8941164390571
 20
1565.5323967599541
 30
0.0
 11
2074.220990439057
 21
1565.084083759954
 31
0.0
  0
LINE
  5
14147
  8
0
 10
2049.4028294390569
 20
1565.532289759954
 30
0.0
 11
2051.0759844390568
 21
1565.083967759954
 31
0.0
  0
LINE
  5
14148
  8
0
 10
2050.1792864390568
 20
1568.4300667599539
 30
0.0
 11
2051.8524414390572
 21
1567.981745759954
 31
0.0
  0
LINE
  5
14149
  8
0
 10
2051.0761214390568
 20
1565.0840137599539
 30
0.0
 11
2052.3009564390568
 21
1566.308849759954
 31
0.0
  0
LINE
  5
1414A
  8
0
 10
2048.9548014390571
 20
1567.205334759954
 30
0.0
 11
2050.179636439057
 21
1568.4301687599541
 31
0.0
  0
LINE
  5
1414B
  8
0
 10
2048.9546984390572
 20
1567.2054707599541
 30
0.0
 11
2049.4030204390569
 21
1565.5323157599539
 31
0.0
  0
LINE
  5
1414C
  8
0
 10
2051.8524764390572
 20
1567.981927759954
 30
0.0
 11
2052.3007834390569
 21
1566.3088247599539
 31
0.0
  0
LINE
  5
1414D
  8
0
 10
2079.648508439057
 20
1541.169386759954
 30
0.0
 11
2079.648508439057
 21
1568.303328759954
 31
0.0
  0
LINE
  5
1414E
  8
0
 10
2045.648508439057
 20
1541.169386759954
 30
0.0
 11
2045.648508439057
 21
1568.303328759954
 31
0.0
  0
LINE
  5
1414F
  8
0
 10
2049.081613439057
 20
1537.736357759954
 30
0.0
 11
2076.2154034390569
 21
1537.736357759954
 31
0.0
  0
LINE
  5
14150
  8
0
 10
2049.081613439057
 20
1571.736365759954
 30
0.0
 11
2076.2154034390569
 21
1571.736365759954
 31
0.0
  0
LINE
  5
14151
  8
CENTER
 10
2071.7211464390571
 20
1563.809072759954
 30
0.0
 11
2077.9112864390572
 21
1569.999213759954
 31
0.0
  0
LINE
  5
14152
  8
CENTER
 10
2071.716095439057
 20
1545.6687887599539
 30
0.0
 11
2077.6986811155489
 21
1539.686204038542
 31
0.0
  0
ARC
  5
14153
  8
0
 10
2062.648508439057
 20
1554.736357759954
 30
0.0
 40
11.0
 50
165.27264131893429
 51
194.7273586810656
  0
ARC
  5
14154
  8
0
 10
2062.648508439057
 20
1554.736357759954
 30
0.0
 40
11.0
 50
255.27264131888029
 51
284.72735868111971
  0
ARC
  5
14155
  8
0
 10
2062.648508439057
 20
1554.736357759954
 30
0.0
 40
11.0
 50
345.27264131893429
 51
14.72735868106566
  0
ARC
  5
14156
  8
0
 10
2062.648508439057
 20
1554.736357759954
 30
0.0
 40
11.0
 50
75.272641318880233
 51
104.7273586811197
  0
POLYLINE
  5
14157
  8
0
 66
     1
 10
0.0
 20
0.0
 30
0.0
  0
VERTEX
  5
14366
  8
0
 10
2059.8520908031242
 20
1565.374968966566
 30
0.0
  0
VERTEX
  5
14367
  8
0
 10
2052.0098972324449
 20
1557.532775395885
 30
0.0
  0
SEQEND
  5
14368
  8
0
  0
POLYLINE
  5
14158
  8
0
 66
     1
 10
0.0
 20
0.0
 30
0.0
  0
VERTEX
  5
14369
  8
0
 10
2052.0098972324449
 20
1551.9399401240209
 30
0.0
  0
VERTEX
  5
1436A
  8
0
 10
2059.8520908031242
 20
1544.0977465533419
 30
0.0
  0
SEQEND
  5
1436B
  8
0
  0
POLYLINE
  5
14159
  8
0
 66
     1
 10
0.0
 20
0.0
 30
0.0
  0
VERTEX
  5
1436C
  8
0
 10
2065.4449260749898
 20
1544.0977465533399
 30
0.0
  0
VERTEX
  5
1436D
  8
0
 10
2073.287119645669
 20
1551.9399401240209
 30
0.0
  0
SEQEND
  5
1436E
  8
0
  0
POLYLINE
  5
1415A
  8
0
 66
     1
 10
0.0
 20
0.0
 30
0.0
  0
VERTEX
  5
1436F
  8
0
 10
2073.287119645669
 20
1557.532775395885
 30
0.0
  0
VERTEX
  5
14370
  8
0
 10
2065.4449260749898
 20
1565.374968966564
 30
0.0
  0
SEQEND
  5
14371
  8
0
  0
ARC
  5
1415B
  8
HIDE
 10
2062.648508439057
 20
1554.736357759954
 30
0.0
 40
6.0
 50
270.0
 51
180.0
  0
CIRCLE
  5
1415C
  8
0
 10
2062.648508439057
 20
1554.736357759954
 30
0.0
 40
5.5
  0
LINE
  5
1415D
  8
HIDE
 10
2064.6485084390588
 20
1565.5530115863451
 30
0.0
 11
2064.648508439057
 21
1559.859833142933
 31
0.0
  0
LINE
  5
1415E
  8
HIDE
 10
2064.2985084390571
 20
1565.6119037232611
 30
0.0
 11
2064.2985084390571
 21
1559.9830233677469
 31
0.0
  0
LINE
  5
1415F
  8
HIDE
 10
2060.648508439057
 20
1565.553011586346
 30
0.0
 11
2060.648508439057
 21
1559.8598331429339
 31
0.0
  0
LINE
  5
14160
  8
HIDE
 10
2060.9985084390569
 20
1565.6119037232611
 30
0.0
 11
2060.9985084390569
 21
1559.9830233677469
 31
0.0
  0
LINE
  5
14161
  8
HIDE
 10
2060.648508439057
 20
1565.1988810223049
 30
0.0
 11
2064.6485084390588
 21
1565.198881022304
 31
0.0
  0
LINE
  5
14162
  8
HIDE
 10
2060.648508439057
 20
1561.1988810223049
 30
0.0
 11
2064.6485084390588
 21
1561.198881022304
 31
0.0
  0
LINE
  5
14163
  8
HIDE
 10
2064.2985084390571
 20
1560.996808428089
 30
0.0
 11
2064.648508439057
 21
1561.198881022304
 31
0.0
  0
LINE
  5
14164
  8
HIDE
 10
2064.2985084390571
 20
1560.996808428089
 30
0.0
 11
2060.9985084390569
 21
1560.996808428089
 31
0.0
  0
LINE
  5
14165
  8
HIDE
 10
2060.9985084390569
 20
1560.996808428089
 30
0.0
 11
2060.648508439057
 21
1561.198881022304
 31
0.0
  0
LINE
  5
14166
  8
HIDE
 10
2056.648508439057
 20
1610.2122637599541
 30
0.0
 11
2056.648508439057
 21
1646.7122947599539
 31
0.0
  0
LINE
  5
14167
  8
HIDE
 10
2068.648508439057
 20
1610.2122637599541
 30
0.0
 11
2068.648508439057
 21
1646.7122947599539
 31
0.0
  0
LINE
  5
14168
  8
CENTER
 10
2080.348999439057
 20
1633.7122947599539
 30
0.0
 11
2097.3784164390572
 21
1633.7122947599539
 31
0.0
  0
LINE
  5
14169
  8
CENTER
 10
2088.648508439057
 20
1625.8397407599541
 30
0.0
 11
2088.648508439057
 21
1641.6199047599539
 31
0.0
  0
CIRCLE
  5
1416A
  8
0
 10
2088.648508439057
 20
1633.7122947599539
 30
0.0
 40
4.25
  0
CIRCLE
  5
1416B
  8
0
 10
2088.648508439057
 20
1633.7122947599539
 30
0.0
 40
7.0
  0
CIRCLE
  5
1416C
  8
0
 10
2036.648508439057
 20
1633.7122947599539
 30
0.0
 40
4.25
  0
CIRCLE
  5
1416D
  8
0
 10
2036.648508439057
 20
1633.7122947599539
 30
0.0
 40
7.0
  0
LINE
  5
1416E
  8
0
 10
2054.998508439056
 20
1646.7122947599539
 30
0.0
 11
2070.2985084390571
 21
1646.7122947599539
 31
0.0
  0
LINE
  5
1416F
  8
CENTER
 10
2059.851969439057
 20
1613.7122637599541
 30
0.0
 11
2065.4450174390572
 21
1613.7122637599541
 31
0.0
  0
LINE
  5
14170
  8
CENTER
 10
2062.648508439057
 20
1605.365776622421
 30
0.0
 11
2062.648508439057
 21
1650.5908621434639
 31
0.0
  0
LINE
  5
14171
  8
0
 10
2070.2985084390571
 20
1645.7122947599539
 30
0.0
 11
2070.298508439058
 21
1646.7122947599539
 31
0.0
  0
LINE
  5
14172
  8
0
 10
2054.998508439056
 20
1645.7122947599539
 30
0.0
 11
2054.998508439056
 21
1646.7122947599539
 31
0.0
  0
LINE
  5
14173
  8
0
 10
2044.648508439057
 20
1621.7122797599541
 30
0.0
 11
2044.648508439057
 21
1645.7122947599539
 31
0.0
  0
LINE
  5
14174
  8
0
 10
2080.648508439057
 20
1621.7122797599541
 30
0.0
 11
2080.648508439057
 21
1645.7122947599539
 31
0.0
  0
LINE
  5
14175
  8
0
 10
2045.6485105362019
 20
1615.7122637599541
 30
0.0
 11
2079.6485089465818
 21
1615.7122637599541
 31
0.0
  0
LINE
  5
14177
  8
0
 10
2078.5230204390568
 20
1621.7122797599541
 30
0.0
 11
2078.5230204390568
 21
1645.7122947599539
 31
0.0
  0
LINE
  5
14178
  8
0
 10
2046.7739964390571
 20
1621.7122797599541
 30
0.0
 11
2046.7739964390571
 21
1645.7122947599539
 31
0.0
  0
LINE
  5
1417A
  8
CENTER
 10
2036.648508439057
 20
1625.8397407599541
 30
0.0
 11
2036.648508439057
 21
1641.6199047599539
 31
0.0
  0
LINE
  5
1417B
  8
CENTER
 10
2028.348999439057
 20
1633.7122947599539
 30
0.0
 11
2045.378416439057
 21
1633.7122947599539
 31
0.0
  0
LINE
  5
1417C
  8
0
 10
2027.648508439057
 20
1645.7122947599539
 30
0.0
 11
2097.648508439057
 21
1645.7122947599539
 31
0.0
  0
LINE
  5
1417D
  8
0
 10
2027.648508439057
 20
1621.7122797599541
 30
0.0
 11
2097.648508439057
 21
1621.7122797599541
 31
0.0
  0
LINE
  5
1417E
  8
0
 10
2097.648508439057
 20
1621.7122797599541
 30
0.0
 11
2097.648508439057
 21
1645.7122947599539
 31
0.0
  0
LINE
  5
1417F
  8
0
 10
2027.648508439057
 20
1621.7122797599541
 30
0.0
 11
2027.648508439057
 21
1645.7122947599539
 31
0.0
  0
LINE
  5
14180
  8
0
 10
2073.648508439057
 20
1610.2122637599541
 30
0.0
 11
2073.648508439057
 21
1615.7122637599541
 31
0.0
  0
LINE
  5
14181
  8
0
 10
2051.648508439057
 20
1610.2122637599541
 30
0.0
 11
2051.648508439057
 21
1615.7122637599541
 31
0.0
  0
LINE
  5
14182
  8
0
 10
2051.648508439057
 20
1610.2122637599541
 30
0.0
 11
2073.648508439057
 21
1610.2122637599541
 31
0.0
  0
LINE
  5
14183
  8
0
 10
2065.4450174390572
 20
1610.2122637599541
 30
0.0
 11
2065.4450174390572
 21
1615.7122637599541
 31
0.0
  0
LINE
  5
14184
  8
0
 10
2059.851969439057
 20
1610.2122637599541
 30
0.0
 11
2059.851969439057
 21
1615.7122637599541
 31
0.0
  0
CIRCLE
  5
14185
  8
0
 10
2062.6484934390569
 20
1613.7122637599541
 30
0.0
 40
1.6499849999995591
  0
CIRCLE
  5
14186
  8
0
 10
2062.648508439057
 20
1613.7122637599541
 30
0.0
 40
1.9999999999995439
  0
POLYLINE
  5
14187
  8
0
 66
     1
 10
0.0
 20
0.0
 30
0.0
 70
     1
  0
VERTEX
  5
14372
  8
0
 10
2063.992540134032
 20
1613.7122637599541
 30
0.0
  0
VERTEX
  5
14373
  8
0
 10
2063.3205242865438
 20
1614.876229351293
 30
0.0
  0
VERTEX
  5
14374
  8
0
 10
2061.9764925915701
 20
1614.876229351293
 30
0.0
  0
VERTEX
  5
14375
  8
0
 10
2061.3044767440829
 20
1613.7122637599541
 30
0.0
  0
VERTEX
  5
14376
  8
0
 10
2061.9764925915701
 20
1612.5482981686141
 30
0.0
  0
VERTEX
  5
14377
  8
0
 10
2063.3205242865438
 20
1612.5482981686141
 30
0.0
  0
SEQEND
  5
14378
  8
0
  0
LINE
  5
1418A
  8
0
 10
2137.6177164390579
 20
1536.736357759954
 30
0.0
 11
2143.6177164390579
 21
1536.736357759954
 31
0.0
  0
LINE
  5
1418B
  8
0
 10
2132.1177164390579
 20
1543.736357759954
 30
0.0
 11
2137.6177164390579
 21
1543.736357759954
 31
0.0
  0
LINE
  5
1418C
  8
0
 10
2132.1177164390579
 20
1565.736357759954
 30
0.0
 11
2137.6177164390579
 21
1565.736357759954
 31
0.0
  0
LINE
  5
1418E
  8
0
 10
2143.6177164390579
 20
1564.736357759954
 30
0.0
 11
2167.6177184390581
 21
1564.736357759954
 31
0.0
  0
LINE
  5
1418F
  8
0
 10
2137.6177164390579
 20
1565.736357759954
 30
0.0
 11
2137.6177164390579
 21
1543.736357759954
 31
0.0
  0
LINE
  5
14190
  8
0
 10
2143.6177164390579
 20
1570.736357759954
 30
0.0
 11
2167.6177184390581
 21
1570.736357759954
 31
0.0
  0
LINE
  5
14191
  8
CENTER
 10
2129.1948882224051
 20
1554.736357759954
 30
0.0
 11
2172.9941343486321
 21
1554.736357759954
 31
0.0
  0
LINE
  5
14192
  8
HIDE
 10
2140.117718439059
 20
1547.086357759955
 30
0.0
 11
2145.6177184390581
 21
1547.086357759955
 31
0.0
  0
LINE
  5
14193
  8
HIDE
 10
2161.6177184390581
 20
1547.0863577599539
 30
0.0
 11
2167.6177184390581
 21
1547.0863577599539
 31
0.0
  0
LINE
  5
14194
  8
HIDE
 10
2140.117718439059
 20
1562.3863577599541
 30
0.0
 11
2145.6177184390581
 21
1562.3863577599541
 31
0.0
  0
LINE
  5
14195
  8
HIDE
 10
2161.6177184390581
 20
1562.3863577599541
 30
0.0
 11
2167.6177184390581
 21
1562.3863577599541
 31
0.0
  0
LINE
  5
14196
  8
HIDE
 10
2161.6177184390581
 20
1548.736357759954
 30
0.0
 11
2168.6177184390581
 21
1548.736357759954
 31
0.0
  0
LINE
  5
14197
  8
HIDE
 10
2161.6177184390581
 20
1560.7363577599549
 30
0.0
 11
2168.6177184390581
 21
1560.736357759954
 31
0.0
  0
LINE
  5
14198
  8
0
 10
2143.6177164390579
 20
1572.736357759954
 30
0.0
 11
2167.6177184390581
 21
1572.736357759954
 31
0.0
  0
LINE
  5
14199
  8
0
 10
2143.6177164390579
 20
1529.736357759954
 30
0.0
 11
2167.6177184390581
 21
1529.736357759954
 31
0.0
  0
LINE
  5
1419A
  8
0
 10
2137.6177164390579
 20
1536.736357759954
 30
0.0
 11
2137.6177164390579
 21
1554.736357759954
 31
0.0
  0
LINE
  5
1419B
  8
0
 10
2143.6177164390579
 20
1529.736357759954
 30
0.0
 11
2143.6177164390579
 21
1572.736357759954
 31
0.0
  0
LINE
  5
1419C
  8
0
 10
2167.6177184390581
 20
1529.736357759954
 30
0.0
 11
2167.6177184390581
 21
1572.736357759954
 31
0.0
  0
LINE
  5
1419D
  8
0
 10
2132.1177164390579
 20
1557.5328817599541
 30
0.0
 11
2137.6177164390579
 21
1557.5328817599541
 31
0.0
  0
LINE
  5
1419E
  8
0
 10
2132.1177164390579
 20
1551.939848759954
 30
0.0
 11
2137.6177164390579
 21
1551.939848759954
 31
0.0
  0
LINE
  5
1419F
  8
0
 10
2132.1177164390579
 20
1565.736357759954
 30
0.0
 11
2132.1177164390579
 21
1543.736357759954
 31
0.0
  0
LINE
  5
141A0
  8
0
 10
2137.6177164390579
 20
1554.736357759954
 30
0.0
 11
2137.6177164390579
 21
1571.7363580306919
 31
0.0
  0
CIRCLE
  5
141A1
  8
HIDE
 10
2157.6177184390581
 20
1544.736357759954
 30
0.0
 40
2.399999999999999
  0
CIRCLE
  5
141A2
  8
HIDE
 10
2157.6177184390581
 20
1564.736357759954
 30
0.0
 40
2.399999999999999
  0
CIRCLE
  5
141A3
  8
HIDE
 10
2149.6177184390581
 20
1544.736357759954
 30
0.0
 40
2.399999999999999
  0
CIRCLE
  5
141A4
  8
HIDE
 10
2149.6177184390581
 20
1564.736357759954
 30
0.0
 40
2.399999999999999
  0
ARC
  5
141A5
  8
HIDE
 10
2153.467718439058
 20
1568.5863577599539
 30
0.0
 40
0.1500000000000003
 50
0.0
 51
90.0
  0
ARC
  5
141A6
  8
HIDE
 10
2145.9177184390578
 20
1568.436357759954
 30
0.0
 40
0.3000000000000007
 50
90.0
 51
180.0
  0
ARC
  5
141A7
  8
HIDE
 10
2153.3177184390579
 20
1561.0363577599539
 30
0.0
 40
0.2999999999999998
 50
270.0
 51
0.0
  0
ARC
  5
141A8
  8
HIDE
 10
2153.3177184390579
 20
1548.4363577599529
 30
0.0
 40
0.3000000000000007
 50
0.0
 51
90.0
  0
ARC
  5
141A9
  8
HIDE
 10
2145.7677184390582
 20
1560.8863577599541
 30
0.0
 40
0.1500000000000003
 50
180.0
 51
270.0
  0
ARC
  5
141AA
  8
HIDE
 10
2145.7677184390582
 20
1548.5863577599539
 30
0.0
 40
0.1500000000000003
 50
90.0
 51
180.0
  0
ARC
  5
141AB
  8
HIDE
 10
2153.467718439058
 20
1540.8863577599529
 30
0.0
 40
0.1500000000000003
 50
270.0
 51
0.0
  0
ARC
  5
141AC
  8
HIDE
 10
2145.9177184390578
 20
1541.0363577599539
 30
0.0
 40
0.2999999999999989
 50
180.0
 51
270.0
  0
LINE
  5
141AD
  8
HIDE
 10
2145.6177184390581
 20
1566.0363577599539
 30
0.0
 11
2147.6002943388748
 21
1566.0363577599539
 31
0.0
  0
LINE
  5
141AE
  8
HIDE
 10
2145.9177184390578
 20
1568.736357759954
 30
0.0
 11
2153.467718439058
 21
1568.736357759954
 31
0.0
  0
LINE
  5
141AF
  8
HIDE
 10
2153.6177184390581
 20
1563.436357759954
 30
0.0
 11
2151.6351425392409
 21
1563.436357759954
 31
0.0
  0
LINE
  5
141B0
  8
HIDE
 10
2150.4709939291502
 20
1566.9795521202379
 30
0.0
 11
2153.6177184390581
 21
1567.2863577599539
 31
0.0
  0
LINE
  5
141B1
  8
HIDE
 10
2145.6177184390581
 20
1563.436357759954
 30
0.0
 11
2147.6002943388748
 21
1563.436357759954
 31
0.0
  0
LINE
  5
141B2
  8
HIDE
 10
2145.6177184390581
 20
1546.0363577599539
 30
0.0
 11
2147.6002943388748
 21
1546.0363577599539
 31
0.0
  0
LINE
  5
141B3
  8
HIDE
 10
2145.7677184390582
 20
1560.736357759954
 30
0.0
 11
2153.3177184390579
 21
1560.736357759954
 31
0.0
  0
LINE
  5
141B4
  8
HIDE
 10
2145.7677184390582
 20
1548.736357759954
 30
0.0
 11
2153.3177184390579
 21
1548.736357759954
 31
0.0
  0
LINE
  5
141B5
  8
HIDE
 10
2153.6177184390581
 20
1546.0363577599539
 30
0.0
 11
2151.6351425392409
 21
1546.0363577599539
 31
0.0
  0
LINE
  5
141B6
  8
HIDE
 10
2145.6177184390581
 20
1543.436357759954
 30
0.0
 11
2147.6002943388748
 21
1543.436357759954
 31
0.0
  0
LINE
  5
141B7
  8
HIDE
 10
2153.467718439058
 20
1540.736357759954
 30
0.0
 11
2145.9177184390578
 21
1540.736357759954
 31
0.0
  0
LINE
  5
141B8
  8
HIDE
 10
2150.4709939291502
 20
1542.49316339967
 30
0.0
 11
2153.6177184390581
 21
1542.186357759954
 31
0.0
  0
LINE
  5
141B9
  8
HIDE
 10
2145.6177184390581
 20
1541.0363577599539
 30
0.0
 11
2145.6177184390581
 21
1568.436357759954
 31
0.0
  0
LINE
  5
141BA
  8
HIDE
 10
2153.6177184390581
 20
1568.5863577599539
 30
0.0
 11
2153.6177184390581
 21
1540.8863577599529
 31
0.0
  0
ARC
  5
141BB
  8
HIDE
 10
2153.7677184390582
 20
1540.8863577599529
 30
0.0
 40
0.1499999999999995
 50
180.0
 51
270.0
  0
ARC
  5
141BC
  8
HIDE
 10
2161.3177184390579
 20
1541.0363577599539
 30
0.0
 40
0.3000000000000007
 50
270.0
 51
0.0
  0
ARC
  5
141BD
  8
HIDE
 10
2153.9177184390578
 20
1548.4363577599529
 30
0.0
 40
0.2999999999999998
 50
90.0
 51
180.0
  0
ARC
  5
141BE
  8
HIDE
 10
2153.9177184390578
 20
1561.0363577599539
 30
0.0
 40
0.2999999999999998
 50
180.0
 51
270.0
  0
ARC
  5
141BF
  8
HIDE
 10
2161.467718439058
 20
1548.5863577599539
 30
0.0
 40
0.15
 50
0.0
 51
90.0
  0
ARC
  5
141C0
  8
HIDE
 10
2161.467718439058
 20
1560.8863577599541
 30
0.0
 40
0.1500000000000003
 50
270.0
 51
0.0
  0
ARC
  5
141C1
  8
HIDE
 10
2153.7677184390582
 20
1568.5863577599539
 30
0.0
 40
0.1500000000000003
 50
90.0
 51
180.0
  0
ARC
  5
141C2
  8
HIDE
 10
2161.3177184390579
 20
1568.436357759954
 30
0.0
 40
0.3
 50
0.0
 51
90.0
  0
LINE
  5
141C3
  8
HIDE
 10
2161.6177184390581
 20
1543.436357759954
 30
0.0
 11
2159.6351425392422
 21
1543.436357759954
 31
0.0
  0
LINE
  5
141C4
  8
HIDE
 10
2161.3177184390579
 20
1540.736357759954
 30
0.0
 11
2153.7677184390582
 21
1540.736357759954
 31
0.0
  0
LINE
  5
141C5
  8
HIDE
 10
2153.6177184390581
 20
1546.0363577599539
 30
0.0
 11
2155.6002943388762
 21
1546.0363577599539
 31
0.0
  0
LINE
  5
141C6
  8
HIDE
 10
2156.7644429489669
 20
1542.49316339967
 30
0.0
 11
2153.6177184390581
 21
1542.186357759954
 31
0.0
  0
LINE
  5
141C7
  8
HIDE
 10
2161.6177184390581
 20
1546.0363577599539
 30
0.0
 11
2159.6351425392409
 21
1546.0363577599539
 31
0.0
  0
LINE
  5
141C8
  8
HIDE
 10
2161.6177184390581
 20
1563.436357759954
 30
0.0
 11
2159.6351425392409
 21
1563.436357759954
 31
0.0
  0
LINE
  5
141C9
  8
HIDE
 10
2161.467718439058
 20
1548.736357759954
 30
0.0
 11
2153.9177184390578
 21
1548.736357759954
 31
0.0
  0
LINE
  5
141CA
  8
HIDE
 10
2161.467718439058
 20
1560.736357759954
 30
0.0
 11
2153.9177184390578
 21
1560.736357759954
 31
0.0
  0
LINE
  5
141CB
  8
HIDE
 10
2153.617718439059
 20
1563.436357759954
 30
0.0
 11
2155.6002943388748
 21
1563.436357759954
 31
0.0
  0
LINE
  5
141CC
  8
HIDE
 10
2161.6177184390581
 20
1566.0363577599539
 30
0.0
 11
2159.6351425392409
 21
1566.0363577599539
 31
0.0
  0
LINE
  5
141CD
  8
HIDE
 10
2153.7677184390582
 20
1568.736357759954
 30
0.0
 11
2161.3177184390579
 21
1568.736357759954
 31
0.0
  0
LINE
  5
141CE
  8
HIDE
 10
2156.7644429489669
 20
1566.9795521202379
 30
0.0
 11
2153.617718439059
 21
1567.2863577599539
 31
0.0
  0
LINE
  5
141CF
  8
HIDE
 10
2161.6177184390581
 20
1568.436357759954
 30
0.0
 11
2161.6177184390581
 21
1541.0363577599539
 31
0.0
  0
LINE
  5
141D0
  8
HIDE
 10
2140.1177184390581
 20
1563.236357759954
 30
0.0
 11
2140.1177184390581
 21
1554.736357759954
 31
0.0
  0
LINE
  5
141D1
  8
CENTER
 10
2135.6177184390581
 20
1566.4695141855011
 30
0.0
 11
2135.6177184390581
 21
1559.564818794028
 31
0.0
  0
LINE
  5
141D2
  8
HIDE
 10
2133.6177184390558
 20
1565.736357759954
 30
0.0
 11
2133.6177184390581
 21
1560.2363577599549
 31
0.0
  0
LINE
  5
141D3
  8
HIDE
 10
2133.9677184390589
 20
1565.736357759954
 30
0.0
 11
2133.9677184390589
 21
1560.2363577599549
 31
0.0
  0
LINE
  5
141D4
  8
HIDE
 10
2137.6177184390581
 20
1565.736357759954
 30
0.0
 11
2137.6177184390581
 21
1560.2363577599549
 31
0.0
  0
LINE
  5
141D5
  8
HIDE
 10
2137.2677184390582
 20
1565.736357759954
 30
0.0
 11
2137.2677184390582
 21
1560.2363577599549
 31
0.0
  0
LINE
  5
141D6
  8
HIDE
 10
2139.6177184390581
 20
1565.736357759954
 30
0.0
 11
2139.6177184390581
 21
1554.736357759954
 31
0.0
  0
LINE
  5
141D7
  8
0
 10
2132.1177184390581
 20
1565.736357759954
 30
0.0
 11
2132.1177184390581
 21
1554.736357759954
 31
0.0
  0
LINE
  5
141D8
  8
0
 10
2137.6177164390579
 20
1565.7363577599531
 30
0.0
 11
2132.1177184390581
 21
1565.736357759954
 31
0.0
  0
LINE
  5
141D9
  8
CENTER
 10
2141.3109517968728
 20
1554.736357759954
 30
0.0
 11
2131.0854792078499
 21
1554.736357759954
 31
0.0
  0
LINE
  5
141DA
  8
HIDE
 10
2140.1177184390581
 20
1560.236357759954
 30
0.0
 11
2132.1177184390581
 21
1560.236357759954
 31
0.0
  0
LINE
  5
141DB
  8
HIDE
 10
2140.1177184390581
 20
1560.736357759954
 30
0.0
 11
2132.1177184390581
 21
1560.736357759954
 31
0.0
  0
LINE
  5
141DC
  8
HIDE
 10
2140.1177184390581
 20
1563.236357759954
 30
0.0
 11
2139.6177184390581
 21
1563.525032894549
 31
0.0
  0
LINE
  5
141DD
  8
0
 10
2137.6177164390579
 20
1557.532775395882
 30
0.0
 11
2132.1177184390581
 21
1557.532775395882
 31
0.0
  0
LINE
  5
141DE
  8
HIDE
 10
2140.1177184390581
 20
1546.236357759954
 30
0.0
 11
2140.1177184390581
 21
1554.736357759954
 31
0.0
  0
LINE
  5
141DF
  8
HIDE
 10
2139.6177184390581
 20
1543.736357759954
 30
0.0
 11
2139.6177184390581
 21
1554.736357759954
 31
0.0
  0
LINE
  5
141E0
  8
0
 10
2132.1177184390581
 20
1543.736357759954
 30
0.0
 11
2132.1177184390581
 21
1554.736357759954
 31
0.0
  0
LINE
  5
141E1
  8
0
 10
2137.6177164390579
 20
1543.7363577599531
 30
0.0
 11
2132.1177184390581
 21
1543.736357759954
 31
0.0
  0
LINE
  5
141E2
  8
HIDE
 10
2140.1177184390581
 20
1549.236357759954
 30
0.0
 11
2132.1177184390581
 21
1549.236357759954
 31
0.0
  0
LINE
  5
141E3
  8
HIDE
 10
2140.1177184390581
 20
1548.736357759954
 30
0.0
 11
2132.1177184390581
 21
1548.736357759954
 31
0.0
  0
LINE
  5
141E4
  8
HIDE
 10
2140.1177184390581
 20
1546.236357759954
 30
0.0
 11
2139.6177184390581
 21
1545.947682625359
 31
0.0
  0
LINE
  5
141E5
  8
0
 10
2137.6177164390579
 20
1551.939940124026
 30
0.0
 11
2132.1177184390581
 21
1551.939940124025
 31
0.0
  0
LINE
  5
141E6
  8
HIDE
 10
2137.6177184390581
 20
1565.1988810223049
 30
0.0
 11
2133.6177184390558
 21
1565.198881022304
 31
0.0
  0
LINE
  5
141E7
  8
HIDE
 10
2137.6177184390581
 20
1561.1988810223049
 30
0.0
 11
2133.6177184390558
 21
1561.198881022304
 31
0.0
  0
LINE
  5
141E8
  8
HIDE
 10
2133.9677184390589
 20
1560.996808428089
 30
0.0
 11
2133.6177184390581
 21
1561.198881022304
 31
0.0
  0
LINE
  5
141E9
  8
HIDE
 10
2133.9677184390589
 20
1560.996808428089
 30
0.0
 11
2137.2677184390582
 21
1560.996808428089
 31
0.0
  0
LINE
  5
141EA
  8
HIDE
 10
2137.2677184390582
 20
1560.996808428089
 30
0.0
 11
2137.6177184390581
 21
1561.198881022304
 31
0.0
  0
LINE
  5
141EB
  8
HIDE
 10
2137.6177164390579
 20
1543.736357759954
 30
0.0
 11
2139.6177184390581
 21
1543.736357759954
 31
0.0
  0
LINE
  5
141EC
  8
HIDE
 10
2137.6177184390581
 20
1565.736357759954
 30
0.0
 11
2139.6177184390581
 21
1565.736357759954
 31
0.0
  0
LINE
  5
141ED
  8
HIDE
 10
2137.6177164390579
 20
1557.5328817599541
 30
0.0
 11
2139.6177184390581
 21
1557.5328817599541
 31
0.0
  0
LINE
  5
141EE
  8
HIDE
 10
2137.6177164390579
 20
1551.939848759954
 30
0.0
 11
2139.6177184390581
 21
1551.939848759954
 31
0.0
  0
LINE
  5
141EF
  8
HIDE
 10
2140.1177184390581
 20
1560.736357759954
 30
0.0
 11
2145.6177184390581
 21
1560.736357759954
 31
0.0
  0
LINE
  5
141F0
  8
HIDE
 10
2140.1177184390581
 20
1548.736357759954
 30
0.0
 11
2145.6177184390581
 21
1548.736357759954
 31
0.0
  0
LINE
  5
141F1
  8
0
 10
2167.6177184390581
 20
1562.3863577599541
 30
0.0
 11
2168.6177184390581
 21
1562.3863577599541
 31
0.0
  0
LINE
  5
141F2
  8
0
 10
2167.6177184390581
 20
1547.0863577599539
 30
0.0
 11
2168.6177184390581
 21
1547.0863577599539
 31
0.0
  0
LINE
  5
141F3
  8
0
 10
2168.6177184390581
 20
1562.3863577599541
 30
0.0
 11
2168.6177184390581
 21
1547.0863577599539
 31
0.0
  0
LINE
  5
141F4
  8
CENTER
 10
2155.6177174390582
 20
1537.1026877217821
 30
0.0
 11
2155.6177174390582
 21
1521.872470623746
 31
0.0
  0
LINE
  5
141F5
  8
HIDE
 10
2040.898508439057
 20
1553.736357759954
 30
0.0
 11
2040.898508439057
 21
1529.736357759954
 31
0.0
  0
LINE
  5
141F6
  8
HIDE
 10
2043.648508439057
 20
1564.736357759954
 30
0.0
 11
2043.648508439057
 21
1553.736357759954
 31
0.0
  0
LINE
  5
141F7
  8
HIDE
 10
2029.648508439057
 20
1564.736357759954
 30
0.0
 11
2029.648508439057
 21
1553.736357759954
 31
0.0
  0
LINE
  5
141F8
  8
HIDE
 10
2032.398508439057
 20
1553.736357759954
 30
0.0
 11
2032.398508439057
 21
1529.736357759954
 31
0.0
  0
LINE
  5
141F9
  8
HIDE
 10
2029.648508439057
 20
1553.736357759954
 30
0.0
 11
2043.648508439057
 21
1553.736357759954
 31
0.0
  0
LINE
  5
141FA
  8
HIDE
 10
2081.648508439057
 20
1553.736357759954
 30
0.0
 11
2095.648508439057
 21
1553.736357759954
 31
0.0
  0
LINE
  5
141FB
  8
HIDE
 10
2084.398508439057
 20
1553.736357759954
 30
0.0
 11
2084.398508439057
 21
1529.736357759954
 31
0.0
  0
LINE
  5
141FC
  8
HIDE
 10
2092.898508439057
 20
1553.736357759954
 30
0.0
 11
2092.898508439057
 21
1529.736357759954
 31
0.0
  0
LINE
  5
141FD
  8
HIDE
 10
2095.648508439057
 20
1564.736357759954
 30
0.0
 11
2095.648508439057
 21
1553.736357759954
 31
0.0
  0
LINE
  5
141FE
  8
HIDE
 10
2081.648508439057
 20
1564.736357759954
 30
0.0
 11
2081.648508439057
 21
1553.736357759954
 31
0.0
  0
LINE
  5
14202
  8
0
 10
2080.648508439057
 20
1570.6108697599541
 30
0.0
 11
2078.5230204390568
 21
1572.736357759954
 31
0.0
  0
LINE
  5
14203
  8
0
 10
2044.648508439057
 20
1570.6108697599541
 30
0.0
 11
2046.7739964390571
 21
1572.736357759954
 31
0.0
  0
LINE
  5
14204
  8
0
 10
2080.648508439057
 20
1564.736357759954
 30
0.0
 11
2097.648508439057
 21
1564.736357759954
 31
0.0
  0
LINE
  5
14205
  8
0
 10
2027.648508439057
 20
1564.736357759954
 30
0.0
 11
2044.648508439057
 21
1564.736357759954
 31
0.0
  0
LINE
  5
1420E
  8
0
 10
2027.648508439057
 20
1529.736357759954
 30
0.0
 11
2097.648508439057
 21
1529.736357759954
 31
0.0
  0
LINE
  5
14228
  8
0
 10
2027.648508439057
 20
1529.736357759954
 30
0.0
 11
2027.648508439057
 21
1564.736357759954
 31
0.0
  0
LINE
  5
1422D
  8
CENTER
 10
2088.648508439057
 20
1528.332228759954
 30
0.0
 11
2088.648508439057
 21
1566.554104759954
 31
0.0
  0
LINE
  5
1422E
  8
CENTER
 10
2036.648508439057
 20
1528.332228759954
 30
0.0
 11
2036.648508439057
 21
1566.554104759954
 31
0.0
  0
LINE
  5
1422F
  8
CENTER
 10
2025.648508439057
 20
1554.736357759954
 30
0.0
 11
2099.648508439057
 21
1554.736357759954
 31
0.0
  0
LINE
  5
14230
  8
CENTER
 10
2062.648508439057
 20
1526.4258107599539
 30
0.0
 11
2062.648508439057
 21
1577.236357759954
 31
0.0
  0
LINE
  5
14232
  8
0
 10
2044.648508439057
 20
1564.736357759954
 30
0.0
 11
2044.648508439057
 21
1570.6108697599541
 31
0.0
  0
LINE
  5
14233
  8
0
 10
2097.648508439057
 20
1529.736357759954
 30
0.0
 11
2097.648508439057
 21
1564.736357759954
 31
0.0
  0
LINE
  5
14234
  8
0
 10
2080.648508439057
 20
1564.736357759954
 30
0.0
 11
2080.648508439057
 21
1570.6108697599541
 31
0.0
  0
LINE
  5
14235
  8
0
 10
2046.7739964390571
 20
1572.736357759954
 30
0.0
 11
2078.5230204390568
 21
1572.736357759954
 31
0.0
  0
LINE
  5
142B8
  8
0
 10
2137.6177164390579
 20
1571.7363580306919
 30
0.0
 11
2143.6177164390579
 21
1571.7363580306919
 31
0.0
  0
LINE
  5
142B9
  8
0
 10
2045.6485105362019
 20
1615.7122637599541
 30
0.0
 11
2045.6485105362019
 21
1621.7122797599541
 31
0.0
  0
LINE
  5
142BA
  8
0
 10
2079.6485089465818
 20
1615.7122637599541
 30
0.0
 11
2079.6485089465818
 21
1621.7122797599541
 31
0.0
  0
ENDSEC
  0
EOF
