  0
SECTION
  2
HEADER
  9
$ACADVER
  1
AC1009
  9
$INSBASE
 10
0.0
 20
0.0
 30
0.0
  9
$EXTMIN
 10
61.034464863388642
 20
2.675547959514573
 30
0.0
  9
$EXTMAX
 10
622.23378747540107
 20
254.47557124728019
 30
0.0
  9
$LIMMIN
 10
0.0
 20
0.0
  9
$LIMMAX
 10
12.0
 20
9.0
  9
$ORTHOMODE
 70
     1
  9
$REGENMODE
 70
     1
  9
$FILLMODE
 70
     1
  9
$QTEXTMODE
 70
     0
  9
$MIRRTEXT
 70
     0
  9
$DRAGMODE
 70
     2
  9
$LTSCALE
 40
4.0
  9
$OSMODE
 70
  2239
  9
$ATTMODE
 70
     1
  9
$TEXTSIZE
 40
3.0
  9
$TRACEWID
 40
0.05
  9
$TEXTSTYLE
  7
DUKI_2
  9
$CLAYER
  8
0
  9
$CELTYPE
  6
BYLAYER
  9
$CECOLOR
 62
   256
  9
$DIMSCALE
 40
1.0
  9
$DIMASZ
 40
2.0
  9
$DIMEXO
 40
0.8
  9
$DIMDLI
 40
1.0
  9
$DIMRND
 40
0.0
  9
$DIMDLE
 40
0.0
  9
$DIMEXE
 40
0.6
  9
$DIMTP
 40
0.0
  9
$DIMTM
 40
0.000000001
  9
$DIMTXT
 40
3.0
  9
$DIMCEN
 40
1.0
  9
$DIMTSZ
 40
0.0
  9
$DIMTOL
 70
     0
  9
$DIMLIM
 70
     0
  9
$DIMTIH
 70
     0
  9
$DIMTOH
 70
     0
  9
$DIMSE1
 70
     0
  9
$DIMSE2
 70
     0
  9
$DIMTAD
 70
     1
  9
$DIMZIN
 70
     8
  9
$DIMBLK
  1

  9
$DIMASO
 70
     1
  9
$DIMSHO
 70
     1
  9
$DIMPOST
  1

  9
$DIMAPOST
  1

  9
$DIMALT
 70
     0
  9
$DIMALTD
 70
     2
  9
$DIMALTF
 40
25.399999999999999
  9
$DIMLFAC
 40
1.0
  9
$DIMTOFL
 70
     1
  9
$DIMTVP
 40
0.0
  9
$DIMTIX
 70
     0
  9
$DIMSOXD
 70
     0
  9
$DIMSAH
 70
     0
  9
$DIMBLK1
  1

  9
$DIMBLK2
  1

  9
$DIMSTYLE
  2
DUKI2
  9
$DIMCLRD
 70
     5
  9
$DIMCLRE
 70
     5
  9
$DIMCLRT
 70
     2
  9
$DIMTFAC
 40
0.5
  9
$DIMGAP
 40
1.0
  9
$LUNITS
 70
     2
  9
$LUPREC
 70
     4
  9
$SKETCHINC
 40
0.1
  9
$FILLETRAD
 40
0.2
  9
$AUNITS
 70
     0
  9
$AUPREC
 70
     0
  9
$MENU
  1
.
  9
$ELEVATION
 40
0.0
  9
$PELEVATION
 40
0.0
  9
$THICKNESS
 40
0.0
  9
$LIMCHECK
 70
     0
  9
$BLIPMODE
 70
     0
  9
$CHAMFERA
 40
0.5
  9
$CHAMFERB
 40
0.5
  9
$SKPOLY
 70
     0
  9
$TDCREATE
 40
2455131.550452373
  9
$TDUPDATE
 40
2456630.6772795492
  9
$TDINDWG
 40
0.0029555787
  9
$TDUSRTIMER
 40
0.0029554398
  9
$USRTIMER
 70
     1
  9
$ANGBASE
 50
0.0
  9
$ANGDIR
 70
     0
  9
$PDMODE
 70
     0
  9
$PDSIZE
 40
0.0
  9
$PLINEWID
 40
0.0
  9
$COORDS
 70
     1
  9
$SPLFRAME
 70
     0
  9
$SPLINETYPE
 70
     6
  9
$SPLINESEGS
 70
     8
  9
$ATTDIA
 70
     0
  9
$ATTREQ
 70
     1
  9
$HANDLING
 70
     1
  9
$HANDSEED
  5
1C865
  9
$SURFTAB1
 70
     6
  9
$SURFTAB2
 70
     6
  9
$SURFTYPE
 70
     6
  9
$SURFU
 70
     6
  9
$SURFV
 70
     6
  9
$UCSNAME
  2

  9
$UCSORG
 10
0.0
 20
0.0
 30
0.0
  9
$UCSXDIR
 10
1.0
 20
0.0
 30
0.0
  9
$UCSYDIR
 10
0.0
 20
1.0
 30
0.0
  9
$PUCSNAME
  2

  9
$PUCSORG
 10
0.0
 20
0.0
 30
0.0
  9
$PUCSXDIR
 10
1.0
 20
0.0
 30
0.0
  9
$PUCSYDIR
 10
0.0
 20
1.0
 30
0.0
  9
$USERI1
 70
     0
  9
$USERI2
 70
     0
  9
$USERI3
 70
     0
  9
$USERI4
 70
     0
  9
$USERI5
 70
     0
  9
$USERR1
 40
0.0
  9
$USERR2
 40
0.0
  9
$USERR3
 40
0.0
  9
$USERR4
 40
0.0
  9
$USERR5
 40
0.0
  9
$WORLDVIEW
 70
     1
  9
$SHADEDGE
 70
     3
  9
$SHADEDIF
 70
    70
  9
$TILEMODE
 70
     1
  9
$MAXACTVP
 70
    48
  9
$PLIMCHECK
 70
     0
  9
$PEXTMIN
 10
0.0
 20
0.0
 30
0.0
  9
$PEXTMAX
 10
0.0
 20
0.0
 30
0.0
  9
$PLIMMIN
 10
0.0
 20
0.0
  9
$PLIMMAX
 10
12.0
 20
9.0
  9
$UNITMODE
 70
     0
  9
$VISRETAIN
 70
     1
  9
$PLINEGEN
 70
     0
  9
$PSLTSCALE
 70
     1
  0
ENDSEC
  0
SECTION
  2
TABLES
  0
TABLE
  2
VPORT
 70
     1
  0
VPORT
  2
*ACTIVE
 70
     0
 10
0.0
 20
0.0
 11
1.0
 21
1.0
 12
160.27281755491791
 22
79.598891135551753
 13
0.0
 23
0.0
 14
0.5
 24
0.5
 15
0.5
 25
0.5
 16
0.0
 26
0.0
 36
1.0
 17
0.0
 27
0.0
 37
0.0
 40
176.54142495494349
 41
2.1408934707903771
 42
50.0
 43
0.0
 44
0.0
 50
0.0
 51
0.0
 71
     0
 72
  2000
 73
     1
 74
     3
 75
     0
 76
     0
 77
     0
 78
     0
  0
ENDTAB
  0
TABLE
  2
LTYPE
 70
     3
  0
LTYPE
  2
CONTINUOUS
 70
     0
  3
Solid line
 72
    65
 73
     0
 40
0.0
  0
LTYPE
  2
PHANTOM2
 70
     0
  3
Phantom (.5x) ___ _ _ ___ _ _ ___ _ _ ___ _ _
 72
    65
 73
     6
 40
1.25
 49
0.625
 49
-0.125
 49
0.125
 49
-0.125
 49
0.125
 49
-0.125
  0
LTYPE
  2
CENTER
 70
     0
  3
____ _ ____ _ ____ _ ____ _ ____ _ ____ _ ____ 
 72
    65
 73
     4
 40
2.0
 49
1.25
 49
-0.25
 49
0.25
 49
-0.25
  0
ENDTAB
  0
TABLE
  2
LAYER
 70
     4
  0
LAYER
  2
0
 70
     0
 62
     7
  6
CONTINUOUS
  0
LAYER
  2
HIDE
 70
     0
 62
     1
  6
CONTINUOUS
  0
LAYER
  2
CENTER
 70
     0
 62
     3
  6
CENTER
  0
ENDTAB
  0
TABLE
  2
STYLE
 70
    15
  0
STYLE
  2
STANDARD
 70
     0
 40
5.0
 41
1.0
 50
0.0
 71
     0
 42
5.0
  3
txt.shx
  4
whgtxt.shx
  0
STYLE
  2
DUKI_3
 70
     0
 40
6.0
 41
1.0
 50
0.0
 71
     0
 42
6.0
  3
txt
  4

  0
STYLE
  2
DUKI_2
 70
     0
 40
3.0
 41
1.0
 50
0.0
 71
     0
 42
3.0
  3
txt
  4

  0
ENDTAB
  0
TABLE
  2
VIEW
 70
     0
  0
ENDTAB
  0
TABLE
  2
UCS
 70
     0
  0
ENDTAB
  0
TABLE
  2
APPID
 70
    20
  0
APPID
  2
ACAD
 70
     0
  0
APPID
  2
ACADANNOTATIVE
 70
     0
  0
APPID
  2
ACAD_EXEMPT_FROM_CAD_STANDARDS
 70
     0
  0
APPID
  2
ACAD_DSTYLE_DIMJOGGED_JOGA
 70
     0
  0
APPID
  2
ACAD_PSEXT
 70
     0
  0
APPID
  2
ACAECLAYERSTANDARD
 70
     0
  0
APPID
  2
DCO15
 70
     0
  0
APPID
  2
ACAD_MLEADERVER
 70
     0
  0
APPID
  2
ACAD_DSTYLE_DIMJAG
 70
     0
  0
APPID
  2
ACAD_DSTYLE_DIMBREAK
 70
     0
  0
APPID
  2
ACAD_DSTYLE_DIMTALN
 70
     0
  0
APPID
  2
ACAD_DSTYLE_DIMRADIAL_EXTENSION
 70
     0
  0
APPID
  2
ACAD_DSTYLE_DIMTEXT_FILL
 70
     0
  0
APPID
  2
ACADANNOPO
 70
     0
  0
APPID
  2
ACADSTRINGINFO
 70
     0
  0
APPID
  2
CONTENTBLOCKICON
 70
     0
  0
APPID
  2
ACAD_NAV_VCDISPLAY
 70
     0
  0
APPID
  2
ACDBDYNAMICBLOCKTRUENAME2
 70
     0
  0
APPID
  2
CAXA_DRAFT_DIMSTYLE_ANGTXTVPOS
 70
     0
  0
APPID
  2
CAXA_DRAFT_TXTSTYLE
 70
     0
  0
ENDTAB
  0
TABLE
  2
DIMSTYLE
 70
    13
  0
DIMSTYLE
  2
DUKI2
 70
     0
  3

  4

  5

  6

  7

 40
1.0
 41
2.0
 42
0.8
 43
1.0
 44
0.6
 45
0.0
 46
0.0
 47
0.0
 48
0.000000001
140
3.0
141
1.0
142
0.0
143
25.399999999999999
144
1.0
145
0.0
146
0.5
147
1.0
 71
     0
 72
     0
 73
     0
 74
     0
 75
     0
 76
     0
 77
     1
 78
     8
170
     0
171
     2
172
     1
173
     0
174
     0
175
     0
176
     5
177
     5
178
     2
  0
ENDTAB
  0
ENDSEC
  0
SECTION
  2
BLOCKS
  0
BLOCK
  8
0
  2
$MODEL_SPACE
 70
     0
 10
0.0
 20
0.0
 30
0.0
  3
$MODEL_SPACE
  1

  0
ENDBLK
  5
1C489
  8
0
  0
BLOCK
 67
     1
  8
0
  2
$PAPER_SPACE
 70
     0
 10
0.0
 20
0.0
 30
0.0
  3
$PAPER_SPACE
  1

  0
ENDBLK
  5
1C485
 67
     1
  8
0
  0
BLOCK
  8
0
  2
*U65
 70
     1
 10
0.0
 20
0.0
 30
0.0
  3
*U65
  1

  0
TEXT
  5
1C415
  8
0
 10
127.0797380305624
 20
2.675547959514573
 30
0.0
 40
6.0
  1
AK15
  7
DUKI_3
  0
ENDBLK
  5
1C417
  8
0
  0
ENDSEC
  0
SECTION
  2
ENTITIES
  0
INSERT
  5
1C2C9
  8
0
  2
*U65
 10
0.0
 20
0.0
 30
0.0
  0
LINE
  5
1C528
  8
HIDE
 10
79.534464863390895
 20
58.851289998689033
 30
0.0
 11
79.534464863390895
 21
43.851289998689033
 31
0.0
  0
LINE
  5
1C529
  8
HIDE
 10
76.534464863390895
 20
43.851289998689033
 30
0.0
 11
76.534464863390895
 21
18.851289998689019
 31
0.0
  0
LINE
  5
1C52A
  8
HIDE
 10
62.534464863390902
 20
58.851289998689033
 30
0.0
 11
62.534464863390902
 21
43.851289998689033
 31
0.0
  0
LINE
  5
1C52B
  8
HIDE
 10
65.534464863390895
 20
43.851289998689033
 30
0.0
 11
65.534464863390895
 21
18.851289998689019
 31
0.0
  0
LINE
  5
1C52C
  8
HIDE
 10
62.534464863390902
 20
43.851289998689033
 30
0.0
 11
79.534464863390895
 21
43.851289998689033
 31
0.0
  0
LINE
  5
1C52D
  8
HIDE
 10
122.5344798633887
 20
43.851289998689033
 30
0.0
 11
139.5344798633887
 21
43.851289998689033
 31
0.0
  0
LINE
  5
1C52E
  8
HIDE
 10
125.5344798633887
 20
43.851289998689033
 30
0.0
 11
125.5344798633887
 21
18.851289998689019
 31
0.0
  0
LINE
  5
1C52F
  8
HIDE
 10
136.5344798633887
 20
43.851289998689033
 30
0.0
 11
136.5344798633887
 21
18.851289998689019
 31
0.0
  0
LINE
  5
1C530
  8
HIDE
 10
139.5344798633887
 20
58.851289998689033
 30
0.0
 11
139.5344798633887
 21
43.851289998689033
 31
0.0
  0
LINE
  5
1C531
  8
HIDE
 10
122.5344798633887
 20
58.851289998689033
 30
0.0
 11
122.5344798633887
 21
43.851289998689033
 31
0.0
  0
ARC
  5
1C532
  8
CENTER
 10
101.0344798633887
 20
48.851295998689238
 30
0.0
 40
20.0
 50
119.5522196685009
 51
149.4442173073418
  0
ARC
  5
1C533
  8
CENTER
 10
101.0344798633887
 20
48.851295998689238
 30
0.0
 40
20.0
 50
30.96011508272197
 51
59.927470414477654
  0
ARC
  5
1C534
  8
CENTER
 10
101.0344798633887
 20
48.851295998689238
 30
0.0
 40
20.0
 50
300.09748079832372
 51
329.6716436567981
  0
LINE
  5
1C535
  8
0
 10
121.5344798633887
 20
58.851289998689033
 30
0.0
 11
141.0344798633887
 21
58.851289998689033
 31
0.0
  0
LINE
  5
1C536
  8
0
 10
61.034464863390888
 20
58.851289998689033
 30
0.0
 11
80.534464863390895
 21
58.851289998689033
 31
0.0
  0
CIRCLE
  5
1C537
  8
0
 10
101.0344798633887
 20
48.851295998689238
 30
0.0
 40
15.000000999999999
  0
CIRCLE
  5
1C538
  8
0
 10
86.867105863391771
 20
62.968833998689668
 30
0.0
 40
3.5
  0
CIRCLE
  5
1C539
  8
0
 10
115.1514228633896
 20
62.968833998689668
 30
0.0
 40
3.5
  0
CIRCLE
  5
1C53A
  8
0
 10
115.1514228633896
 20
34.684562998689223
 30
0.0
 40
3.5
  0
CIRCLE
  5
1C53B
  8
0
 10
86.867105863391771
 20
34.684562998689223
 30
0.0
 40
3.5
  0
ARC
  5
1C53C
  8
CENTER
 10
101.0344798633887
 20
48.851295998689238
 30
0.0
 40
20.0
 50
211.34478775292681
 51
239.45275985677279
  0
LINE
  5
1C53D
  8
0
 10
88.023272863385515
 20
60.970384998689042
 30
0.0
 11
89.177935863386665
 21
62.970319998688858
 31
0.0
  0
LINE
  5
1C53E
  8
0
 10
84.559172863388085
 20
62.970384998689042
 30
0.0
 11
85.713834863388911
 21
64.970319998688865
 31
0.0
  0
LINE
  5
1C53F
  8
0
 10
89.177270863387093
 20
62.969375998689422
 30
0.0
 11
88.022607863385915
 21
64.969310998689252
 31
0.0
  0
LINE
  5
1C540
  8
0
 10
85.713168863389001
 20
60.969375998689422
 30
0.0
 11
84.558506863388175
 21
62.969310998689252
 31
0.0
  0
LINE
  5
1C541
  8
0
 10
85.712320863385685
 20
64.9688039986886
 30
0.0
 11
88.021646863388014
 21
64.9688039986886
 31
0.0
  0
LINE
  5
1C542
  8
0
 10
85.712320863385685
 20
60.968803998688593
 30
0.0
 11
88.021646863388014
 21
60.968803998688593
 31
0.0
  0
LINE
  5
1C543
  8
0
 10
116.307554863386
 20
60.970390998689261
 30
0.0
 11
117.4622178633872
 21
62.970325998689077
 31
0.0
  0
LINE
  5
1C544
  8
0
 10
112.8434528633879
 20
62.970390998689247
 30
0.0
 11
113.9981158633891
 21
64.970325998689077
 31
0.0
  0
LINE
  5
1C545
  8
0
 10
117.4615678633854
 20
62.969370998689548
 30
0.0
 11
116.30690486339149
 21
64.969305998689379
 31
0.0
  0
LINE
  5
1C546
  8
0
 10
113.9974658633873
 20
60.969370998689563
 30
0.0
 11
112.8428028633861
 21
62.96930699868971
 31
0.0
  0
LINE
  5
1C547
  8
0
 10
113.9966378633908
 20
64.9688039986886
 30
0.0
 11
116.3059638633858
 21
64.9688039986886
 31
0.0
  0
LINE
  5
1C548
  8
0
 10
113.9966378633908
 20
60.968803998688593
 30
0.0
 11
116.3059638633858
 21
60.968803998688593
 31
0.0
  0
LINE
  5
1C549
  8
0
 10
116.3075438633896
 20
32.68612699868936
 30
0.0
 11
117.4622068633907
 21
34.686062998689522
 31
0.0
  0
LINE
  5
1C54A
  8
0
 10
112.8434418633915
 20
34.686127998689713
 30
0.0
 11
113.99810486338529
 21
36.686062998689522
 31
0.0
  0
LINE
  5
1C54B
  8
0
 10
117.4615618633906
 20
34.68510799869
 30
0.0
 11
116.30689886338951
 21
36.685042998689823
 31
0.0
  0
LINE
  5
1C54C
  8
0
 10
113.9974598633853
 20
32.685108998690339
 30
0.0
 11
112.8427968633914
 21
34.685042998689823
 31
0.0
  0
LINE
  5
1C54D
  8
0
 10
113.9966378633908
 20
36.684532998689981
 30
0.0
 11
116.3059638633858
 21
36.684532998689981
 31
0.0
  0
LINE
  5
1C54E
  8
0
 10
113.9966378633908
 20
32.684532998689981
 30
0.0
 11
116.3059638633858
 21
32.684532998689981
 31
0.0
  0
LINE
  5
1C54F
  8
0
 10
88.023263863389744
 20
32.686122998689832
 30
0.0
 11
89.177926863390894
 21
34.686057998689662
 31
0.0
  0
LINE
  5
1C550
  8
0
 10
84.559162863391975
 20
34.68612199868948
 30
0.0
 11
85.713824863385526
 21
36.686057998689662
 31
0.0
  0
LINE
  5
1C551
  8
0
 10
89.177271863387418
 20
34.685098998690592
 30
0.0
 11
88.022608863386267
 21
36.685033998690422
 31
0.0
  0
LINE
  5
1C552
  8
0
 10
85.713169863389354
 20
32.685098998690592
 30
0.0
 11
84.558506863388175
 21
34.685033998690407
 31
0.0
  0
LINE
  5
1C553
  8
0
 10
85.712320863385685
 20
36.684532998689981
 30
0.0
 11
88.021646863388014
 21
36.684532998689981
 31
0.0
  0
LINE
  5
1C554
  8
0
 10
85.712320863385685
 20
32.684532998689981
 30
0.0
 11
88.021646863388014
 21
32.684532998689981
 31
0.0
  0
LINE
  5
1C555
  8
0
 10
61.034464863390888
 20
58.851289998689033
 30
0.0
 11
61.034464863390888
 21
18.851289998689019
 31
0.0
  0
LINE
  5
1C556
  8
0
 10
141.0344798633887
 20
58.851289998689033
 30
0.0
 11
141.0344798633887
 21
18.851289998689019
 31
0.0
  0
LINE
  5
1C557
  8
CENTER
 10
118.688608863391
 20
66.505384998688896
 30
0.0
 11
111.49071986338819
 21
59.307495998689781
 31
0.0
  0
LINE
  5
1C558
  8
CENTER
 10
83.380392863386078
 20
66.505378998690503
 30
0.0
 11
90.578281863388867
 21
59.307489998689562
 31
0.0
  0
LINE
  5
1C559
  8
CENTER
 10
118.68860286338889
 20
31.197168998689449
 30
0.0
 11
111.4907368633867
 21
38.395035998690219
 31
0.0
  0
LINE
  5
1C55A
  8
CENTER
 10
131.0344798633887
 20
60.659358998689633
 30
0.0
 11
131.0344798633887
 21
16.851287998690161
 31
0.0
  0
LINE
  5
1C55B
  8
CENTER
 10
71.034464863390895
 20
60.659358998689633
 30
0.0
 11
71.034464863390895
 21
16.851287998690161
 31
0.0
  0
LINE
  5
1C55C
  8
CENTER
 10
101.0344798633887
 20
70.851295998689238
 30
0.0
 11
101.0344798633887
 21
15.851287998690159
 31
0.0
  0
LINE
  5
1C55D
  8
0
 10
121.5344798633819
 20
65.851295998688741
 30
0.0
 11
121.5344798633887
 21
58.851289998689033
 31
0.0
  0
LINE
  5
1C55E
  8
0
 10
119.53447986338141
 20
67.851295998689224
 30
0.0
 11
121.53447986338141
 21
65.851295998689238
 31
0.0
  0
LINE
  5
1C55F
  8
CENTER
 10
83.380382863389968
 20
31.197158998689709
 30
0.0
 11
90.578270863385114
 21
38.395046998690297
 31
0.0
  0
LINE
  5
1C560
  8
0
 10
80.534464863390895
 20
65.851295998689238
 30
0.0
 11
80.534464863390895
 21
58.851289998689033
 31
0.0
  0
LINE
  5
1C561
  8
0
 10
61.034464863390888
 20
18.851289998689019
 30
0.0
 11
141.0344798633887
 21
18.851289998689019
 31
0.0
  0
LINE
  5
1C562
  8
0
 10
82.534464863390895
 20
67.851295998689224
 30
0.0
 11
119.53447986338141
 21
67.851295998689224
 31
0.0
  0
LINE
  5
1C563
  8
0
 10
80.534464863390895
 20
65.851295998689238
 30
0.0
 11
82.534464863390895
 21
67.851295998689224
 31
0.0
  0
ARC
  5
1C564
  8
0
 10
101.0344723633898
 20
48.858058561190767
 30
0.0
 40
12.5
 50
73.357636576184461
 51
106.6423634238155
  0
ARC
  5
1C565
  8
0
 10
101.0344723633898
 20
48.858058561190767
 30
0.0
 40
12.5
 50
163.35763657628439
 51
196.64236342371561
  0
ARC
  5
1C566
  8
0
 10
101.0344723633898
 20
48.858058561190767
 30
0.0
 40
12.5
 50
253.35763657618449
 51
286.6423634238156
  0
ARC
  5
1C567
  8
0
 10
101.0344723633898
 20
48.858058561190767
 30
0.0
 40
12.5
 50
343.35763657628439
 51
16.642363423715601
  0
POLYLINE
  5
1C568
  8
0
 66
     1
 10
0.0
 20
0.0
 30
0.0
  0
VERTEX
  5
1C84B
  8
0
 10
97.454511676274706
 20
60.83444706018053
 30
0.0
  0
VERTEX
  5
1C84C
  8
0
 10
89.058083864401851
 20
52.438019248307683
 30
0.0
  0
SEQEND
  5
1C84D
  8
0
  0
POLYLINE
  5
1C569
  8
0
 66
     1
 10
0.0
 20
0.0
 30
0.0
  0
VERTEX
  5
1C84E
  8
0
 10
89.058083864401851
 20
45.278097874077503
 30
0.0
  0
VERTEX
  5
1C84F
  8
0
 10
97.454511676274706
 20
36.881670062202843
 30
0.0
  0
SEQEND
  5
1C850
  8
0
  0
POLYLINE
  5
1C56A
  8
0
 66
     1
 10
0.0
 20
0.0
 30
0.0
  0
VERTEX
  5
1C851
  8
0
 10
104.6144330505049
 20
36.881670062202843
 30
0.0
  0
VERTEX
  5
1C852
  8
0
 10
113.0108608623777
 20
45.278097874077503
 30
0.0
  0
SEQEND
  5
1C853
  8
0
  0
POLYLINE
  5
1C56B
  8
0
 66
     1
 10
0.0
 20
0.0
 30
0.0
  0
VERTEX
  5
1C854
  8
0
 10
113.0108608623777
 20
52.438019248307683
 30
0.0
  0
VERTEX
  5
1C855
  8
0
 10
104.6144330505049
 20
60.83444706018053
 30
0.0
  0
SEQEND
  5
1C856
  8
0
  0
ARC
  5
1C56C
  8
HIDE
 10
101.0344723633898
 20
48.858058561190767
 30
0.0
 40
7.5
 50
270.0
 51
180.0
  0
CIRCLE
  5
1C56D
  8
0
 10
101.0344723633898
 20
48.858058561190767
 30
0.0
 40
7.0
  0
LINE
  5
1C56E
  8
HIDE
 10
103.0344723633898
 20
61.197021240443057
 30
0.0
 11
103.0344723633898
 21
55.566262493690367
 31
0.0
  0
LINE
  5
1C56F
  8
HIDE
 10
102.684472363384
 20
61.248680014532511
 30
0.0
 11
102.684472363384
 21
55.660815355315201
 31
0.0
  0
LINE
  5
1C570
  8
HIDE
 10
99.034472363389796
 20
61.197021240443057
 30
0.0
 11
99.034472363389796
 21
55.566262493690367
 31
0.0
  0
LINE
  5
1C571
  8
HIDE
 10
99.38447236338834
 20
61.248680014530692
 30
0.0
 11
99.38447236338834
 21
55.660815355315201
 31
0.0
  0
LINE
  5
1C572
  8
HIDE
 10
99.034472363389796
 20
60.820581823541943
 30
0.0
 11
103.0344723633898
 21
60.820581823540117
 31
0.0
  0
LINE
  5
1C573
  8
HIDE
 10
99.034472363389796
 20
56.820581823541943
 30
0.0
 11
103.0344723633898
 21
56.820581823540117
 31
0.0
  0
LINE
  5
1C574
  8
HIDE
 10
102.68447236339119
 20
56.618509229325362
 30
0.0
 11
103.0344723633898
 21
56.820581823540117
 31
0.0
  0
LINE
  5
1C575
  8
HIDE
 10
102.68447236339119
 20
56.618509229325362
 30
0.0
 11
99.38447236338834
 21
56.618509229325362
 31
0.0
  0
LINE
  5
1C576
  8
HIDE
 10
99.38447236338834
 20
56.618509229325362
 30
0.0
 11
99.034472363389796
 21
56.820581823540117
 31
0.0
  0
LINE
  5
1C577
  8
HIDE
 10
113.37343504263841
 20
46.85805856118531
 30
0.0
 11
107.7426762958857
 21
46.858058561187129
 31
0.0
  0
LINE
  5
1C578
  8
HIDE
 10
113.4250938167242
 20
47.208058561189311
 30
0.0
 11
107.8372291575069
 21
47.208058561189311
 31
0.0
  0
LINE
  5
1C579
  8
HIDE
 10
113.37343504263841
 20
50.858058561187143
 30
0.0
 11
107.7426762958857
 21
50.858058561187143
 31
0.0
  0
LINE
  5
1C57A
  8
HIDE
 10
113.4250938167242
 20
50.508058561186772
 30
0.0
 11
107.8372291575069
 21
50.508058561186772
 31
0.0
  0
LINE
  5
1C57B
  8
HIDE
 10
112.9969956257337
 20
50.858058561187143
 30
0.0
 11
112.9969956257337
 21
46.85805856118531
 31
0.0
  0
LINE
  5
1C57C
  8
HIDE
 10
108.9969956257337
 20
50.858058561187143
 30
0.0
 11
108.9969956257337
 21
46.85805856118531
 31
0.0
  0
LINE
  5
1C57D
  8
HIDE
 10
108.7949230315207
 20
47.208058561187499
 30
0.0
 11
108.9969956257337
 21
46.858058561187129
 31
0.0
  0
LINE
  5
1C57E
  8
HIDE
 10
108.7949230315207
 20
47.208058561187499
 30
0.0
 11
108.7949230315207
 21
50.508058561186772
 31
0.0
  0
LINE
  5
1C57F
  8
HIDE
 10
108.7949230315207
 20
50.508058561186772
 30
0.0
 11
108.9969956257337
 21
50.858058561187143
 31
0.0
  0
ARC
  5
1C580
  8
0
 10
101.03446486339089
 20
48.858058561190767
 30
0.0
 40
25.0
 50
130.5358000000395
 51
139.46419999989229
  0
ARC
  5
1C581
  8
0
 10
101.03446486339089
 20
48.858058561190767
 30
0.0
 40
25.0
 50
310.5358000000395
 51
319.46419999989229
  0
ARC
  5
1C582
  8
0
 10
101.03446486339089
 20
48.858058561190767
 30
0.0
 40
25.0
 50
220.5358000001076
 51
229.4641999999605
  0
ARC
  5
1C583
  8
0
 10
101.03446486339089
 20
48.858058561190767
 30
0.0
 40
25.0
 50
40.535803000121852
 51
49.464198999982159
  0
LINE
  5
1C584
  8
0
 10
84.786387863394339
 20
29.85805856119077
 30
0.0
 11
117.28254186338739
 21
29.85805856119077
 31
0.0
  0
LINE
  5
1C585
  8
0
 10
84.786387863394339
 20
67.858058561190774
 30
0.0
 11
117.28254186338739
 21
67.858058561190774
 31
0.0
  0
LINE
  5
1C586
  8
0
 10
120.03446486339089
 20
65.106135561190953
 30
0.0
 11
120.03446486339089
 21
32.609981561190587
 31
0.0
  0
LINE
  5
1C587
  8
0
 10
82.034464863390895
 20
65.106135561190953
 30
0.0
 11
82.034464863390895
 21
32.609981561190587
 31
0.0
  0
LINE
  5
1C588
  8
CENTER
 10
84.034478863388358
 20
48.851295998689238
 30
0.0
 11
118.03448086338901
 21
48.851295998689238
 31
0.0
  0
LINE
  5
1C58B
  8
HIDE
 10
93.534479863388256
 20
99.582647395497617
 30
0.0
 11
93.534479863388711
 21
137.58264739549671
 31
0.0
  0
LINE
  5
1C58C
  8
HIDE
 10
108.53447986338909
 20
99.582647395497617
 30
0.0
 11
108.5344798633882
 21
137.58264739549671
 31
0.0
  0
LINE
  5
1C58D
  8
0
 10
82.034464863388649
 20
101.5826503954972
 30
0.0
 11
82.034464863388649
 21
107.5826503954973
 31
0.0
  0
LINE
  5
1C58E
  8
0
 10
120.0344798633887
 20
101.5826503954972
 30
0.0
 11
120.0344798633887
 21
107.5826503954973
 31
0.0
  0
LINE
  5
1C58F
  8
0
 10
110.7844798633882
 20
137.58264739549671
 30
0.0
 11
91.284479863388256
 21
137.58264739549671
 31
0.0
  0
LINE
  5
1C590
  8
CENTER
 10
121.5330758633886
 20
120.0826473954971
 30
0.0
 11
141.38573386338879
 21
120.0826473954971
 31
0.0
  0
LINE
  5
1C591
  8
CENTER
 10
131.0344798633887
 20
129.7593433954971
 30
0.0
 11
131.0344798633887
 21
110.60042739549731
 31
0.0
  0
CIRCLE
  5
1C592
  8
0
 10
131.0344798633887
 20
120.0826473954971
 30
0.0
 40
5.5
  0
CIRCLE
  5
1C593
  8
0
 10
131.0344798633887
 20
120.0826473954971
 30
0.0
 40
8.5
  0
CIRCLE
  5
1C594
  8
0
 10
71.034464863388635
 20
120.0826473954971
 30
0.0
 40
5.5
  0
CIRCLE
  5
1C595
  8
0
 10
71.034464863388635
 20
120.0826473954971
 30
0.0
 40
8.5
  0
LINE
  5
1C596
  8
CENTER
 10
101.0344798633887
 20
139.52930464833841
 30
0.0
 11
101.0344798633887
 21
88.344056897199636
 31
0.0
  0
LINE
  5
1C597
  8
0
 10
110.78447986338909
 20
137.5826473954971
 30
0.0
 11
110.7844798633887
 21
132.5826473954971
 31
0.0
  0
LINE
  5
1C598
  8
0
 10
91.284479863388256
 20
137.5826473954971
 30
0.0
 11
91.284479863388711
 21
132.5826473954971
 31
0.0
  0
LINE
  5
1C599
  8
0
 10
82.034464863388649
 20
101.5826503954972
 30
0.0
 11
120.0344798633887
 21
101.5826503954972
 31
0.0
  0
LINE
  5
1C59A
  8
CENTER
 10
71.034464863388635
 20
129.7593433954971
 30
0.0
 11
71.034464863388635
 21
110.60042739549731
 31
0.0
  0
LINE
  5
1C59B
  8
0
 10
82.534464863388635
 20
132.5826473954971
 30
0.0
 11
82.534464863388635
 21
107.5826503954973
 31
0.0
  0
LINE
  5
1C59C
  8
0
 10
119.5344798633887
 20
132.5826473954971
 30
0.0
 11
119.5344798633887
 21
107.5826503954973
 31
0.0
  0
LINE
  5
1C59D
  8
CENTER
 10
61.533060863388542
 20
120.0826473954971
 30
0.0
 11
81.385718863388774
 21
120.0826473954971
 31
0.0
  0
LINE
  5
1C59E
  8
0
 10
61.034464863388642
 20
132.5826473954971
 30
0.0
 11
61.034464863388642
 21
107.5826503954973
 31
0.0
  0
LINE
  5
1C59F
  8
0
 10
141.0344798633887
 20
132.5826473954971
 30
0.0
 11
141.0344798633887
 21
107.5826503954973
 31
0.0
  0
LINE
  5
1C5A0
  8
0
 10
121.5344798633887
 20
132.5826473954971
 30
0.0
 11
121.5344798633887
 21
107.5826503954973
 31
0.0
  0
LINE
  5
1C5A1
  8
0
 10
80.534464863388635
 20
132.5826473954971
 30
0.0
 11
80.534464863388635
 21
107.5826503954973
 31
0.0
  0
LINE
  5
1C5A2
  8
0
 10
61.034464863388642
 20
107.5826503954973
 30
0.0
 11
141.0344798633887
 21
107.5826503954973
 31
0.0
  0
LINE
  5
1C5A3
  8
0
 10
61.034464863388642
 20
132.5826473954971
 30
0.0
 11
141.0344798633887
 21
132.5826473954971
 31
0.0
  0
LINE
  5
1C5A4
  8
0
 10
90.530928830569806
 20
99.58264739549719
 30
0.0
 11
111.53801589620799
 21
99.58264739549719
 31
0.0
  0
LINE
  5
1C5A5
  8
CENTER
 10
87.798246951168963
 20
95.082647395497176
 30
0.0
 11
103.8251827891099
 21
95.082647395497176
 31
0.0
  0
LINE
  5
1C5A6
  8
0
 10
88.5344723633889
 20
99.082647395497162
 30
0.0
 11
113.5344723633889
 21
99.082647395497162
 31
0.0
  0
LINE
  5
1C5A7
  8
0
 10
88.5344723633889
 20
91.582647395497162
 30
0.0
 11
113.5344723633889
 21
91.582647395497162
 31
0.0
  0
LINE
  5
1C5A8
  8
0
 10
88.5344723633889
 20
99.082647395497162
 30
0.0
 11
88.5344723633889
 21
91.582647395497162
 31
0.0
  0
LINE
  5
1C5A9
  8
0
 10
90.530928830569806
 20
99.58264739549719
 30
0.0
 11
90.242253695976629
 21
99.082647395497162
 31
0.0
  0
LINE
  5
1C5AA
  8
HIDE
 10
94.034472363388886
 20
99.582647395498981
 30
0.0
 11
94.034472363388886
 21
91.582647395497162
 31
0.0
  0
LINE
  5
1C5AB
  8
HIDE
 10
93.5344723633889
 20
99.582647395498981
 30
0.0
 11
93.5344723633889
 21
91.582647395497162
 31
0.0
  0
LINE
  5
1C5AC
  8
0
 10
97.454511676272901
 20
99.082647395497162
 30
0.0
 11
97.454511676272006
 21
91.582647395497162
 31
0.0
  0
LINE
  5
1C5AD
  8
0
 10
113.5344723633889
 20
99.082647395497162
 30
0.0
 11
113.5344723633889
 21
91.582647395497162
 31
0.0
  0
LINE
  5
1C5AE
  8
0
 10
111.53801589620799
 20
99.58264739549719
 30
0.0
 11
111.8266910308012
 21
99.082647395497162
 31
0.0
  0
LINE
  5
1C5AF
  8
HIDE
 10
108.0344723633889
 20
99.582647395498981
 30
0.0
 11
108.0344723633889
 21
91.582647395497162
 31
0.0
  0
LINE
  5
1C5B0
  8
HIDE
 10
108.5344723633889
 20
99.582647395498981
 30
0.0
 11
108.5344723633889
 21
91.582647395497162
 31
0.0
  0
LINE
  5
1C5B1
  8
0
 10
104.6144330505049
 20
99.082647395497162
 30
0.0
 11
104.6144330505058
 21
91.582647395497162
 31
0.0
  0
CIRCLE
  5
1C5B2
  8
0
 10
101.0344723633889
 20
95.082647395497176
 30
0.0
 40
2.0
  0
CIRCLE
  5
1C5B3
  8
0
 10
101.0344723633889
 20
95.082647395497176
 30
0.0
 40
1.649999999995998
  0
POLYLINE
  5
1C5B4
  8
0
 66
     1
 10
0.0
 20
0.0
 30
0.0
 70
     1
  0
VERTEX
  5
1C857
  8
0
 10
99.956557175802132
 20
95.082647395497176
 30
0.0
  0
VERTEX
  5
1C858
  8
0
 10
100.4955147695955
 20
96.016149331072072
 30
0.0
  0
VERTEX
  5
1C859
  8
0
 10
101.5734299571823
 20
96.016149331072072
 30
0.0
  0
VERTEX
  5
1C85A
  8
0
 10
102.1123875509756
 20
95.082647395497176
 30
0.0
  0
VERTEX
  5
1C85B
  8
0
 10
101.5734299571823
 20
94.149145459922295
 30
0.0
  0
VERTEX
  5
1C85C
  8
0
 10
100.4955147695955
 20
94.149145459922295
 30
0.0
  0
SEQEND
  5
1C85D
  8
0
  0
LINE
  5
1C5B5
  8
0
 10
91.284479863388711
 20
101.58265039549769
 30
0.0
 11
91.284479863388711
 21
99.58264739549719
 31
0.0
  0
LINE
  5
1C5B6
  8
0
 10
110.7844798633887
 20
101.58265039549769
 30
0.0
 11
110.7844798633887
 21
99.582647395497617
 31
0.0
  0
LINE
  5
1C5B7
  8
0
 10
179.61027031307461
 20
67.851434998689001
 30
0.0
 11
179.61027031307461
 21
29.851434998689001
 31
0.0
  0
LINE
  5
1C5B8
  8
0
 10
179.61027031307461
 20
29.851434998689001
 30
0.0
 11
185.61027031307461
 21
29.851434998689001
 31
0.0
  0
LINE
  5
1C5B9
  8
0
 10
179.61027031307461
 20
67.851434998689001
 30
0.0
 11
185.61027031307461
 21
67.851434998689001
 31
0.0
  0
LINE
  5
1C5BA
  8
0
 10
185.61027031307461
 20
58.851289998689033
 30
0.0
 11
210.61027031307461
 21
58.851289998689033
 31
0.0
  0
LINE
  5
1C5BB
  8
0
 10
215.61027031307461
 20
39.101295998689238
 30
0.0
 11
210.61027031307461
 21
39.101295998689238
 31
0.0
  0
LINE
  5
1C5BC
  8
0
 10
215.61027031307461
 20
58.601295998689238
 30
0.0
 11
210.61027031307461
 21
58.601295998689238
 31
0.0
  0
LINE
  5
1C5BD
  8
0
 10
185.61027031307461
 20
65.851295998689238
 30
0.0
 11
210.61027031307461
 21
65.851295998689238
 31
0.0
  0
LINE
  5
1C5BE
  8
0
 10
185.61027031306739
 20
67.851434998689001
 30
0.0
 11
185.61027031307461
 21
18.85128999868903
 31
0.0
  0
LINE
  5
1C5BF
  8
0
 10
210.61027031306739
 20
67.851295998689224
 30
0.0
 11
210.61027031307461
 21
18.85128999868903
 31
0.0
  0
LINE
  5
1C5C0
  8
0
 10
185.61027031307461
 20
18.85128999868903
 30
0.0
 11
210.61027031307461
 21
18.85128999868903
 31
0.0
  0
LINE
  5
1C5C1
  8
0
 10
185.61027031307461
 20
67.851295998689224
 30
0.0
 11
210.61027031307461
 21
67.851295998689224
 31
0.0
  0
LINE
  5
1C5C2
  8
CENTER
 10
215.9500740580115
 20
48.851295998689238
 30
0.0
 11
168.67485358617711
 21
48.851295998689238
 31
0.0
  0
LINE
  5
1C5C3
  8
HIDE
 10
210.61027031307461
 20
58.601295998689238
 30
0.0
 11
205.61027031307461
 21
58.601295998689238
 31
0.0
  0
LINE
  5
1C5C4
  8
HIDE
 10
187.61027031307461
 20
58.601295998689238
 30
0.0
 11
179.61027031307461
 21
58.601295998689238
 31
0.0
  0
LINE
  5
1C5C5
  8
HIDE
 10
210.61027031307461
 20
39.101295998689238
 30
0.0
 11
205.61027031307461
 21
39.101295998689238
 31
0.0
  0
LINE
  5
1C5C6
  8
HIDE
 10
187.61027031307461
 20
39.101295998689238
 30
0.0
 11
179.61027031307461
 21
39.101295998689238
 31
0.0
  0
LINE
  5
1C5C7
  8
HIDE
 10
215.61027031307461
 20
41.351295998689238
 30
0.0
 11
205.61027031307461
 21
41.351295998689238
 31
0.0
  0
LINE
  5
1C5C8
  8
HIDE
 10
187.61027031307461
 20
41.351295998689238
 30
0.0
 11
177.61027031307461
 21
41.351295998689238
 31
0.0
  0
LINE
  5
1C5C9
  8
HIDE
 10
215.61027031307461
 20
56.351295998687419
 30
0.0
 11
205.61027031307461
 21
56.351295998689238
 31
0.0
  0
LINE
  5
1C5CA
  8
HIDE
 10
187.61027031307461
 20
56.351295998689238
 30
0.0
 11
177.61027031307461
 21
56.351295998689238
 31
0.0
  0
CIRCLE
  5
1C5CB
  8
HIDE
 10
201.11027031307461
 20
37.101295998689238
 30
0.0
 40
2.549999999999998
  0
CIRCLE
  5
1C5CC
  8
HIDE
 10
201.11027031307461
 20
60.601295998689238
 30
0.0
 40
2.549999999999998
  0
CIRCLE
  5
1C5CD
  8
HIDE
 10
192.11027031307461
 20
37.101295998689238
 30
0.0
 40
2.5499999999999989
  0
CIRCLE
  5
1C5CE
  8
HIDE
 10
192.11027031307461
 20
60.601295998689238
 30
0.0
 40
2.5499999999999989
  0
ARC
  5
1C5CF
  8
HIDE
 10
196.4602703130731
 20
64.701295998689602
 30
0.0
 40
0.1500000000000003
 50
0.0
 51
90.0
  0
ARC
  5
1C5D0
  8
HIDE
 10
187.91027031307749
 20
64.551295998689966
 30
0.0
 40
0.3000000000000007
 50
90.0
 51
180.0
  0
ARC
  5
1C5D1
  8
HIDE
 10
196.3102703130717
 20
56.651295998688511
 30
0.0
 40
0.2999999999999998
 50
270.0
 51
0.0
  0
ARC
  5
1C5D2
  8
HIDE
 10
196.3102703130717
 20
41.051295998689959
 30
0.0
 40
0.3000000000000007
 50
0.0
 51
90.0
  0
ARC
  5
1C5D3
  8
HIDE
 10
187.76027031307601
 20
56.501295998688867
 30
0.0
 40
0.1499999999999986
 50
180.0
 51
270.0
  0
ARC
  5
1C5D4
  8
HIDE
 10
187.76027031307601
 20
41.201295998689602
 30
0.0
 40
0.1500000000000003
 50
90.0
 51
180.0
  0
ARC
  5
1C5D5
  8
HIDE
 10
196.4602703130731
 20
33.001295998688867
 30
0.0
 40
0.1499999999999986
 50
270.0
 51
0.0
  0
ARC
  5
1C5D6
  8
HIDE
 10
187.91027031307749
 20
33.151295998688511
 30
0.0
 40
0.3000000000000007
 50
180.0
 51
270.0
  0
LINE
  5
1C5D7
  8
HIDE
 10
187.61027031307461
 20
61.901295998688511
 30
0.0
 11
189.91652921622881
 21
61.901295998688511
 31
0.0
  0
LINE
  5
1C5D8
  8
HIDE
 10
187.91027031307749
 20
64.851295998689238
 30
0.0
 11
196.4602703130731
 21
64.851295998689238
 31
0.0
  0
LINE
  5
1C5D9
  8
HIDE
 10
196.61027031307461
 20
59.301295998689959
 30
0.0
 11
194.30401140992029
 21
59.301295998689959
 31
0.0
  0
LINE
  5
1C5DA
  8
HIDE
 10
193.097921395296
 20
62.952262893348227
 30
0.0
 11
196.61027031307461
 21
63.151295998688511
 31
0.0
  0
LINE
  5
1C5DB
  8
HIDE
 10
187.61027031307461
 20
59.301295998689959
 30
0.0
 11
189.91652921622881
 21
59.301295998689959
 31
0.0
  0
LINE
  5
1C5DC
  8
HIDE
 10
187.61027031307461
 20
38.401295998688518
 30
0.0
 11
189.91652921622881
 21
38.401295998688518
 31
0.0
  0
LINE
  5
1C5DD
  8
HIDE
 10
187.76027031307601
 20
56.351295998689238
 30
0.0
 11
196.3102703130717
 21
56.351295998689238
 31
0.0
  0
LINE
  5
1C5DE
  8
HIDE
 10
187.76027031307601
 20
41.351295998689238
 30
0.0
 11
196.3102703130717
 21
41.351295998689238
 31
0.0
  0
LINE
  5
1C5DF
  8
HIDE
 10
196.61027031307461
 20
38.401295998688518
 30
0.0
 11
194.30401140992029
 21
38.401295998688518
 31
0.0
  0
LINE
  5
1C5E0
  8
HIDE
 10
187.61027031307461
 20
35.801295998689973
 30
0.0
 11
189.91652921622881
 21
35.801295998689973
 31
0.0
  0
LINE
  5
1C5E1
  8
HIDE
 10
196.4602703130731
 20
32.851295998689238
 30
0.0
 11
187.91027031307749
 21
32.851295998689238
 31
0.0
  0
LINE
  5
1C5E2
  8
HIDE
 10
193.097921395296
 20
34.75032910403025
 30
0.0
 11
196.61027031307461
 21
34.551295998689973
 31
0.0
  0
LINE
  5
1C5E3
  8
HIDE
 10
187.61027031307461
 20
33.151295998688511
 30
0.0
 11
187.61027031307461
 21
64.551295998689966
 31
0.0
  0
LINE
  5
1C5E4
  8
HIDE
 10
196.61027031307461
 20
64.701295998689602
 30
0.0
 11
196.61027031307461
 21
33.001295998688867
 31
0.0
  0
ARC
  5
1C5E5
  8
HIDE
 10
196.76027031307601
 20
33.001295998688867
 30
0.0
 40
0.1500000000000003
 50
180.0
 51
270.0
  0
ARC
  5
1C5E6
  8
HIDE
 10
205.3102703130717
 20
33.151295998688511
 30
0.0
 40
0.2999999999999989
 50
270.0
 51
0.0
  0
ARC
  5
1C5E7
  8
HIDE
 10
196.91027031307749
 20
41.051295998689959
 30
0.0
 40
0.2999999999999998
 50
90.0
 51
180.0
  0
ARC
  5
1C5E8
  8
HIDE
 10
196.91027031307749
 20
56.651295998688511
 30
0.0
 40
0.3000000000000007
 50
180.0
 51
270.0
  0
ARC
  5
1C5E9
  8
HIDE
 10
205.4602703130731
 20
41.201295998689602
 30
0.0
 40
0.15
 50
0.0
 51
90.0
  0
ARC
  5
1C5EA
  8
HIDE
 10
205.4602703130731
 20
56.501295998688867
 30
0.0
 40
0.1500000000000003
 50
270.0
 51
0.0
  0
ARC
  5
1C5EB
  8
HIDE
 10
196.76027031307601
 20
64.701295998689602
 30
0.0
 40
0.1500000000000003
 50
90.0
 51
180.0
  0
ARC
  5
1C5EC
  8
HIDE
 10
205.3102703130717
 20
64.551295998689966
 30
0.0
 40
0.3
 50
0.0
 51
90.0
  0
LINE
  5
1C5ED
  8
HIDE
 10
205.61027031307461
 20
35.801295998689973
 30
0.0
 11
203.30401140992041
 21
35.801295998689973
 31
0.0
  0
LINE
  5
1C5EE
  8
HIDE
 10
205.3102703130717
 20
32.851295998689238
 30
0.0
 11
196.76027031307601
 21
32.851295998689238
 31
0.0
  0
LINE
  5
1C5EF
  8
HIDE
 10
196.61027031307461
 20
38.401295998688518
 30
0.0
 11
198.91652921622881
 21
38.401295998688518
 31
0.0
  0
LINE
  5
1C5F0
  8
HIDE
 10
200.12261923085319
 20
34.75032910403025
 30
0.0
 11
196.61027031307461
 21
34.551295998689973
 31
0.0
  0
LINE
  5
1C5F1
  8
HIDE
 10
205.61027031307461
 20
38.401295998688518
 30
0.0
 11
203.30401140992041
 21
38.401295998688518
 31
0.0
  0
LINE
  5
1C5F2
  8
HIDE
 10
205.61027031307461
 20
59.301295998689959
 30
0.0
 11
203.30401140992041
 21
59.301295998689959
 31
0.0
  0
LINE
  5
1C5F3
  8
HIDE
 10
205.4602703130731
 20
41.351295998689238
 30
0.0
 11
196.91027031307749
 21
41.351295998689238
 31
0.0
  0
LINE
  5
1C5F4
  8
HIDE
 10
205.4602703130731
 20
56.351295998689238
 30
0.0
 11
196.91027031307749
 21
56.351295998689238
 31
0.0
  0
LINE
  5
1C5F5
  8
HIDE
 10
196.61027031307461
 20
59.301295998689959
 30
0.0
 11
198.91652921622881
 21
59.301295998689959
 31
0.0
  0
LINE
  5
1C5F6
  8
HIDE
 10
205.61027031307461
 20
61.901295998688511
 30
0.0
 11
203.30401140992041
 21
61.901295998688511
 31
0.0
  0
LINE
  5
1C5F7
  8
HIDE
 10
196.76027031307601
 20
64.851295998689238
 30
0.0
 11
205.3102703130717
 21
64.851295998689238
 31
0.0
  0
LINE
  5
1C5F8
  8
HIDE
 10
200.12261923085319
 20
62.952262893348227
 30
0.0
 11
196.61027031307461
 21
63.151295998688511
 31
0.0
  0
LINE
  5
1C5F9
  8
HIDE
 10
205.61027031307461
 20
64.551295998689966
 30
0.0
 11
205.61027031307461
 21
33.151295998688511
 31
0.0
  0
LINE
  5
1C5FA
  8
0
 10
177.61027031307461
 20
59.354839531508333
 30
0.0
 11
177.61027031307461
 21
38.347752465870137
 31
0.0
  0
LINE
  5
1C5FB
  8
CENTER
 10
173.11027031307461
 20
62.087521410909169
 30
0.0
 11
173.11027031307461
 21
46.060585572968193
 31
0.0
  0
LINE
  5
1C5FC
  8
0
 10
177.11027031307461
 20
61.351295998689238
 30
0.0
 11
177.11027031307461
 21
36.351295998689238
 31
0.0
  0
LINE
  5
1C5FD
  8
0
 10
169.61027031307461
 20
61.351295998689238
 30
0.0
 11
169.61027031307461
 21
36.351295998689238
 31
0.0
  0
LINE
  5
1C5FE
  8
0
 10
177.11027031307461
 20
61.351295998689238
 30
0.0
 11
169.61027031307461
 21
61.351295998689238
 31
0.0
  0
LINE
  5
1C5FF
  8
CENTER
 10
178.85205121550831
 20
48.851295998689238
 30
0.0
 11
167.40123979807689
 21
48.851295998689238
 31
0.0
  0
LINE
  5
1C600
  8
0
 10
177.61027031307461
 20
59.354839531508333
 30
0.0
 11
177.11027031307461
 21
59.6435146661006
 31
0.0
  0
LINE
  5
1C601
  8
HIDE
 10
177.61027031307461
 20
55.851295998689238
 30
0.0
 11
169.61027031307461
 21
55.851295998689238
 31
0.0
  0
LINE
  5
1C602
  8
HIDE
 10
177.61027031307461
 20
56.351295998689238
 30
0.0
 11
169.61027031307461
 21
56.351295998689238
 31
0.0
  0
LINE
  5
1C603
  8
0
 10
177.11027031307461
 20
52.431256685804321
 30
0.0
 11
169.61027031307461
 21
52.43125668580614
 31
0.0
  0
LINE
  5
1C604
  8
0
 10
177.11027031307461
 20
36.351295998689238
 30
0.0
 11
169.61027031307461
 21
36.351295998689238
 31
0.0
  0
LINE
  5
1C605
  8
0
 10
177.61027031307461
 20
38.347752465870137
 30
0.0
 11
177.11027031307461
 21
38.059077331277877
 31
0.0
  0
LINE
  5
1C606
  8
HIDE
 10
177.61027031307461
 20
41.851295998689238
 30
0.0
 11
169.61027031307461
 21
41.851295998689238
 31
0.0
  0
LINE
  5
1C607
  8
HIDE
 10
177.61027031307461
 20
41.351295998689238
 30
0.0
 11
169.61027031307461
 21
41.351295998689238
 31
0.0
  0
LINE
  5
1C608
  8
0
 10
177.11027031307461
 20
45.271335311574148
 30
0.0
 11
169.61027031307461
 21
45.271335311572322
 31
0.0
  0
LINE
  5
1C609
  8
HIDE
 10
171.11027031307461
 20
61.351295998689238
 30
0.0
 11
171.11027031307461
 21
55.851295998689238
 31
0.0
  0
LINE
  5
1C60A
  8
HIDE
 10
171.4602703130731
 20
61.351295998689238
 30
0.0
 11
171.4602703130731
 21
55.851295998689238
 31
0.0
  0
LINE
  5
1C60B
  8
HIDE
 10
175.11027031307461
 20
61.351295998689238
 30
0.0
 11
175.11027031307461
 21
55.851295998689238
 31
0.0
  0
LINE
  5
1C60C
  8
HIDE
 10
174.76027031307609
 20
61.351295998689238
 30
0.0
 11
174.76027031307609
 21
55.851295998689238
 31
0.0
  0
LINE
  5
1C60D
  8
HIDE
 10
175.11027031307461
 20
60.8138192610404
 30
0.0
 11
171.11027031307461
 21
60.8138192610404
 31
0.0
  0
LINE
  5
1C60E
  8
HIDE
 10
175.11027031307461
 20
56.813819261040408
 30
0.0
 11
171.11027031307461
 21
56.813819261040408
 31
0.0
  0
LINE
  5
1C60F
  8
HIDE
 10
171.4602703130731
 20
56.611746666823819
 30
0.0
 11
171.11027031307461
 21
56.813819261040408
 31
0.0
  0
LINE
  5
1C610
  8
HIDE
 10
171.4602703130731
 20
56.611746666823819
 30
0.0
 11
174.76027031307609
 21
56.611746666823819
 31
0.0
  0
LINE
  5
1C611
  8
HIDE
 10
174.76027031307609
 20
56.611746666823819
 30
0.0
 11
175.11027031307461
 21
56.813819261040408
 31
0.0
  0
CIRCLE
  5
1C612
  8
0
 10
173.11027031307461
 20
48.851295998689238
 30
0.0
 40
2.0
  0
CIRCLE
  5
1C613
  8
0
 10
173.11027031307461
 20
48.851295998689238
 30
0.0
 40
1.649999999995998
  0
POLYLINE
  5
1C614
  8
0
 66
     1
 10
0.0
 20
0.0
 30
0.0
 70
     1
  0
VERTEX
  5
1C85E
  8
0
 10
173.11027031307461
 20
49.929211186276007
 30
0.0
  0
VERTEX
  5
1C85F
  8
0
 10
174.04377224864581
 20
49.390253592482622
 30
0.0
  0
VERTEX
  5
1C860
  8
0
 10
174.04377224864581
 20
48.312338404895847
 30
0.0
  0
VERTEX
  5
1C861
  8
0
 10
173.11027031307461
 20
47.773380811102463
 30
0.0
  0
VERTEX
  5
1C862
  8
0
 10
172.17676837750329
 20
48.312338404895847
 30
0.0
  0
VERTEX
  5
1C863
  8
0
 10
172.17676837750329
 20
49.390253592482622
 30
0.0
  0
SEQEND
  5
1C864
  8
0
  0
LINE
  5
1C615
  8
0
 10
215.61027031307461
 20
58.601295998689238
 30
0.0
 11
215.61027031307461
 21
39.101295998689238
 31
0.0
  0
LINE
  5
1C616
  8
0
 10
179.61027031307461
 20
39.101295998689238
 30
0.0
 11
177.61027031307461
 21
39.101295998689238
 31
0.0
  0
LINE
  5
1C617
  8
0
 10
179.61027031307461
 20
58.601295998689238
 30
0.0
 11
177.61027031307461
 21
58.601295998689238
 31
0.0
  0
LINE
  5
1C618
  8
CENTER
 10
198.11027031307461
 20
27.70188169625726
 30
0.0
 11
198.11027031307461
 21
9.5270919443992241
 31
0.0
  0
ENDSEC
  0
EOF
