  0
SECTION
  2
HEADER
  9
$ACADVER
  1
AC1009
  9
$INSBASE
 10
0.0
 20
0.0
 30
0.0
  9
$EXTMIN
 10
1903.0405749290021
 20
1433.173578249188
 30
0.0
  9
$EXTMAX
 10
2348.540574929003
 20
1748.173578249188
 30
0.0
  9
$LIMMIN
 10
0.0
 20
0.0
  9
$LIMMAX
 10
12.0
 20
9.0
  9
$ORTHOMODE
 70
     0
  9
$REGENMODE
 70
     1
  9
$FILLMODE
 70
     1
  9
$QTEXTMODE
 70
     0
  9
$MIRRTEXT
 70
     0
  9
$DRAGMODE
 70
     2
  9
$LTSCALE
 40
5.0
  9
$OSMODE
 70
  2239
  9
$ATTMODE
 70
     1
  9
$TEXTSIZE
 40
2.5
  9
$TRACEWID
 40
0.05
  9
$TEXTSTYLE
  7
BIG
  9
$CLAYER
  8
0
  9
$CELTYPE
  6
BYLAYER
  9
$CECOLOR
 62
   256
  9
$DIMSCALE
 40
1.0
  9
$DIMASZ
 40
3.0
  9
$DIMEXO
 40
1.0
  9
$DIMDLI
 40
0.0
  9
$DIMRND
 40
0.0
  9
$DIMDLE
 40
0.0
  9
$DIMEXE
 40
1.0
  9
$DIMTP
 40
0.0
  9
$DIMTM
 40
0.0
  9
$DIMTXT
 40
3.0
  9
$DIMCEN
 40
0.0
  9
$DIMTSZ
 40
0.0
  9
$DIMTOL
 70
     0
  9
$DIMLIM
 70
     0
  9
$DIMTIH
 70
     0
  9
$DIMTOH
 70
     0
  9
$DIMSE1
 70
     0
  9
$DIMSE2
 70
     0
  9
$DIMTAD
 70
     1
  9
$DIMZIN
 70
     8
  9
$DIMBLK
  1

  9
$DIMASO
 70
     1
  9
$DIMSHO
 70
     1
  9
$DIMPOST
  1

  9
$DIMAPOST
  1

  9
$DIMALT
 70
     0
  9
$DIMALTD
 70
     2
  9
$DIMALTF
 40
25.399999999999999
  9
$DIMLFAC
 40
1.0
  9
$DIMTOFL
 70
     1
  9
$DIMTVP
 40
0.0
  9
$DIMTIX
 70
     1
  9
$DIMSOXD
 70
     0
  9
$DIMSAH
 70
     0
  9
$DIMBLK1
  1

  9
$DIMBLK2
  1

  9
$DIMSTYLE
  2
DUKITEC
  9
$DIMCLRD
 70
     5
  9
$DIMCLRE
 70
     5
  9
$DIMCLRT
 70
     0
  9
$DIMTFAC
 40
1.0
  9
$DIMGAP
 40
1.0
  9
$LUNITS
 70
     2
  9
$LUPREC
 70
     4
  9
$SKETCHINC
 40
0.1
  9
$FILLETRAD
 40
0.2
  9
$AUNITS
 70
     0
  9
$AUPREC
 70
     0
  9
$MENU
  1
.
  9
$ELEVATION
 40
0.0
  9
$PELEVATION
 40
0.0
  9
$THICKNESS
 40
0.0
  9
$LIMCHECK
 70
     0
  9
$BLIPMODE
 70
     0
  9
$CHAMFERA
 40
0.5
  9
$CHAMFERB
 40
0.5
  9
$SKPOLY
 70
     0
  9
$TDCREATE
 40
2454396.6878217128
  9
$TDUPDATE
 40
2456630.4617795949
  9
$TDINDWG
 40
0.0035009491
  9
$TDUSRTIMER
 40
0.0035009491
  9
$USRTIMER
 70
     1
  9
$ANGBASE
 50
0.0
  9
$ANGDIR
 70
     0
  9
$PDMODE
 70
     0
  9
$PDSIZE
 40
0.0
  9
$PLINEWID
 40
0.0
  9
$COORDS
 70
     1
  9
$SPLFRAME
 70
     0
  9
$SPLINETYPE
 70
     6
  9
$SPLINESEGS
 70
     8
  9
$ATTDIA
 70
     0
  9
$ATTREQ
 70
     1
  9
$HANDLING
 70
     1
  9
$HANDSEED
  5
143F3
  9
$SURFTAB1
 70
     6
  9
$SURFTAB2
 70
     6
  9
$SURFTYPE
 70
     6
  9
$SURFU
 70
     6
  9
$SURFV
 70
     6
  9
$UCSNAME
  2

  9
$UCSORG
 10
0.0
 20
0.0
 30
0.0
  9
$UCSXDIR
 10
1.0
 20
0.0
 30
0.0
  9
$UCSYDIR
 10
0.0
 20
1.0
 30
0.0
  9
$PUCSNAME
  2

  9
$PUCSORG
 10
0.0
 20
0.0
 30
0.0
  9
$PUCSXDIR
 10
1.0
 20
0.0
 30
0.0
  9
$PUCSYDIR
 10
0.0
 20
1.0
 30
0.0
  9
$USERI1
 70
     0
  9
$USERI2
 70
     0
  9
$USERI3
 70
     0
  9
$USERI4
 70
     0
  9
$USERI5
 70
     0
  9
$USERR1
 40
0.0
  9
$USERR2
 40
0.0
  9
$USERR3
 40
0.0
  9
$USERR4
 40
0.0
  9
$USERR5
 40
0.0
  9
$WORLDVIEW
 70
     1
  9
$SHADEDGE
 70
     3
  9
$SHADEDIF
 70
    70
  9
$TILEMODE
 70
     1
  9
$MAXACTVP
 70
    64
  9
$PLIMCHECK
 70
     0
  9
$PEXTMIN
 10
0.0
 20
0.0
 30
0.0
  9
$PEXTMAX
 10
0.0
 20
0.0
 30
0.0
  9
$PLIMMIN
 10
0.0
 20
0.0
  9
$PLIMMAX
 10
12.0
 20
9.0
  9
$UNITMODE
 70
     0
  9
$VISRETAIN
 70
     1
  9
$PLINEGEN
 70
     0
  9
$PSLTSCALE
 70
     1
  0
ENDSEC
  0
SECTION
  2
TABLES
  0
TABLE
  2
VPORT
 70
     1
  0
VPORT
  2
*ACTIVE
 70
     0
 10
0.0
 20
0.0
 11
1.0
 21
1.0
 12
2123.185204647079
 22
1578.1709412073669
 13
0.0
 23
0.0
 14
0.5
 24
0.5
 15
0.5
 25
0.5
 16
0.0
 26
0.0
 36
1.0
 17
0.0
 27
0.0
 37
0.0
 40
215.41156460792939
 41
2.1408934707903771
 42
50.0
 43
0.0
 44
0.0
 50
0.0
 51
0.0
 71
     0
 72
  2000
 73
     1
 74
     3
 75
     0
 76
     0
 77
     0
 78
     0
  0
ENDTAB
  0
TABLE
  2
LTYPE
 70
     5
  0
LTYPE
  2
CONTINUOUS
 70
     0
  3
Solid line
 72
    65
 73
     0
 40
0.0
  0
LTYPE
  2
PHANTOM2
 70
     0
  3
Phantom (.5x) ___ _ _ ___ _ _ ___ _ _ ___ _ _
 72
    65
 73
     6
 40
1.25
 49
0.625
 49
-0.125
 49
0.125
 49
-0.125
 49
0.125
 49
-0.125
  0
LTYPE
  2
CENTER
 70
     0
  3
___ _ ___ _ ___ _ ___ _ ___ _ ___ _ ___ _ ___ _
 72
    65
 73
     4
 40
0.95
 49
0.625
 49
-0.125
 49
0.075
 49
-0.125
  0
LTYPE
  2
DASHED2
 70
     0
  3
Dashed (.5x) _ _ _ _ _ _ _ _ _ _ _ _ _ _ _ _ _
 72
    65
 73
     2
 40
0.375
 49
0.25
 49
-0.125
  0
ENDTAB
  0
TABLE
  2
LAYER
 70
     4
  0
LAYER
  2
0
 70
     0
 62
     7
  6
CONTINUOUS
  0
LAYER
  2
HIDE
 70
     0
 62
     1
  6
DASHED2
  0
LAYER
  2
CENTER
 70
     0
 62
     3
  6
CENTER
  0
ENDTAB
  0
TABLE
  2
STYLE
 70
     3
  0
STYLE
  2
STANDARD
 70
     0
 40
5.0
 41
1.0
 50
0.0
 71
     0
 42
5.0
  3
txt.shx
  4
whgtxt.shx
  0
STYLE
  2
BIG
 70
     0
 40
20.0
 41
1.0
 50
0.0
 71
     0
 42
2.5
  3
txt
  4

  0
ENDTAB
  0
TABLE
  2
VIEW
 70
     0
  0
ENDTAB
  0
TABLE
  2
UCS
 70
     0
  0
ENDTAB
  0
TABLE
  2
APPID
 70
    10
  0
APPID
  2
ACAD
 70
     0
  0
APPID
  2
ACADANNOTATIVE
 70
     0
  0
APPID
  2
ACAD_EXEMPT_FROM_CAD_STANDARDS
 70
     0
  0
APPID
  2
ACAD_DSTYLE_DIMJOGGED_JOGA
 70
     0
  0
APPID
  2
ACAD_PSEXT
 70
     0
  0
APPID
  2
ACAECLAYERSTANDARD
 70
     0
  0
APPID
  2
DCO15
 70
     0
  0
APPID
  2
CONTENTBLOCKICON
 70
     0
  0
APPID
  2
ACAD_NAV_VCDISPLAY
 70
     0
  0
APPID
  2
ACAD_MLEADERVER
 70
     0
  0
ENDTAB
  0
TABLE
  2
DIMSTYLE
 70
     4
  0
DIMSTYLE
  2
DUKITEC
 70
     0
  3

  4

  5

  6

  7

 40
1.0
 41
3.0
 42
1.0
 43
0.0
 44
1.0
 45
0.0
 46
0.0
 47
0.0
 48
0.0
140
3.0
141
0.0
142
0.0
143
25.399999999999999
144
1.0
145
0.0
146
1.0
147
1.0
 71
     0
 72
     0
 73
     0
 74
     0
 75
     0
 76
     0
 77
     1
 78
     8
170
     0
171
     2
172
     1
173
     0
174
     1
175
     0
176
     5
177
     5
178
     0
  0
ENDTAB
  0
ENDSEC
  0
SECTION
  2
BLOCKS
  0
BLOCK
  8
0
  2
$MODEL_SPACE
 70
     0
 10
0.0
 20
0.0
 30
0.0
  3
$MODEL_SPACE
  1

  0
ENDBLK
  5
1418A
  8
0
  0
BLOCK
 67
     1
  8
0
  2
$PAPER_SPACE
 70
     0
 10
0.0
 20
0.0
 30
0.0
  3
$PAPER_SPACE
  1

  0
ENDBLK
  5
14186
 67
     1
  8
0
  0
ENDSEC
  0
SECTION
  2
ENTITIES
  0
POLYLINE
  5
13E1C
  8
0
 66
     1
 10
0.0
 20
0.0
 30
0.0
 70
     1
  0
VERTEX
  5
143A2
  8
0
 10
1949.6344669468981
 20
1466.339762121778
 30
0.0
  0
VERTEX
  5
143A3
  8
0
 10
1949.6344669468981
 20
1686.8397621217789
 30
0.0
  0
VERTEX
  5
143A4
  8
0
 10
2261.4844669468998
 20
1686.8397621217789
 30
0.0
  0
VERTEX
  5
143A5
  8
0
 10
2261.4844669468998
 20
1466.339762121778
 30
0.0
  0
VERTEX
  5
143A6
  8
0
 10
1949.6344669468981
 20
1466.339762121778
 30
0.0
  0
SEQEND
  5
143A7
  8
0
  0
TEXT
  5
14020
  8
0
 10
2088.3462535087051
 20
1492.267680439576
 30
0.0
 40
20.0
  1
BK10
  7
BIG
  0
LINE
  5
1422C
  8
HIDE
 10
2056.4439176867049
 20
1576.700019156169
 30
0.0
 11
2056.4439176867049
 21
1571.700019156169
 31
0.0
  0
LINE
  5
1422D
  8
HIDE
 10
2054.2439166867048
 20
1571.700019156169
 30
0.0
 11
2054.2439166867048
 21
1544.200019156169
 31
0.0
  0
LINE
  5
1422E
  8
HIDE
 10
2045.4439176867049
 20
1576.700019156169
 30
0.0
 11
2045.4439176867049
 21
1571.700019156169
 31
0.0
  0
LINE
  5
1422F
  8
HIDE
 10
2047.6439186867051
 20
1571.700019156169
 30
0.0
 11
2047.6439186867051
 21
1544.200019156169
 31
0.0
  0
LINE
  5
14230
  8
HIDE
 10
2045.4439176867049
 20
1571.700019156169
 30
0.0
 11
2056.4439176867049
 21
1571.700019156169
 31
0.0
  0
LINE
  5
14231
  8
HIDE
 10
2091.4439176867049
 20
1571.700019156169
 30
0.0
 11
2102.4439176867049
 21
1571.700019156169
 31
0.0
  0
LINE
  5
14232
  8
HIDE
 10
2093.6439186867051
 20
1571.700019156169
 30
0.0
 11
2093.6439186867051
 21
1544.200019156169
 31
0.0
  0
LINE
  5
14233
  8
HIDE
 10
2100.2439166867048
 20
1571.700019156169
 30
0.0
 11
2100.2439166867048
 21
1544.200019156169
 31
0.0
  0
LINE
  5
14234
  8
HIDE
 10
2102.4439176867049
 20
1576.700019156169
 30
0.0
 11
2102.4439176867049
 21
1571.700019156169
 31
0.0
  0
LINE
  5
14235
  8
HIDE
 10
2091.4439176867049
 20
1576.700019156169
 30
0.0
 11
2091.4439176867049
 21
1571.700019156169
 31
0.0
  0
ARC
  5
14236
  8
CENTER
 10
2073.9439176867049
 20
1566.200019156169
 30
0.0
 40
16.0
 50
118.12257009414211
 51
152.40997700454659
  0
ARC
  5
14237
  8
CENTER
 10
2073.9439176867049
 20
1566.200019156169
 30
0.0
 40
16.0
 50
27.323300165725829
 51
62.329954784831422
  0
ARC
  5
14238
  8
CENTER
 10
2073.9439176867049
 20
1566.200019156169
 30
0.0
 40
16.0
 50
299.21386204180033
 51
331.9984558412711
  0
CIRCLE
  5
14239
  8
0
 10
2096.9439176867049
 20
1551.200019156169
 30
0.0
 40
2.75
  0
CIRCLE
  5
1423A
  8
0
 10
2073.9439176867049
 20
1566.200019156169
 30
0.0
 40
11.0
  0
CIRCLE
  5
1423B
  8
0
 10
2050.9439176867049
 20
1566.200019156169
 30
0.0
 40
2.75
  0
CIRCLE
  5
1423C
  8
0
 10
2050.9439176867049
 20
1551.200019156169
 30
0.0
 40
2.75
  0
CIRCLE
  5
1423D
  8
0
 10
2096.9439176867049
 20
1566.200019156169
 30
0.0
 40
2.75
  0
ARC
  5
1423E
  8
CENTER
 10
2073.9439176867049
 20
1566.200019156169
 30
0.0
 40
16.0
 50
209.32223899682199
 51
242.15484192175501
  0
CIRCLE
  5
1423F
  8
0
 10
2085.2576386867049
 20
1577.5134841561689
 30
0.0
 40
3.5
  0
CIRCLE
  5
14240
  8
0
 10
2062.6304406867048
 20
1577.513728156169
 30
0.0
 40
3.5
  0
CIRCLE
  5
14241
  8
0
 10
2062.6304406867048
 20
1554.8865421561691
 30
0.0
 40
3.5
  0
CIRCLE
  5
14242
  8
0
 10
2085.2573946867051
 20
1554.886527156169
 30
0.0
 40
3.5
  0
ARC
  5
14243
  8
0
 10
2073.9439176867049
 20
1566.200019156169
 30
0.0
 40
21.0
 50
38.213207999986032
 51
51.786787999992832
  0
ARC
  5
14244
  8
0
 10
2073.9439176867049
 20
1566.200019156169
 30
0.0
 40
21.0
 50
218.21324999998049
 51
231.7868000000197
  0
ARC
  5
14245
  8
0
 10
2073.9439176867049
 20
1566.200019156169
 30
0.0
 40
21.0
 50
308.21320999998852
 51
321.78679000001148
  0
ARC
  5
14246
  8
0
 10
2073.9439176867049
 20
1566.200019156169
 30
0.0
 40
21.0
 50
128.2131999999803
 51
141.78675000001951
  0
LINE
  5
14247
  8
0
 10
2063.7862666867049
 20
1552.8882691561689
 30
0.0
 11
2064.9409296867052
 21
1554.888204156169
 31
0.0
  0
LINE
  5
14248
  8
0
 10
2043.9439176867049
 20
1544.200019156169
 30
0.0
 11
2103.9439176867049
 21
1544.200019156169
 31
0.0
  0
LINE
  5
14249
  8
CENTER
 10
2041.5017786867049
 20
1566.200019156169
 30
0.0
 11
2105.9773646867052
 21
1566.200019156169
 31
0.0
  0
LINE
  5
1424A
  8
CENTER
 10
2073.9439176867049
 20
1587.025919408451
 30
0.0
 11
2073.9439176867049
 21
1541.470342848279
 31
0.0
  0
LINE
  5
1424B
  8
0
 10
2103.9439176867049
 20
1576.700019156169
 30
0.0
 11
2103.9439176867049
 21
1544.200019156169
 31
0.0
  0
LINE
  5
1424C
  8
0
 10
2043.9439176867049
 20
1576.700019156169
 30
0.0
 11
2043.9439176867049
 21
1544.200019156169
 31
0.0
  0
LINE
  5
1424D
  8
0
 10
2058.9439176867049
 20
1583.200015156169
 30
0.0
 11
2088.9439176867049
 21
1583.200015156169
 31
0.0
  0
LINE
  5
1424E
  8
0
 10
2043.9439176867049
 20
1576.700019156169
 30
0.0
 11
2056.9439176867049
 21
1576.700019156169
 31
0.0
  0
LINE
  5
14251
  8
0
 10
2088.9442056867051
 20
1583.1997541561691
 30
0.0
 11
2090.944171686705
 21
1581.199802156169
 31
0.0
  0
LINE
  5
14252
  8
0
 10
2058.9442606867051
 20
1583.1997141561701
 30
0.0
 11
2056.9439176867049
 21
1581.199302144335
 31
0.0
  0
LINE
  5
14253
  8
0
 10
2090.9439176867049
 20
1576.700019156169
 30
0.0
 11
2103.9439176867049
 21
1576.700019156169
 31
0.0
  0
LINE
  5
14254
  8
CENTER
 10
2050.9439176867049
 20
1578.134578156169
 30
0.0
 11
2050.9439176867049
 21
1542.572898156169
 31
0.0
  0
LINE
  5
14255
  8
CENTER
 10
2096.9439176867049
 20
1578.2353241561691
 30
0.0
 11
2096.9439176867049
 21
1542.673637156169
 31
0.0
  0
LINE
  5
14256
  8
CENTER
 10
2088.5254720810422
 20
1580.781043550506
 30
0.0
 11
2082.1903703033472
 21
1574.445941772811
 31
0.0
  0
LINE
  5
14257
  8
0
 10
2086.4124236867051
 20
1579.513728156169
 30
0.0
 11
2084.103097686705
 21
1579.513728156169
 31
0.0
  0
LINE
  5
14258
  8
0
 10
2086.4124236867051
 20
1575.513728156169
 30
0.0
 11
2084.103097686705
 21
1575.513728156169
 31
0.0
  0
LINE
  5
14259
  8
0
 10
2086.4115196867051
 20
1579.512830156169
 30
0.0
 11
2087.5661826867049
 21
1577.512895156169
 31
0.0
  0
LINE
  5
1425A
  8
0
 10
2082.9474176867052
 20
1577.512830156169
 30
0.0
 11
2084.102080686705
 21
1575.512895156169
 31
0.0
  0
LINE
  5
1425B
  8
0
 10
2087.5660616867049
 20
1577.5116321561691
 30
0.0
 11
2086.4113986867051
 21
1575.511697156169
 31
0.0
  0
LINE
  5
1425C
  8
0
 10
2061.4764526867052
 20
1552.8870561561689
 30
0.0
 11
2060.321789686705
 21
1554.8869921561691
 31
0.0
  0
LINE
  5
1425D
  8
0
 10
2084.101959686705
 20
1579.5116321561691
 30
0.0
 11
2082.947297686705
 21
1577.511697156169
 31
0.0
  0
LINE
  5
1425E
  8
0
 10
2064.9405536867048
 20
1554.8870561561689
 30
0.0
 11
2063.785890686705
 21
1556.8869921561691
 31
0.0
  0
LINE
  5
1425F
  8
0
 10
2060.322164686705
 20
1554.8882691561689
 30
0.0
 11
2061.4768276867048
 21
1556.888204156169
 31
0.0
  0
LINE
  5
14260
  8
CENTER
 10
2059.5511698524092
 20
1580.592806083471
 30
0.0
 11
2065.6284727393631
 21
1574.5155040122629
 31
0.0
  0
LINE
  5
14261
  8
CENTER
 10
2088.3908700685101
 20
1551.7532146885501
 30
0.0
 11
2082.1293634484618
 21
1558.0147204681291
 31
0.0
  0
LINE
  5
14262
  8
0
 10
2087.2576386867049
 20
1553.731742156169
 30
0.0
 11
2087.2576386867049
 21
1556.0410681561691
 31
0.0
  0
LINE
  5
14263
  8
0
 10
2060.6304406867048
 20
1578.668391156169
 30
0.0
 11
2060.6304406867048
 21
1576.358985156169
 31
0.0
  0
LINE
  5
14264
  8
0
 10
2064.6304406867048
 20
1578.668391156169
 30
0.0
 11
2064.6304406867048
 21
1576.358985156169
 31
0.0
  0
LINE
  5
14265
  8
0
 10
2060.6309736867051
 20
1578.66751015617
 30
0.0
 11
2062.6309616867052
 21
1579.8222041561689
 31
0.0
  0
LINE
  5
14266
  8
0
 10
2062.6309736867051
 20
1575.2034091561691
 30
0.0
 11
2064.6309616867052
 21
1576.3581031561689
 31
0.0
  0
LINE
  5
14267
  8
0
 10
2062.6324546867049
 20
1579.8219381561689
 30
0.0
 11
2064.6323896867052
 21
1578.6672751561689
 31
0.0
  0
LINE
  5
14268
  8
0
 10
2060.6324546867049
 20
1576.357836156169
 30
0.0
 11
2062.6323896867052
 21
1575.203173156169
 31
0.0
  0
LINE
  5
14269
  8
CENTER
 10
2059.5753900023151
 20
1551.83096137553
 30
0.0
 11
2065.7632154018952
 21
1558.0187859445291
 31
0.0
  0
LINE
  5
1426A
  8
0
 10
2061.4756556867051
 20
1552.886527156169
 30
0.0
 11
2063.7849816867051
 21
1552.886527156169
 31
0.0
  0
LINE
  5
1426B
  8
0
 10
2060.9536836867051
 20
1582.7000151561681
 30
0.0
 11
2086.934396686705
 21
1582.7000151561681
 31
0.0
  0
LINE
  5
1426C
  8
0
 10
2083.2576386867049
 20
1553.731742156169
 30
0.0
 11
2083.2576386867049
 21
1556.0410681561691
 31
0.0
  0
LINE
  5
1426D
  8
0
 10
2060.9536836867051
 20
1549.700019156169
 30
0.0
 11
2086.934396686705
 21
1549.700019156169
 31
0.0
  0
LINE
  5
1426E
  8
CENTER
 10
2046.5852746867049
 20
1551.200019156169
 30
0.0
 11
2055.3118376867051
 21
1551.200019156169
 31
0.0
  0
LINE
  5
1426F
  8
CENTER
 10
2092.3364956867049
 20
1551.200019156169
 30
0.0
 11
2101.5716036867052
 21
1551.200019156169
 31
0.0
  0
LINE
  5
14270
  8
0
 10
2061.4756556867051
 20
1556.886527156169
 30
0.0
 11
2063.7849816867051
 21
1556.886527156169
 31
0.0
  0
LINE
  5
14271
  8
0
 10
2087.256913686705
 20
1553.7325221561689
 30
0.0
 11
2085.2569786867052
 21
1552.5778591561691
 31
0.0
  0
LINE
  5
14272
  8
0
 10
2085.256913686705
 20
1557.196624156169
 30
0.0
 11
2083.2569786867052
 21
1556.041961156169
 31
0.0
  0
LINE
  5
14273
  8
0
 10
2085.255794686705
 20
1552.578001156169
 30
0.0
 11
2083.2558596867052
 21
1553.732664156169
 31
0.0
  0
LINE
  5
14274
  8
0
 10
2087.255794686705
 20
1556.0421031561691
 30
0.0
 11
2085.2558596867052
 21
1557.1967661561689
 31
0.0
  0
LINE
  5
14275
  8
0
 10
2057.4439176867049
 20
1579.190387156169
 30
0.0
 11
2057.4439176867049
 21
1553.2096321561689
 31
0.0
  0
LINE
  5
14276
  8
0
 10
2090.4439176867049
 20
1579.190387156169
 30
0.0
 11
2090.4439176867049
 21
1553.2096321561689
 31
0.0
  0
ARC
  5
14277
  8
0
 10
2073.9439176867049
 20
1566.200019156169
 30
0.0
 40
10.0
 50
81.869897645832978
 51
98.130102354167036
  0
ARC
  5
14278
  8
0
 10
2073.9439176867049
 20
1566.200019156169
 30
0.0
 40
10.0
 50
171.86989764583291
 51
188.13010235416701
  0
ARC
  5
14279
  8
0
 10
2073.9439176867049
 20
1566.200019156169
 30
0.0
 40
10.0
 50
261.86989764583291
 51
278.13010235416698
  0
ARC
  5
1427A
  8
0
 10
2073.9439176867049
 20
1566.200019156169
 30
0.0
 40
10.0
 50
351.86989764583302
 51
8.1301023541670325
  0
POLYLINE
  5
1427B
  8
0
 66
     1
 10
0.0
 20
0.0
 30
0.0
  0
VERTEX
  5
143E4
  8
0
 10
2083.843412623316
 20
1567.6142327185421
 30
0.0
  0
VERTEX
  5
143E5
  8
0
 10
2075.3581312490778
 20
1576.099514092781
 30
0.0
  0
SEQEND
  5
143E6
  8
0
  0
POLYLINE
  5
1427C
  8
0
 66
     1
 10
0.0
 20
0.0
 30
0.0
  0
VERTEX
  5
143E7
  8
0
 10
2072.5297041243321
 20
1576.0995140927821
 30
0.0
  0
VERTEX
  5
143E8
  8
0
 10
2064.0444227500939
 20
1567.6142327185421
 30
0.0
  0
SEQEND
  5
143E9
  8
0
  0
POLYLINE
  5
1427D
  8
0
 66
     1
 10
0.0
 20
0.0
 30
0.0
  0
VERTEX
  5
143EA
  8
0
 10
2064.0444227500939
 20
1564.7858055937961
 30
0.0
  0
VERTEX
  5
143EB
  8
0
 10
2072.5297041243321
 20
1556.300524219557
 30
0.0
  0
SEQEND
  5
143EC
  8
0
  0
POLYLINE
  5
1427E
  8
0
 66
     1
 10
0.0
 20
0.0
 30
0.0
  0
VERTEX
  5
143ED
  8
0
 10
2075.3581312490778
 20
1556.300524219557
 30
0.0
  0
VERTEX
  5
143EE
  8
0
 10
2083.843412623316
 20
1564.7858055937961
 30
0.0
  0
SEQEND
  5
143EF
  8
0
  0
ARC
  5
1427F
  8
HIDE
 10
2073.9439176867049
 20
1566.200019156169
 30
0.0
 40
5.0
 50
270.0
 51
180.0
  0
CIRCLE
  5
14280
  8
0
 10
2073.9439176867049
 20
1566.200019156169
 30
0.0
 40
4.5
  0
LINE
  5
14281
  8
HIDE
 10
2075.4439176867049
 20
1576.0137276551541
 30
0.0
 11
2075.4439176867049
 21
1570.4426598432881
 31
0.0
  0
LINE
  5
14282
  8
HIDE
 10
2075.1939176867049
 20
1576.121586572662
 30
0.0
 11
2075.1939176867049
 21
1570.5229232726169
 31
0.0
  0
LINE
  5
14283
  8
HIDE
 10
2072.4439176867072
 20
1576.0137276551579
 30
0.0
 11
2072.443917686709
 21
1570.4426598432899
 31
0.0
  0
LINE
  5
14284
  8
HIDE
 10
2072.6939176867049
 20
1576.121586572662
 30
0.0
 11
2072.6939176867031
 21
1570.5229232726169
 31
0.0
  0
LINE
  5
14285
  8
HIDE
 10
2072.443917686709
 20
1572.6730442900059
 30
0.0
 11
2075.443917686709
 21
1572.6730442900059
 31
0.0
  0
LINE
  5
14286
  8
HIDE
 10
2072.443917686709
 20
1575.6730442900059
 30
0.0
 11
2075.443917686709
 21
1575.6730442900059
 31
0.0
  0
LINE
  5
14287
  8
HIDE
 10
2072.443917686709
 20
1572.6730442900041
 30
0.0
 11
2072.6939176867049
 21
1572.5287067227091
 31
0.0
  0
LINE
  5
14288
  8
HIDE
 10
2075.4439176867049
 20
1572.673044290005
 30
0.0
 11
2075.1939176867049
 21
1572.528706722708
 31
0.0
  0
LINE
  5
14289
  8
HIDE
 10
2072.6939176867049
 20
1572.5287067227091
 30
0.0
 11
2075.1939176867049
 21
1572.528706722708
 31
0.0
  0
LINE
  5
1428C
  8
0
 10
2159.4487721013752
 20
1544.200019156169
 30
0.0
 11
2184.4487721013752
 21
1544.200019156169
 31
0.0
  0
LINE
  5
1428D
  8
0
 10
2184.4487721013752
 20
1544.200019156169
 30
0.0
 11
2184.4487721013752
 21
1583.200019156169
 31
0.0
  0
LINE
  5
1428E
  8
0
 10
2184.4487721013752
 20
1583.200019156169
 30
0.0
 11
2159.4487721013752
 21
1583.200019156169
 31
0.0
  0
LINE
  5
1428F
  8
0
 10
2159.4487721013752
 20
1583.200019156169
 30
0.0
 11
2159.4487721013752
 21
1544.200019156169
 31
0.0
  0
LINE
  5
14290
  8
0
 10
2153.4487721013752
 20
1582.700019156169
 30
0.0
 11
2153.4487721013761
 21
1549.700019156169
 31
0.0
  0
LINE
  5
14291
  8
CENTER
 10
2147.3659829016392
 20
1566.200019156169
 30
0.0
 11
2186.2461840746541
 21
1566.200019156169
 31
0.0
  0
LINE
  5
14292
  8
HIDE
 10
2148.4487721013752
 20
1561.2000191561699
 30
0.0
 11
2184.4487721013752
 21
1561.2000191561699
 31
0.0
  0
LINE
  5
14293
  8
HIDE
 10
2148.4487721013752
 20
1571.200019156174
 30
0.0
 11
2184.4487721013752
 21
1571.2000191561681
 31
0.0
  0
LINE
  5
14294
  8
HIDE
 10
2156.4487721013752
 20
1559.2000191561681
 30
0.0
 11
2161.4487721013752
 21
1559.2000191561681
 31
0.0
  0
LINE
  5
14295
  8
HIDE
 10
2177.4487721013752
 20
1559.2000191561681
 30
0.0
 11
2184.4487721013752
 21
1559.200019156169
 31
0.0
  0
LINE
  5
14296
  8
HIDE
 10
2156.4487721013752
 20
1573.2000191561681
 30
0.0
 11
2161.4487721013752
 21
1573.2000191561681
 31
0.0
  0
LINE
  5
14297
  8
HIDE
 10
2177.4487721013752
 20
1573.2000191561681
 30
0.0
 11
2184.4487721013752
 21
1573.200019156169
 31
0.0
  0
LINE
  5
14298
  8
0
 10
2153.4487721013761
 20
1549.700019156169
 30
0.0
 11
2159.4487721013752
 21
1549.7000191561681
 31
0.0
  0
LINE
  5
14299
  8
0
 10
2153.4487721013761
 20
1582.700019156169
 30
0.0
 11
2159.4487721013752
 21
1582.700019156169
 31
0.0
  0
LINE
  5
1429A
  8
0
 10
2159.4487721013752
 20
1581.199802156169
 30
0.0
 11
2184.4487721013752
 21
1581.199802156169
 31
0.0
  0
LINE
  5
1429B
  8
0
 10
2159.4487721013752
 20
1576.700019156169
 30
0.0
 11
2184.4487721013752
 21
1576.700019156169
 31
0.0
  0
LINE
  5
1429C
  8
CENTER
 10
2165.4487721013752
 20
1549.8003851839419
 30
0.0
 11
2165.4487721013752
 21
1537.0280046314199
 31
0.0
  0
LINE
  5
1429D
  8
CENTER
 10
2178.4487721013761
 20
1549.8003851839419
 30
0.0
 11
2178.4487721013761
 21
1537.0280046314199
 31
0.0
  0
CIRCLE
  5
1429E
  8
HIDE
 10
2173.4487721013761
 20
1557.200019156169
 30
0.0
 40
2.399999999999999
  0
CIRCLE
  5
1429F
  8
HIDE
 10
2173.4487721013761
 20
1575.200019156169
 30
0.0
 40
2.399999999999999
  0
CIRCLE
  5
142A0
  8
HIDE
 10
2165.4487721013761
 20
1557.200019156169
 30
0.0
 40
2.399999999999999
  0
CIRCLE
  5
142A1
  8
HIDE
 10
2165.4487721013761
 20
1575.200019156169
 30
0.0
 40
2.399999999999999
  0
ARC
  5
142A2
  8
HIDE
 10
2169.298772101376
 20
1579.0500191561689
 30
0.0
 40
0.1500000000000003
 50
0.0
 51
90.0
  0
ARC
  5
142A3
  8
HIDE
 10
2161.7487721013758
 20
1578.900019156169
 30
0.0
 40
0.3000000000000007
 50
90.0
 51
180.0
  0
ARC
  5
142A4
  8
HIDE
 10
2169.1487721013759
 20
1571.5000191561689
 30
0.0
 40
0.2999999999999998
 50
270.0
 51
0.0
  0
ARC
  5
142A5
  8
HIDE
 10
2169.1487721013759
 20
1560.900019156169
 30
0.0
 40
0.3000000000000007
 50
0.0
 51
90.0
  0
ARC
  5
142A6
  8
HIDE
 10
2161.5987721013762
 20
1571.3500191561691
 30
0.0
 40
0.1500000000000003
 50
180.0
 51
270.0
  0
ARC
  5
142A7
  8
HIDE
 10
2161.5987721013762
 20
1561.0500191561689
 30
0.0
 40
0.1500000000000003
 50
90.0
 51
180.0
  0
ARC
  5
142A8
  8
HIDE
 10
2169.298772101376
 20
1553.3500191561691
 30
0.0
 40
0.1500000000000003
 50
270.0
 51
0.0
  0
ARC
  5
142A9
  8
HIDE
 10
2161.7487721013758
 20
1553.5000191561689
 30
0.0
 40
0.2999999999999989
 50
180.0
 51
270.0
  0
LINE
  5
142AA
  8
HIDE
 10
2161.4487721013761
 20
1576.5000191561689
 30
0.0
 11
2163.4313480011929
 21
1576.5000191561689
 31
0.0
  0
LINE
  5
142AB
  8
HIDE
 10
2161.7487721013758
 20
1579.200019156169
 30
0.0
 11
2169.298772101376
 21
1579.200019156169
 31
0.0
  0
LINE
  5
142AC
  8
HIDE
 10
2169.4487721013761
 20
1573.900019156169
 30
0.0
 11
2167.4661962015589
 21
1573.900019156169
 31
0.0
  0
LINE
  5
142AD
  8
HIDE
 10
2166.3020475914682
 20
1577.4432135164529
 30
0.0
 11
2169.4487721013761
 21
1577.7500191561689
 31
0.0
  0
LINE
  5
142AE
  8
HIDE
 10
2161.4487721013761
 20
1573.900019156169
 30
0.0
 11
2163.4313480011929
 21
1573.900019156169
 31
0.0
  0
LINE
  5
142AF
  8
HIDE
 10
2161.4487721013761
 20
1558.5000191561689
 30
0.0
 11
2163.4313480011929
 21
1558.5000191561689
 31
0.0
  0
LINE
  5
142B0
  8
HIDE
 10
2161.5987721013762
 20
1571.200019156169
 30
0.0
 11
2169.1487721013759
 21
1571.200019156169
 31
0.0
  0
LINE
  5
142B1
  8
HIDE
 10
2161.5987721013762
 20
1561.200019156169
 30
0.0
 11
2169.1487721013759
 21
1561.200019156169
 31
0.0
  0
LINE
  5
142B2
  8
HIDE
 10
2169.4487721013761
 20
1558.5000191561689
 30
0.0
 11
2167.4661962015589
 21
1558.5000191561689
 31
0.0
  0
LINE
  5
142B3
  8
HIDE
 10
2161.4487721013761
 20
1555.900019156169
 30
0.0
 11
2163.4313480011929
 21
1555.900019156169
 31
0.0
  0
LINE
  5
142B4
  8
HIDE
 10
2169.298772101376
 20
1553.200019156169
 30
0.0
 11
2161.7487721013758
 21
1553.200019156169
 31
0.0
  0
LINE
  5
142B5
  8
HIDE
 10
2166.3020475914682
 20
1554.956824795885
 30
0.0
 11
2169.4487721013761
 21
1554.650019156169
 31
0.0
  0
LINE
  5
142B6
  8
HIDE
 10
2161.4487721013761
 20
1553.5000191561689
 30
0.0
 11
2161.4487721013761
 21
1578.900019156169
 31
0.0
  0
LINE
  5
142B7
  8
HIDE
 10
2169.4487721013761
 20
1579.0500191561689
 30
0.0
 11
2169.4487721013761
 21
1553.3500191561691
 31
0.0
  0
ARC
  5
142B8
  8
HIDE
 10
2169.5987721013762
 20
1553.3500191561691
 30
0.0
 40
0.1500000000000003
 50
180.0
 51
270.0
  0
ARC
  5
142B9
  8
HIDE
 10
2177.1487721013759
 20
1553.5000191561689
 30
0.0
 40
0.3000000000000007
 50
270.0
 51
0.0
  0
ARC
  5
142BA
  8
HIDE
 10
2169.7487721013758
 20
1560.900019156169
 30
0.0
 40
0.2999999999999998
 50
90.0
 51
180.0
  0
ARC
  5
142BB
  8
HIDE
 10
2169.7487721013758
 20
1571.5000191561689
 30
0.0
 40
0.2999999999999998
 50
180.0
 51
270.0
  0
ARC
  5
142BC
  8
HIDE
 10
2177.298772101376
 20
1561.0500191561689
 30
0.0
 40
0.15
 50
0.0
 51
90.0
  0
ARC
  5
142BD
  8
HIDE
 10
2177.298772101376
 20
1571.3500191561691
 30
0.0
 40
0.1500000000000003
 50
270.0
 51
0.0
  0
ARC
  5
142BE
  8
HIDE
 10
2169.5987721013762
 20
1579.0500191561689
 30
0.0
 40
0.1500000000000003
 50
90.0
 51
180.0
  0
ARC
  5
142BF
  8
HIDE
 10
2177.1487721013759
 20
1578.900019156169
 30
0.0
 40
0.3
 50
0.0
 51
90.0
  0
LINE
  5
142C0
  8
HIDE
 10
2177.4487721013761
 20
1555.900019156169
 30
0.0
 11
2175.4661962015589
 21
1555.900019156169
 31
0.0
  0
LINE
  5
142C1
  8
HIDE
 10
2177.1487721013759
 20
1553.200019156169
 30
0.0
 11
2169.5987721013762
 21
1553.200019156169
 31
0.0
  0
LINE
  5
142C2
  8
HIDE
 10
2169.4487721013761
 20
1558.5000191561689
 30
0.0
 11
2171.4313480011929
 21
1558.5000191561689
 31
0.0
  0
LINE
  5
142C3
  8
HIDE
 10
2172.595496611284
 20
1554.956824795885
 30
0.0
 11
2169.4487721013761
 21
1554.650019156169
 31
0.0
  0
LINE
  5
142C4
  8
HIDE
 10
2177.4487721013761
 20
1558.5000191561689
 30
0.0
 11
2175.4661962015589
 21
1558.5000191561689
 31
0.0
  0
LINE
  5
142C5
  8
HIDE
 10
2177.4487721013761
 20
1573.900019156169
 30
0.0
 11
2175.4661962015589
 21
1573.900019156169
 31
0.0
  0
LINE
  5
142C6
  8
HIDE
 10
2177.298772101376
 20
1561.200019156169
 30
0.0
 11
2169.7487721013758
 21
1561.200019156169
 31
0.0
  0
LINE
  5
142C7
  8
HIDE
 10
2177.298772101376
 20
1571.200019156169
 30
0.0
 11
2169.7487721013758
 21
1571.200019156169
 31
0.0
  0
LINE
  5
142C8
  8
HIDE
 10
2169.4487721013761
 20
1573.900019156169
 30
0.0
 11
2171.431348001192
 21
1573.900019156169
 31
0.0
  0
LINE
  5
142C9
  8
HIDE
 10
2177.4487721013761
 20
1576.5000191561689
 30
0.0
 11
2175.4661962015589
 21
1576.5000191561689
 31
0.0
  0
LINE
  5
142CA
  8
HIDE
 10
2169.5987721013762
 20
1579.200019156169
 30
0.0
 11
2177.1487721013759
 21
1579.200019156169
 31
0.0
  0
LINE
  5
142CB
  8
HIDE
 10
2172.595496611284
 20
1577.4432135164529
 30
0.0
 11
2169.4487721013761
 21
1577.7500191561689
 31
0.0
  0
LINE
  5
142CC
  8
HIDE
 10
2177.4487721013761
 20
1578.900019156169
 30
0.0
 11
2177.4487721013761
 21
1553.5000191561689
 31
0.0
  0
LINE
  5
142CD
  8
0
 10
2153.4487721013729
 20
1576.2000191561699
 30
0.0
 11
2148.448772101377
 21
1576.200019156169
 31
0.0
  0
LINE
  5
142CE
  8
HIDE
 10
2155.9487721013752
 20
1576.200019156169
 30
0.0
 11
2155.9487721013752
 21
1566.200019156169
 31
0.0
  0
LINE
  5
142CF
  8
HIDE
 10
2156.4487721013752
 20
1573.700019156169
 30
0.0
 11
2156.4487721013752
 21
1566.200019156169
 31
0.0
  0
LINE
  5
142D0
  8
CENTER
 10
2151.9487721013752
 20
1576.7972108332669
 30
0.0
 11
2151.9487721013752
 21
1570.006689450531
 31
0.0
  0
LINE
  5
142D1
  8
0
 10
2148.4487721013752
 20
1576.200019156169
 30
0.0
 11
2148.4487721013752
 21
1566.200019156169
 31
0.0
  0
LINE
  5
142D2
  8
HIDE
 10
2156.4487721013738
 20
1573.7000191561699
 30
0.0
 11
2155.9487721013729
 21
1573.988694290766
 31
0.0
  0
LINE
  5
142D3
  8
0
 10
2153.4487721013752
 20
1567.6142327185451
 30
0.0
 11
2148.4487721013752
 21
1567.6142327185451
 31
0.0
  0
LINE
  5
142D4
  8
HIDE
 10
2156.4487721013752
 20
1570.7000191561699
 30
0.0
 11
2148.4487721013752
 21
1570.700019156169
 31
0.0
  0
LINE
  5
142D5
  8
HIDE
 10
2156.4487721013752
 20
1571.200019156169
 30
0.0
 11
2148.4487721013752
 21
1571.200019156169
 31
0.0
  0
LINE
  5
142D6
  8
HIDE
 10
2150.4487721013752
 20
1576.200019156169
 30
0.0
 11
2150.4487721013729
 21
1570.700019156169
 31
0.0
  0
LINE
  5
142D7
  8
HIDE
 10
2150.6987721013752
 20
1576.200019156169
 30
0.0
 11
2150.6987721013752
 21
1570.700019156169
 31
0.0
  0
LINE
  5
142D8
  8
HIDE
 10
2153.4487721013729
 20
1576.200019156169
 30
0.0
 11
2153.448772101372
 21
1570.700019156169
 31
0.0
  0
LINE
  5
142D9
  8
HIDE
 10
2153.1987721013752
 20
1576.200019156169
 30
0.0
 11
2153.1987721013752
 21
1570.700019156169
 31
0.0
  0
LINE
  5
142DA
  8
HIDE
 10
2153.448772101372
 20
1572.6730442900059
 30
0.0
 11
2150.448772101372
 21
1572.6730442900059
 31
0.0
  0
LINE
  5
142DB
  8
HIDE
 10
2153.448772101372
 20
1575.6730442900059
 30
0.0
 11
2150.448772101372
 21
1575.6730442900059
 31
0.0
  0
LINE
  5
142DC
  8
HIDE
 10
2153.448772101372
 20
1572.6730442900041
 30
0.0
 11
2153.1987721013752
 21
1572.5287067227091
 31
0.0
  0
LINE
  5
142DD
  8
HIDE
 10
2150.4487721013752
 20
1572.673044290005
 30
0.0
 11
2150.6987721013752
 21
1572.528706722708
 31
0.0
  0
LINE
  5
142DE
  8
HIDE
 10
2153.1987721013752
 20
1572.5287067227091
 30
0.0
 11
2150.6987721013752
 21
1572.528706722708
 31
0.0
  0
LINE
  5
142DF
  8
0
 10
2153.4487721013761
 20
1556.200019156169
 30
0.0
 11
2148.448772101377
 21
1556.200019156169
 31
0.0
  0
LINE
  5
142E0
  8
HIDE
 10
2155.9487721013752
 20
1556.200019156169
 30
0.0
 11
2155.9487721013752
 21
1566.200019156169
 31
0.0
  0
LINE
  5
142E1
  8
HIDE
 10
2156.4487721013752
 20
1558.700019156169
 30
0.0
 11
2156.4487721013752
 21
1566.200019156169
 31
0.0
  0
LINE
  5
142E2
  8
0
 10
2148.4487721013752
 20
1556.200019156169
 30
0.0
 11
2148.4487721013752
 21
1566.200019156169
 31
0.0
  0
LINE
  5
142E3
  8
HIDE
 10
2156.4487721013738
 20
1558.7000191561681
 30
0.0
 11
2155.9487721013729
 21
1558.4113440215719
 31
0.0
  0
LINE
  5
142E4
  8
0
 10
2153.4487721013752
 20
1564.785805593792
 30
0.0
 11
2148.4487721013752
 21
1564.7858055937929
 31
0.0
  0
LINE
  5
142E5
  8
HIDE
 10
2156.4487721013752
 20
1561.7000191561681
 30
0.0
 11
2148.4487721013752
 21
1561.700019156169
 31
0.0
  0
LINE
  5
142E6
  8
HIDE
 10
2156.4487721013752
 20
1561.200019156169
 30
0.0
 11
2148.4487721013752
 21
1561.200019156169
 31
0.0
  0
LINE
  5
142E7
  8
HIDE
 10
2153.4487721013752
 20
1576.2000191561699
 30
0.0
 11
2155.9487721013752
 21
1576.200019156169
 31
0.0
  0
LINE
  5
142E8
  8
HIDE
 10
2153.4487721013761
 20
1556.200019156169
 30
0.0
 11
2155.9487721013752
 21
1556.200019156169
 31
0.0
  0
LINE
  5
142E9
  8
HIDE
 10
2153.4487721013752
 20
1567.6142327185451
 30
0.0
 11
2155.9487721013752
 21
1567.614232718546
 31
0.0
  0
LINE
  5
142EA
  8
HIDE
 10
2153.4487721013761
 20
1564.785805593792
 30
0.0
 11
2155.9487721013752
 21
1564.785805593792
 31
0.0
  0
LINE
  5
142EB
  8
HIDE
 10
2068.9439176867049
 20
1610.8924886584639
 30
0.0
 11
2068.9439176867049
 21
1646.892488658463
 31
0.0
  0
LINE
  5
142EC
  8
HIDE
 10
2078.9439176867049
 20
1610.8924886584639
 30
0.0
 11
2078.943917686704
 21
1646.892488658463
 31
0.0
  0
LINE
  5
142ED
  8
0
 10
2090.4439176867049
 20
1615.892492658463
 30
0.0
 11
2090.4439176867049
 21
1621.8924886584639
 31
0.0
  0
LINE
  5
142EE
  8
0
 10
2057.4439176867049
 20
1615.892492658463
 30
0.0
 11
2057.4439176867049
 21
1621.8924886584639
 31
0.0
  0
LINE
  5
142EF
  8
0
 10
2063.9439176867049
 20
1610.8924886584639
 30
0.0
 11
2063.9439176867058
 21
1615.892492658463
 31
0.0
  0
LINE
  5
142F0
  8
0
 10
2083.9439176867049
 20
1610.8924886584639
 30
0.0
 11
2083.9439176867058
 21
1615.892492658463
 31
0.0
  0
CIRCLE
  5
142F1
  8
0
 10
2073.9439176867049
 20
1614.3924886584639
 30
0.0
 40
1.25
  0
CIRCLE
  5
142F2
  8
0
 10
2096.9439176867049
 20
1640.8924886584639
 30
0.0
 40
5.5
  0
CIRCLE
  5
142F3
  8
0
 10
2096.9439176867049
 20
1627.8924886584639
 30
0.0
 40
5.5
  0
CIRCLE
  5
142F4
  8
0
 10
2050.9439176867049
 20
1640.8924886584639
 30
0.0
 40
5.5
  0
CIRCLE
  5
142F5
  8
0
 10
2050.9439176867049
 20
1640.8924886584639
 30
0.0
 40
3.299998999999997
  0
CIRCLE
  5
142F6
  8
0
 10
2050.9439176867049
 20
1627.8924886584639
 30
0.0
 40
5.5
  0
CIRCLE
  5
142F7
  8
0
 10
2096.9439176867049
 20
1640.8924886584639
 30
0.0
 40
3.299998999999997
  0
CIRCLE
  5
142F8
  8
0
 10
2096.9439176867049
 20
1627.8924886584639
 30
0.0
 40
3.299998999999997
  0
CIRCLE
  5
142F9
  8
0
 10
2050.9439176867049
 20
1627.8924886584639
 30
0.0
 40
3.299998999999997
  0
LINE
  5
142FA
  8
0
 10
2074.6939166867051
 20
1613.9594746584639
 30
0.0
 11
2073.9439176867049
 21
1613.526464658464
 31
0.0
  0
LINE
  5
142FB
  8
0
 10
2073.9439166867051
 20
1615.258512658464
 30
0.0
 11
2073.1939176867049
 21
1614.8255026584641
 31
0.0
  0
LINE
  5
142FC
  8
0
 10
2073.9439176867049
 20
1613.526464658464
 30
0.0
 11
2073.1939186867048
 21
1613.9594746584639
 31
0.0
  0
LINE
  5
142FD
  8
0
 10
2074.6939176867049
 20
1614.8255026584641
 30
0.0
 11
2073.9439186867048
 21
1615.258512658464
 31
0.0
  0
LINE
  5
142FE
  8
0
 10
2073.1939176867049
 20
1613.9594746584639
 30
0.0
 11
2073.1939176867049
 21
1614.8255026584641
 31
0.0
  0
LINE
  5
142FF
  8
0
 10
2074.6939176867049
 20
1613.9594746584639
 30
0.0
 11
2074.6939176867049
 21
1614.8255026584641
 31
0.0
  0
LINE
  5
14300
  8
CENTER
 10
2071.4439176867049
 20
1614.3924886584639
 30
0.0
 11
2076.4439176867049
 21
1614.3924886584639
 31
0.0
  0
LINE
  5
14301
  8
0
 10
2075.3582246867049
 20
1615.892492658463
 30
0.0
 11
2075.3582246867049
 21
1610.8924886584639
 31
0.0
  0
LINE
  5
14302
  8
0
 10
2072.5296416867041
 20
1615.892492658463
 30
0.0
 11
2072.5296416867041
 21
1610.8924886584639
 31
0.0
  0
LINE
  5
14303
  8
CENTER
 10
2073.9439176867049
 20
1609.0944105206161
 30
0.0
 11
2073.9439176867049
 21
1649.7445230654509
 31
0.0
  0
LINE
  5
14304
  8
0
 10
2057.4439176867049
 20
1615.892492658463
 30
0.0
 11
2090.4439176867049
 21
1615.892492658463
 31
0.0
  0
LINE
  5
14305
  8
CENTER
 10
2044.7339566867049
 20
1640.8924886584639
 30
0.0
 11
2057.7434786867052
 21
1640.8924886584639
 31
0.0
  0
LINE
  5
14306
  8
CENTER
 10
2044.5171596867051
 20
1627.8924886584639
 30
0.0
 11
2057.6712126867051
 21
1627.8924886584639
 31
0.0
  0
LINE
  5
14307
  8
CENTER
 10
2096.9439176867049
 20
1648.2150446584631
 30
0.0
 11
2096.9439176867049
 21
1620.8953116584639
 31
0.0
  0
LINE
  5
14308
  8
0
 10
2058.9439176867049
 20
1646.892488658463
 30
0.0
 11
2058.9439176867049
 21
1621.8924886584639
 31
0.0
  0
LINE
  5
14309
  8
CENTER
 10
2090.194649686704
 20
1640.8924886584639
 30
0.0
 11
2103.4207246867049
 21
1640.8924886584639
 31
0.0
  0
LINE
  5
1430A
  8
CENTER
 10
2089.7610566867052
 20
1627.8924886584639
 30
0.0
 11
2103.2761926867038
 21
1627.8924886584639
 31
0.0
  0
LINE
  5
1430B
  8
CENTER
 10
2050.9439176867049
 20
1648.2150446584631
 30
0.0
 11
2050.9439176867049
 21
1620.750765658463
 31
0.0
  0
LINE
  5
1430C
  8
0
 10
2103.9439176867049
 20
1646.892488658463
 30
0.0
 11
2103.9439176867049
 21
1621.8924886584639
 31
0.0
  0
LINE
  5
1430D
  8
0
 10
2056.9439176867049
 20
1646.892488658463
 30
0.0
 11
2056.9439176867049
 21
1621.8924886584639
 31
0.0
  0
LINE
  5
1430E
  8
0
 10
2090.9439176867049
 20
1646.892488658463
 30
0.0
 11
2090.9439176867049
 21
1621.8924886584639
 31
0.0
  0
LINE
  5
1430F
  8
0
 10
2088.9439176867049
 20
1646.892488658463
 30
0.0
 11
2088.9439176867049
 21
1621.8924886584639
 31
0.0
  0
LINE
  5
14310
  8
0
 10
2043.9439176867049
 20
1621.8924886584639
 30
0.0
 11
2103.9439176867049
 21
1621.8924886584639
 31
0.0
  0
LINE
  5
14311
  8
0
 10
2043.9439176867049
 20
1646.892488658463
 30
0.0
 11
2103.9439176867049
 21
1646.892488658463
 31
0.0
  0
LINE
  5
14312
  8
0
 10
2043.9439176867049
 20
1646.892488658463
 30
0.0
 11
2043.9439176867049
 21
1621.8924886584639
 31
0.0
  0
LINE
  5
14313
  8
0
 10
2083.9439176867049
 20
1610.8924886584639
 30
0.0
 11
2063.9439176867049
 21
1610.8924886584639
 31
0.0
  0
POINT
  5
14314
  8
0
 10
2073.9439176867049
 20
1614.3924886584639
 30
0.0
  0
LINE
  5
1431B
  8
0
 10
2056.9439176867049
 20
1581.199302144335
 30
0.0
 11
2056.9439176867049
 21
1576.700019156169
 31
0.0
  0
LINE
  5
1431C
  8
0
 10
2090.9439176867049
 20
1581.2000561543921
 30
0.0
 11
2090.9439176867049
 21
1576.700019156169
 31
0.0
  0
ENDSEC
  0
EOF
