  0
SECTION
  2
HEADER
  9
$ACADVER
  1
AC1009
  9
$INSBASE
 10
0.0
 20
0.0
 30
0.0
  9
$EXTMIN
 10
1903.0405749290021
 20
1433.173578249188
 30
0.0
  9
$EXTMAX
 10
2348.540574929003
 20
1748.173578249188
 30
0.0
  9
$LIMMIN
 10
0.0
 20
0.0
  9
$LIMMAX
 10
12.0
 20
9.0
  9
$ORTHOMODE
 70
     0
  9
$REGENMODE
 70
     1
  9
$FILLMODE
 70
     1
  9
$QTEXTMODE
 70
     0
  9
$MIRRTEXT
 70
     0
  9
$DRAGMODE
 70
     2
  9
$LTSCALE
 40
5.0
  9
$OSMODE
 70
  2239
  9
$ATTMODE
 70
     1
  9
$TEXTSIZE
 40
2.5
  9
$TRACEWID
 40
0.05
  9
$TEXTSTYLE
  7
BIG
  9
$CLAYER
  8
0
  9
$CELTYPE
  6
BYLAYER
  9
$CECOLOR
 62
   256
  9
$DIMSCALE
 40
1.0
  9
$DIMASZ
 40
3.0
  9
$DIMEXO
 40
1.0
  9
$DIMDLI
 40
0.0
  9
$DIMRND
 40
0.0
  9
$DIMDLE
 40
0.0
  9
$DIMEXE
 40
1.0
  9
$DIMTP
 40
0.0
  9
$DIMTM
 40
0.0
  9
$DIMTXT
 40
3.0
  9
$DIMCEN
 40
0.0
  9
$DIMTSZ
 40
0.0
  9
$DIMTOL
 70
     0
  9
$DIMLIM
 70
     0
  9
$DIMTIH
 70
     0
  9
$DIMTOH
 70
     0
  9
$DIMSE1
 70
     0
  9
$DIMSE2
 70
     0
  9
$DIMTAD
 70
     1
  9
$DIMZIN
 70
     8
  9
$DIMBLK
  1

  9
$DIMASO
 70
     1
  9
$DIMSHO
 70
     1
  9
$DIMPOST
  1

  9
$DIMAPOST
  1

  9
$DIMALT
 70
     0
  9
$DIMALTD
 70
     2
  9
$DIMALTF
 40
25.399999999999999
  9
$DIMLFAC
 40
1.0
  9
$DIMTOFL
 70
     1
  9
$DIMTVP
 40
0.0
  9
$DIMTIX
 70
     1
  9
$DIMSOXD
 70
     0
  9
$DIMSAH
 70
     0
  9
$DIMBLK1
  1

  9
$DIMBLK2
  1

  9
$DIMSTYLE
  2
DUKITEC
  9
$DIMCLRD
 70
     5
  9
$DIMCLRE
 70
     5
  9
$DIMCLRT
 70
     0
  9
$DIMTFAC
 40
1.0
  9
$DIMGAP
 40
1.0
  9
$LUNITS
 70
     2
  9
$LUPREC
 70
     4
  9
$SKETCHINC
 40
0.1
  9
$FILLETRAD
 40
0.2
  9
$AUNITS
 70
     0
  9
$AUPREC
 70
     0
  9
$MENU
  1
.
  9
$ELEVATION
 40
0.0
  9
$PELEVATION
 40
0.0
  9
$THICKNESS
 40
0.0
  9
$LIMCHECK
 70
     0
  9
$BLIPMODE
 70
     0
  9
$CHAMFERA
 40
0.5
  9
$CHAMFERB
 40
0.5
  9
$SKPOLY
 70
     0
  9
$TDCREATE
 40
2454396.691150174
  9
$TDUPDATE
 40
2456630.4599677669
  9
$TDINDWG
 40
0.0012420949
  9
$TDUSRTIMER
 40
0.0012420949
  9
$USRTIMER
 70
     1
  9
$ANGBASE
 50
0.0
  9
$ANGDIR
 70
     0
  9
$PDMODE
 70
     0
  9
$PDSIZE
 40
0.0
  9
$PLINEWID
 40
0.0
  9
$COORDS
 70
     1
  9
$SPLFRAME
 70
     0
  9
$SPLINETYPE
 70
     6
  9
$SPLINESEGS
 70
     8
  9
$ATTDIA
 70
     0
  9
$ATTREQ
 70
     1
  9
$HANDLING
 70
     1
  9
$HANDSEED
  5
14277
  9
$SURFTAB1
 70
     6
  9
$SURFTAB2
 70
     6
  9
$SURFTYPE
 70
     6
  9
$SURFU
 70
     6
  9
$SURFV
 70
     6
  9
$UCSNAME
  2

  9
$UCSORG
 10
0.0
 20
0.0
 30
0.0
  9
$UCSXDIR
 10
1.0
 20
0.0
 30
0.0
  9
$UCSYDIR
 10
0.0
 20
1.0
 30
0.0
  9
$PUCSNAME
  2

  9
$PUCSORG
 10
0.0
 20
0.0
 30
0.0
  9
$PUCSXDIR
 10
1.0
 20
0.0
 30
0.0
  9
$PUCSYDIR
 10
0.0
 20
1.0
 30
0.0
  9
$USERI1
 70
     0
  9
$USERI2
 70
     0
  9
$USERI3
 70
     0
  9
$USERI4
 70
     0
  9
$USERI5
 70
     0
  9
$USERR1
 40
0.0
  9
$USERR2
 40
0.0
  9
$USERR3
 40
0.0
  9
$USERR4
 40
0.0
  9
$USERR5
 40
0.0
  9
$WORLDVIEW
 70
     1
  9
$SHADEDGE
 70
     3
  9
$SHADEDIF
 70
    70
  9
$TILEMODE
 70
     1
  9
$MAXACTVP
 70
    64
  9
$PLIMCHECK
 70
     0
  9
$PEXTMIN
 10
0.0
 20
0.0
 30
0.0
  9
$PEXTMAX
 10
0.0
 20
0.0
 30
0.0
  9
$PLIMMIN
 10
0.0
 20
0.0
  9
$PLIMMAX
 10
12.0
 20
9.0
  9
$UNITMODE
 70
     0
  9
$VISRETAIN
 70
     1
  9
$PLINEGEN
 70
     0
  9
$PSLTSCALE
 70
     1
  0
ENDSEC
  0
SECTION
  2
TABLES
  0
TABLE
  2
VPORT
 70
     1
  0
VPORT
  2
*ACTIVE
 70
     0
 10
0.0
 20
0.0
 11
1.0
 21
1.0
 12
2156.117347479485
 22
1587.1595090221299
 13
0.0
 23
0.0
 14
0.5
 24
0.5
 15
0.5
 25
0.5
 16
0.0
 26
0.0
 36
1.0
 17
0.0
 27
0.0
 37
0.0
 40
259.31643549474688
 41
2.1408934707903771
 42
50.0
 43
0.0
 44
0.0
 50
0.0
 51
0.0
 71
     0
 72
  2000
 73
     1
 74
     3
 75
     0
 76
     0
 77
     0
 78
     0
  0
ENDTAB
  0
TABLE
  2
LTYPE
 70
     4
  0
LTYPE
  2
CONTINUOUS
 70
     0
  3
Solid line
 72
    65
 73
     0
 40
0.0
  0
LTYPE
  2
PHANTOM2
 70
     0
  3
Phantom (.5x) ___ _ _ ___ _ _ ___ _ _ ___ _ _
 72
    65
 73
     6
 40
1.25
 49
0.625
 49
-0.125
 49
0.125
 49
-0.125
 49
0.125
 49
-0.125
  0
LTYPE
  2
CENTER
 70
     0
  3
___ _ ___ _ ___ _ ___ _ ___ _ ___ _ ___ _ ___ _
 72
    65
 73
     4
 40
0.95
 49
0.625
 49
-0.125
 49
0.075
 49
-0.125
  0
LTYPE
  2
DASHED2
 70
     0
  3
Dashed (.5x) _ _ _ _ _ _ _ _ _ _ _ _ _ _ _ _ _
 72
    65
 73
     2
 40
0.375
 49
0.25
 49
-0.125
  0
ENDTAB
  0
TABLE
  2
LAYER
 70
     4
  0
LAYER
  2
0
 70
     0
 62
     7
  6
CONTINUOUS
  0
LAYER
  2
HIDE
 70
     0
 62
     1
  6
DASHED2
  0
LAYER
  2
CENTER
 70
     0
 62
     3
  6
CENTER
  0
ENDTAB
  0
TABLE
  2
STYLE
 70
     3
  0
STYLE
  2
STANDARD
 70
     0
 40
5.0
 41
1.0
 50
0.0
 71
     0
 42
5.0
  3
txt.shx
  4
whgtxt.shx
  0
STYLE
  2
BIG
 70
     0
 40
20.0
 41
1.0
 50
0.0
 71
     0
 42
2.5
  3
txt
  4

  0
ENDTAB
  0
TABLE
  2
VIEW
 70
     0
  0
ENDTAB
  0
TABLE
  2
UCS
 70
     0
  0
ENDTAB
  0
TABLE
  2
APPID
 70
    10
  0
APPID
  2
ACAD
 70
     0
  0
APPID
  2
ACADANNOTATIVE
 70
     0
  0
APPID
  2
ACAD_EXEMPT_FROM_CAD_STANDARDS
 70
     0
  0
APPID
  2
ACAD_DSTYLE_DIMJOGGED_JOGA
 70
     0
  0
APPID
  2
ACAD_PSEXT
 70
     0
  0
APPID
  2
ACAECLAYERSTANDARD
 70
     0
  0
APPID
  2
DCO15
 70
     0
  0
APPID
  2
CONTENTBLOCKICON
 70
     0
  0
APPID
  2
ACAD_NAV_VCDISPLAY
 70
     0
  0
APPID
  2
ACAD_MLEADERVER
 70
     0
  0
ENDTAB
  0
TABLE
  2
DIMSTYLE
 70
     3
  0
DIMSTYLE
  2
DUKITEC
 70
     0
  3

  4

  5

  6

  7

 40
1.0
 41
3.0
 42
1.0
 43
0.0
 44
1.0
 45
0.0
 46
0.0
 47
0.0
 48
0.0
140
3.0
141
0.0
142
0.0
143
25.399999999999999
144
1.0
145
0.0
146
1.0
147
1.0
 71
     0
 72
     0
 73
     0
 74
     0
 75
     0
 76
     0
 77
     1
 78
     8
170
     0
171
     2
172
     1
173
     0
174
     1
175
     0
176
     5
177
     5
178
     0
  0
ENDTAB
  0
ENDSEC
  0
SECTION
  2
BLOCKS
  0
BLOCK
  8
0
  2
$MODEL_SPACE
 70
     0
 10
0.0
 20
0.0
 30
0.0
  3
$MODEL_SPACE
  1

  0
ENDBLK
  5
140C2
  8
0
  0
BLOCK
 67
     1
  8
0
  2
$PAPER_SPACE
 70
     0
 10
0.0
 20
0.0
 30
0.0
  3
$PAPER_SPACE
  1

  0
ENDBLK
  5
140BE
 67
     1
  8
0
  0
ENDSEC
  0
SECTION
  2
ENTITIES
  0
POLYLINE
  5
13E1C
  8
0
 66
     1
 10
0.0
 20
0.0
 30
0.0
 70
     1
  0
VERTEX
  5
14229
  8
0
 10
1948.707655896842
 20
1468.3244436109219
 30
0.0
  0
VERTEX
  5
1422A
  8
0
 10
1948.707655896842
 20
1720.324443610923
 30
0.0
  0
VERTEX
  5
1422B
  8
0
 10
2305.107655896843
 20
1720.324443610923
 30
0.0
  0
VERTEX
  5
1422C
  8
0
 10
2305.107655896843
 20
1468.3244436109219
 30
0.0
  0
VERTEX
  5
1422D
  8
0
 10
1948.707655896842
 20
1468.3244436109219
 30
0.0
  0
SEQEND
  5
1422E
  8
0
  0
TEXT
  5
14022
  8
0
 10
2084.5992334072562
 20
1503.630246382892
 30
0.0
 40
20.0
  1
BK 12
  7
BIG
  0
LINE
  5
140E0
  8
HIDE
 10
2092.3520482976351
 20
1627.610446881389
 30
0.0
 11
2092.352048297636
 21
1664.110446881388
 31
0.0
  0
LINE
  5
140E1
  8
HIDE
 10
2104.3520482976351
 20
1627.610446881389
 30
0.0
 11
2104.3520482976351
 21
1664.110446881388
 31
0.0
  0
CIRCLE
  5
140E2
  8
0
 10
2075.3522922976349
 20
1658.1104498813891
 30
0.0
 40
5.5
  0
CIRCLE
  5
140E3
  8
0
 10
2075.3522922976349
 20
1645.1104498813891
 30
0.0
 40
5.5
  0
CIRCLE
  5
140E4
  8
0
 10
2121.3522922976349
 20
1658.1104498813891
 30
0.0
 40
5.5
  0
CIRCLE
  5
140E5
  8
0
 10
2121.3522922976349
 20
1645.1104498813891
 30
0.0
 40
5.5
  0
LINE
  5
140E6
  8
0
 10
2081.352048297636
 20
1633.1104498813891
 30
0.0
 11
2081.352048297636
 21
1639.1104498813891
 31
0.0
  0
LINE
  5
140E7
  8
0
 10
2115.352048297636
 20
1633.1104498813891
 30
0.0
 11
2115.352048297636
 21
1639.1104498813891
 31
0.0
  0
LINE
  5
140E8
  8
0
 10
2087.3522922976349
 20
1627.610446881389
 30
0.0
 11
2087.3522922976358
 21
1633.1104498813891
 31
0.0
  0
LINE
  5
140E9
  8
0
 10
2109.3522922976349
 20
1627.610446881389
 30
0.0
 11
2109.3522922976358
 21
1633.1104498813891
 31
0.0
  0
CIRCLE
  5
140EA
  8
0
 10
2098.3522922976349
 20
1631.110446881389
 30
0.0
 40
1.25
  0
CIRCLE
  5
140EB
  8
0
 10
2098.3522922976349
 20
1631.110446881389
 30
0.0
 40
1.5
  0
CIRCLE
  5
140EC
  8
0
 10
2075.3522922976349
 20
1658.1104498813891
 30
0.0
 40
3.299999999999998
  0
CIRCLE
  5
140ED
  8
0
 10
2075.3522922976349
 20
1645.1104498813891
 30
0.0
 40
3.299999999999998
  0
CIRCLE
  5
140EE
  8
0
 10
2121.3522922976349
 20
1645.1104498813891
 30
0.0
 40
3.299999999999998
  0
CIRCLE
  5
140EF
  8
0
 10
2121.3522922976349
 20
1658.1104498813891
 30
0.0
 40
3.299999999999998
  0
LINE
  5
140F0
  8
0
 10
2099.1022922976349
 20
1630.677432881389
 30
0.0
 11
2098.3522932976348
 21
1630.2444188813879
 31
0.0
  0
LINE
  5
140F1
  8
0
 10
2098.3522922976349
 20
1631.9764748813891
 30
0.0
 11
2097.6022932976348
 21
1631.5434608813889
 31
0.0
  0
LINE
  5
140F2
  8
0
 10
2098.3522922976349
 20
1630.2444188813879
 30
0.0
 11
2097.6022932976348
 21
1630.677432881389
 31
0.0
  0
LINE
  5
140F3
  8
0
 10
2099.1022922976349
 20
1631.5434608813889
 30
0.0
 11
2098.3522932976348
 21
1631.9764668813889
 31
0.0
  0
LINE
  5
140F4
  8
0
 10
2097.6022922976349
 20
1630.677432881389
 30
0.0
 11
2097.6022922976349
 21
1631.5434608813889
 31
0.0
  0
LINE
  5
140F5
  8
0
 10
2099.1022922976349
 20
1630.677432881389
 30
0.0
 11
2099.1022922976349
 21
1631.5434608813889
 31
0.0
  0
LINE
  5
140F6
  8
CENTER
 10
2095.8522922976349
 20
1631.110446881389
 30
0.0
 11
2100.8522922976349
 21
1631.110446881389
 31
0.0
  0
LINE
  5
140F7
  8
CENTER
 10
2098.3522922976349
 20
1623.817011531657
 30
0.0
 11
2098.3522922976349
 21
1668.6832403937419
 31
0.0
  0
LINE
  5
140F8
  8
0
 10
2095.555768297636
 20
1627.610446881389
 30
0.0
 11
2095.555768297636
 21
1633.1104498813891
 31
0.0
  0
LINE
  5
140F9
  8
0
 10
2101.1488012976351
 20
1627.610446881389
 30
0.0
 11
2101.1488012976351
 21
1633.1104498813891
 31
0.0
  0
LINE
  5
140FA
  8
0
 10
2087.3522922976349
 20
1627.610446881389
 30
0.0
 11
2109.3522922976349
 21
1627.610446881389
 31
0.0
  0
LINE
  5
140FB
  8
0
 10
2068.3522922976349
 20
1639.1104498813891
 30
0.0
 11
2128.3522922976349
 21
1639.1104498813891
 31
0.0
  0
LINE
  5
140FC
  8
0
 10
2068.3522922976349
 20
1664.110446881389
 30
0.0
 11
2128.3522922976349
 21
1664.110446881389
 31
0.0
  0
LINE
  5
140FD
  8
CENTER
 10
2067.8811012976348
 20
1658.1104498813891
 30
0.0
 11
2082.326413297636
 21
1658.1104498813891
 31
0.0
  0
LINE
  5
140FE
  8
CENTER
 10
2068.3908662976351
 20
1645.1104498813891
 30
0.0
 11
2081.9865692976359
 21
1645.1104498813891
 31
0.0
  0
LINE
  5
140FF
  8
CENTER
 10
2121.3522922976349
 20
1636.9834968813891
 30
0.0
 11
2121.3522922976349
 21
1666.214266881389
 31
0.0
  0
LINE
  5
14100
  8
CENTER
 10
2075.3522922976349
 20
1636.9834968813891
 30
0.0
 11
2075.3522922976349
 21
1666.044316881389
 31
0.0
  0
LINE
  5
14101
  8
0
 10
2115.8522922976349
 20
1639.1104498813891
 30
0.0
 11
2115.8522922976349
 21
1664.110446881389
 31
0.0
  0
LINE
  5
14102
  8
0
 10
2080.8522922976349
 20
1639.1104498813891
 30
0.0
 11
2080.8522922976349
 21
1664.110446881389
 31
0.0
  0
LINE
  5
14103
  8
0
 10
2113.8522922976349
 20
1639.1104498813891
 30
0.0
 11
2113.8522922976349
 21
1664.110446881389
 31
0.0
  0
LINE
  5
14104
  8
0
 10
2082.8522922976349
 20
1639.1104498813891
 30
0.0
 11
2082.8522922976349
 21
1664.110446881389
 31
0.0
  0
LINE
  5
14105
  8
CENTER
 10
2114.616452297636
 20
1658.1104498813891
 30
0.0
 11
2127.5322242976358
 21
1658.1104498813891
 31
0.0
  0
LINE
  5
14106
  8
CENTER
 10
2114.4462862976361
 20
1645.1104498813891
 30
0.0
 11
2128.382077297636
 21
1645.1104498813891
 31
0.0
  0
LINE
  5
14107
  8
0
 10
2128.3522922976349
 20
1639.1104498813891
 30
0.0
 11
2128.3522922976349
 21
1664.110446881389
 31
0.0
  0
LINE
  5
14108
  8
0
 10
2068.3522922976349
 20
1639.1104498813891
 30
0.0
 11
2068.3522922976349
 21
1664.110446881389
 31
0.0
  0
LINE
  5
14109
  8
0
 10
2081.352048297636
 20
1633.1104498813891
 30
0.0
 11
2115.352048297636
 21
1633.1104498813891
 31
0.0
  0
LINE
  5
1410C
  8
HIDE
 10
2164.2369692715952
 20
1573.11044988139
 30
0.0
 11
2169.7369692715952
 21
1573.1104498813891
 31
0.0
  0
LINE
  5
1410D
  8
HIDE
 10
2185.7369692715952
 20
1573.1104498813891
 30
0.0
 11
2192.7369692715938
 21
1573.1104498813891
 31
0.0
  0
LINE
  5
1410E
  8
HIDE
 10
2164.2369692715952
 20
1585.11044988139
 30
0.0
 11
2169.7369692715952
 21
1585.11044988139
 31
0.0
  0
LINE
  5
1410F
  8
HIDE
 10
2185.7369692715952
 20
1585.11044988139
 30
0.0
 11
2192.7369692715938
 21
1585.1104498813891
 31
0.0
  0
LINE
  5
14110
  8
0
 10
2161.7369702715941
 20
1562.110449610655
 30
0.0
 11
2167.7369702715941
 21
1562.110449610655
 31
0.0
  0
LINE
  5
14111
  8
0
 10
2161.7369702715941
 20
1596.110457881389
 30
0.0
 11
2167.7369702715941
 21
1596.110457881389
 31
0.0
  0
LINE
  5
14112
  8
0
 10
2167.7369702715941
 20
1589.1104498813891
 30
0.0
 11
2192.7369692715938
 21
1589.1104498813891
 31
0.0
  0
LINE
  5
14113
  8
CENTER
 10
2154.200911852889
 20
1579.1104498813891
 30
0.0
 11
2194.7116953241471
 21
1579.1104498813891
 31
0.0
  0
LINE
  5
14114
  8
HIDE
 10
2164.2369692715938
 20
1571.460449881389
 30
0.0
 11
2169.7369692715938
 21
1571.4604498813901
 31
0.0
  0
LINE
  5
14115
  8
HIDE
 10
2185.7369692715938
 20
1571.460449881389
 30
0.0
 11
2192.7369692715938
 21
1571.460449881389
 31
0.0
  0
LINE
  5
14116
  8
HIDE
 10
2164.2369692715938
 20
1586.7604498813889
 30
0.0
 11
2169.7369692715938
 21
1586.7604498813889
 31
0.0
  0
LINE
  5
14117
  8
0
 10
2167.7369702715941
 20
1554.1104498813891
 30
0.0
 11
2192.7369692715938
 21
1554.1104498813891
 31
0.0
  0
LINE
  5
14118
  8
0
 10
2167.7369702715941
 20
1597.110457881389
 30
0.0
 11
2192.7369692715938
 21
1597.110457881389
 31
0.0
  0
LINE
  5
14119
  8
0
 10
2161.7369702715941
 20
1596.110457881389
 30
0.0
 11
2161.7369702715941
 21
1562.110449610655
 31
0.0
  0
LINE
  5
1411A
  8
0
 10
2167.7369702715941
 20
1597.110457881389
 30
0.0
 11
2167.7369702715941
 21
1554.1104498813891
 31
0.0
  0
LINE
  5
1411B
  8
0
 10
2192.7369692715938
 20
1597.110457881389
 30
0.0
 11
2192.7369692715938
 21
1554.1104498813891
 31
0.0
  0
LINE
  5
1411C
  8
0
 10
2167.7369702715941
 20
1595.110457881389
 30
0.0
 11
2192.7369692715938
 21
1595.110457881389
 31
0.0
  0
LINE
  5
1411D
  8
HIDE
 10
2185.7369692715938
 20
1586.7604498813889
 30
0.0
 11
2192.7369692715938
 21
1586.7604498813889
 31
0.0
  0
LINE
  5
1411E
  8
CENTER
 10
2173.7369702715941
 20
1558.7078547499541
 30
0.0
 11
2173.7369702715941
 21
1546.223367948639
 31
0.0
  0
LINE
  5
1411F
  8
CENTER
 10
2186.7369702715941
 20
1558.707854749955
 30
0.0
 11
2186.7369702715941
 21
1546.223367948638
 31
0.0
  0
CIRCLE
  5
14120
  8
HIDE
 10
2181.7369692715938
 20
1589.1104498813891
 30
0.0
 40
2.399999999999999
  0
CIRCLE
  5
14121
  8
HIDE
 10
2173.7369692715938
 20
1589.1104498813891
 30
0.0
 40
2.399999999999999
  0
ARC
  5
14122
  8
HIDE
 10
2177.5869692715951
 20
1592.960449881389
 30
0.0
 40
0.1500000000000003
 50
0.0
 51
90.0
  0
ARC
  5
14123
  8
HIDE
 10
2170.0369692715949
 20
1592.8104498813891
 30
0.0
 40
0.3000000000000007
 50
90.0
 51
180.0
  0
ARC
  5
14124
  8
HIDE
 10
2177.436969271595
 20
1585.410449881389
 30
0.0
 40
0.2999999999999998
 50
270.0
 51
0.0
  0
ARC
  5
14125
  8
HIDE
 10
2169.8869692715939
 20
1585.2604498813889
 30
0.0
 40
0.1500000000000003
 50
180.0
 51
270.0
  0
LINE
  5
14126
  8
HIDE
 10
2169.7369692715938
 20
1590.410449881389
 30
0.0
 11
2171.719545171411
 21
1590.410449881389
 31
0.0
  0
LINE
  5
14127
  8
HIDE
 10
2170.0369692715949
 20
1593.1104498813891
 30
0.0
 11
2177.5869692715951
 21
1593.1104498813891
 31
0.0
  0
LINE
  5
14128
  8
HIDE
 10
2177.7369692715938
 20
1587.8104498813891
 30
0.0
 11
2175.754393371778
 21
1587.8104498813891
 31
0.0
  0
LINE
  5
14129
  8
HIDE
 10
2174.5902447616859
 20
1591.353644241673
 30
0.0
 11
2177.7369692715938
 21
1591.660449881389
 31
0.0
  0
LINE
  5
1412A
  8
HIDE
 10
2169.7369692715938
 20
1587.8104498813891
 30
0.0
 11
2171.719545171411
 21
1587.8104498813891
 31
0.0
  0
LINE
  5
1412B
  8
HIDE
 10
2169.8869692715939
 20
1585.1104498813891
 30
0.0
 11
2177.436969271595
 21
1585.1104498813891
 31
0.0
  0
LINE
  5
1412C
  8
HIDE
 10
2169.7369692715938
 20
1565.410449881389
 30
0.0
 11
2169.7369692715938
 21
1592.8104498813891
 31
0.0
  0
ARC
  5
1412D
  8
HIDE
 10
2178.0369692715949
 20
1585.410449881389
 30
0.0
 40
0.2999999999999998
 50
180.0
 51
270.0
  0
ARC
  5
1412E
  8
HIDE
 10
2185.5869692715951
 20
1585.2604498813889
 30
0.0
 40
0.1500000000000003
 50
270.0
 51
0.0
  0
ARC
  5
1412F
  8
HIDE
 10
2177.8869692715939
 20
1592.960449881389
 30
0.0
 40
0.1500000000000003
 50
90.0
 51
180.0
  0
ARC
  5
14130
  8
HIDE
 10
2185.436969271595
 20
1592.8104498813891
 30
0.0
 40
0.3
 50
0.0
 51
90.0
  0
LINE
  5
14131
  8
HIDE
 10
2185.7369692715938
 20
1587.8104498813891
 30
0.0
 11
2183.754393371778
 21
1587.8104498813891
 31
0.0
  0
LINE
  5
14132
  8
HIDE
 10
2185.5869692715951
 20
1585.1104498813891
 30
0.0
 11
2178.0369692715949
 21
1585.1104498813891
 31
0.0
  0
LINE
  5
14133
  8
HIDE
 10
2177.7369692715952
 20
1587.8104498813891
 30
0.0
 11
2179.719545171411
 21
1587.8104498813891
 31
0.0
  0
LINE
  5
14134
  8
HIDE
 10
2185.7369692715938
 20
1590.410449881389
 30
0.0
 11
2183.754393371778
 21
1590.410449881389
 31
0.0
  0
LINE
  5
14135
  8
HIDE
 10
2177.8869692715939
 20
1593.1104498813891
 30
0.0
 11
2185.436969271595
 21
1593.1104498813891
 31
0.0
  0
LINE
  5
14136
  8
HIDE
 10
2180.8836937815031
 20
1591.353644241673
 30
0.0
 11
2177.7369692715952
 21
1591.660449881389
 31
0.0
  0
LINE
  5
14137
  8
HIDE
 10
2185.7369692715938
 20
1592.8104498813891
 30
0.0
 11
2185.7369692715938
 21
1565.410449881389
 31
0.0
  0
CIRCLE
  5
14138
  8
HIDE
 10
2181.7369692715938
 20
1569.1104498813891
 30
0.0
 40
2.399999999999999
  0
CIRCLE
  5
14139
  8
HIDE
 10
2173.7369692715938
 20
1569.1104498813891
 30
0.0
 40
2.399999999999999
  0
ARC
  5
1413A
  8
HIDE
 10
2177.5869692715951
 20
1565.2604498813889
 30
0.0
 40
0.1500000000000003
 50
270.0
 51
0.0
  0
ARC
  5
1413B
  8
HIDE
 10
2170.0369692715949
 20
1565.410449881389
 30
0.0
 40
0.3000000000000007
 50
180.0
 51
270.0
  0
ARC
  5
1413C
  8
HIDE
 10
2177.436969271595
 20
1572.8104498813891
 30
0.0
 40
0.2999999999999998
 50
0.0
 51
90.0
  0
ARC
  5
1413D
  8
HIDE
 10
2169.8869692715939
 20
1572.960449881389
 30
0.0
 40
0.1500000000000003
 50
90.0
 51
180.0
  0
LINE
  5
1413E
  8
HIDE
 10
2169.7369692715938
 20
1567.8104498813891
 30
0.0
 11
2171.719545171411
 21
1567.8104498813891
 31
0.0
  0
LINE
  5
1413F
  8
HIDE
 10
2170.0369692715949
 20
1565.1104498813891
 30
0.0
 11
2177.5869692715951
 21
1565.1104498813891
 31
0.0
  0
LINE
  5
14140
  8
HIDE
 10
2177.7369692715938
 20
1570.410449881389
 30
0.0
 11
2175.754393371778
 21
1570.410449881389
 31
0.0
  0
LINE
  5
14141
  8
HIDE
 10
2174.5902447616859
 20
1566.8672555211051
 30
0.0
 11
2177.7369692715938
 21
1566.5604498813891
 31
0.0
  0
LINE
  5
14142
  8
HIDE
 10
2169.7369692715938
 20
1570.410449881389
 30
0.0
 11
2171.719545171411
 21
1570.410449881389
 31
0.0
  0
LINE
  5
14143
  8
HIDE
 10
2169.8869692715939
 20
1573.1104498813891
 30
0.0
 11
2177.436969271595
 21
1573.1104498813891
 31
0.0
  0
ARC
  5
14144
  8
HIDE
 10
2178.0369692715949
 20
1572.8104498813891
 30
0.0
 40
0.2999999999999998
 50
90.0
 51
180.0
  0
ARC
  5
14145
  8
HIDE
 10
2185.5869692715951
 20
1572.960449881389
 30
0.0
 40
0.1500000000000003
 50
0.0
 51
90.0
  0
ARC
  5
14146
  8
HIDE
 10
2177.8869692715939
 20
1565.2604498813889
 30
0.0
 40
0.1500000000000003
 50
180.0
 51
270.0
  0
ARC
  5
14147
  8
HIDE
 10
2185.436969271595
 20
1565.410449881389
 30
0.0
 40
0.3
 50
270.0
 51
0.0
  0
LINE
  5
14148
  8
HIDE
 10
2185.7369692715938
 20
1570.410449881389
 30
0.0
 11
2183.754393371778
 21
1570.410449881389
 31
0.0
  0
LINE
  5
14149
  8
HIDE
 10
2185.5869692715951
 20
1573.1104498813891
 30
0.0
 11
2178.0369692715949
 21
1573.1104498813891
 31
0.0
  0
LINE
  5
1414A
  8
HIDE
 10
2177.7369692715952
 20
1570.410449881389
 30
0.0
 11
2179.719545171411
 21
1570.410449881389
 31
0.0
  0
LINE
  5
1414B
  8
HIDE
 10
2185.7369692715938
 20
1567.8104498813891
 30
0.0
 11
2183.754393371778
 21
1567.8104498813891
 31
0.0
  0
LINE
  5
1414C
  8
HIDE
 10
2177.8869692715939
 20
1565.1104498813891
 30
0.0
 11
2185.436969271595
 21
1565.1104498813891
 31
0.0
  0
LINE
  5
1414D
  8
HIDE
 10
2180.8836937815031
 20
1566.8672555211051
 30
0.0
 11
2177.7369692715952
 21
1566.5604498813891
 31
0.0
  0
LINE
  5
1414E
  8
HIDE
 10
2177.7369692715952
 20
1592.960449881389
 30
0.0
 11
2177.7369692715952
 21
1565.2604498813889
 31
0.0
  0
LINE
  5
1414F
  8
HIDE
 10
2164.2369692715938
 20
1587.6104498813891
 30
0.0
 11
2164.2369692715938
 21
1579.1104498813891
 31
0.0
  0
LINE
  5
14150
  8
CENTER
 10
2159.7369692715952
 20
1590.843606306936
 30
0.0
 11
2159.7369692715952
 21
1583.9389109154631
 31
0.0
  0
LINE
  5
14151
  8
HIDE
 10
2157.7369692715929
 20
1590.1104498813891
 30
0.0
 11
2157.7369692715938
 21
1584.61044988139
 31
0.0
  0
LINE
  5
14152
  8
HIDE
 10
2158.0869692715951
 20
1590.1104498813891
 30
0.0
 11
2158.0869692715951
 21
1584.61044988139
 31
0.0
  0
LINE
  5
14153
  8
HIDE
 10
2161.7369692715938
 20
1590.1104498813891
 30
0.0
 11
2161.7369692715938
 21
1584.61044988139
 31
0.0
  0
LINE
  5
14154
  8
HIDE
 10
2161.3869692715939
 20
1590.1104498813891
 30
0.0
 11
2161.3869692715939
 21
1584.61044988139
 31
0.0
  0
LINE
  5
14155
  8
HIDE
 10
2163.7369692715938
 20
1590.1104498813891
 30
0.0
 11
2163.7369692715938
 21
1579.1104498813891
 31
0.0
  0
LINE
  5
14156
  8
0
 10
2156.2369692715938
 20
1590.1104498813891
 30
0.0
 11
2156.2369692715938
 21
1579.1104498813891
 31
0.0
  0
LINE
  5
14157
  8
0
 10
2161.7369702715941
 20
1590.1104498813891
 30
0.0
 11
2156.2369692715938
 21
1590.1104498813891
 31
0.0
  0
LINE
  5
14158
  8
HIDE
 10
2164.2369692715938
 20
1584.6104498813891
 30
0.0
 11
2156.2369692715938
 21
1584.6104498813891
 31
0.0
  0
LINE
  5
14159
  8
HIDE
 10
2164.2369692715938
 20
1585.1104498813891
 30
0.0
 11
2156.2369692715938
 21
1585.1104498813891
 31
0.0
  0
LINE
  5
1415A
  8
HIDE
 10
2164.2369692715938
 20
1587.6104498813891
 30
0.0
 11
2163.7369692715938
 21
1587.8991250159841
 31
0.0
  0
LINE
  5
1415B
  8
0
 10
2161.7369702715941
 20
1581.9068675173171
 30
0.0
 11
2156.2369692715938
 21
1581.9068675173171
 31
0.0
  0
LINE
  5
1415C
  8
HIDE
 10
2164.2369692715938
 20
1570.6104498813891
 30
0.0
 11
2164.2369692715938
 21
1579.1104498813891
 31
0.0
  0
LINE
  5
1415D
  8
HIDE
 10
2163.7369692715938
 20
1568.1104498813891
 30
0.0
 11
2163.7369692715938
 21
1579.1104498813891
 31
0.0
  0
LINE
  5
1415E
  8
0
 10
2156.2369692715938
 20
1568.1104498813891
 30
0.0
 11
2156.2369692715938
 21
1579.1104498813891
 31
0.0
  0
LINE
  5
1415F
  8
0
 10
2161.7369702715941
 20
1568.1104498813891
 30
0.0
 11
2156.2369692715938
 21
1568.1104498813891
 31
0.0
  0
LINE
  5
14160
  8
HIDE
 10
2164.2369692715938
 20
1573.6104498813891
 30
0.0
 11
2156.2369692715938
 21
1573.6104498813891
 31
0.0
  0
LINE
  5
14161
  8
HIDE
 10
2164.2369692715938
 20
1573.1104498813891
 30
0.0
 11
2156.2369692715938
 21
1573.1104498813891
 31
0.0
  0
LINE
  5
14162
  8
HIDE
 10
2164.2369692715938
 20
1570.6104498813891
 30
0.0
 11
2163.7369692715938
 21
1570.3217747467941
 31
0.0
  0
LINE
  5
14163
  8
0
 10
2161.7369702715941
 20
1576.314032245461
 30
0.0
 11
2156.2369692715938
 21
1576.314032245461
 31
0.0
  0
LINE
  5
14164
  8
HIDE
 10
2161.7369692715938
 20
1589.57297314374
 30
0.0
 11
2157.7369692715929
 21
1589.5729731437391
 31
0.0
  0
LINE
  5
14165
  8
HIDE
 10
2161.7369692715938
 20
1585.57297314374
 30
0.0
 11
2157.7369692715929
 21
1585.5729731437391
 31
0.0
  0
LINE
  5
14166
  8
HIDE
 10
2158.0869692715951
 20
1585.3709005495241
 30
0.0
 11
2157.7369692715938
 21
1585.5729731437391
 31
0.0
  0
LINE
  5
14167
  8
HIDE
 10
2158.0869692715951
 20
1585.3709005495241
 30
0.0
 11
2161.3869692715939
 21
1585.3709005495241
 31
0.0
  0
LINE
  5
14168
  8
HIDE
 10
2161.3869692715939
 20
1585.3709005495241
 30
0.0
 11
2161.7369692715938
 21
1585.5729731437391
 31
0.0
  0
LINE
  5
14169
  8
HIDE
 10
2161.7369702715941
 20
1568.1104498813891
 30
0.0
 11
2163.7369692715938
 21
1568.11044988139
 31
0.0
  0
LINE
  5
1416A
  8
HIDE
 10
2161.7369702715941
 20
1590.1104498813891
 30
0.0
 11
2163.7369692715938
 21
1590.11044988139
 31
0.0
  0
LINE
  5
1416B
  8
HIDE
 10
2161.7369702715941
 20
1581.9068675173171
 30
0.0
 11
2163.7369692715938
 21
1581.9068675173171
 31
0.0
  0
LINE
  5
1416C
  8
HIDE
 10
2161.7369702715941
 20
1576.314032245461
 30
0.0
 11
2163.7369692715938
 21
1576.314032245461
 31
0.0
  0
LINE
  5
1416D
  8
0
 10
2115.8525362976352
 20
1589.1104498813891
 30
0.0
 11
2115.8525362976352
 21
1595.110216882108
 31
0.0
  0
LINE
  5
1416E
  8
0
 10
2080.8525362976352
 20
1589.1104498813891
 30
0.0
 11
2080.8525362976352
 21
1595.1107468863941
 31
0.0
  0
LINE
  5
1416F
  8
HIDE
 10
2072.052536297635
 20
1582.6104498813891
 30
0.0
 11
2072.052536297635
 21
1554.1104498813891
 31
0.0
  0
LINE
  5
14170
  8
HIDE
 10
2069.8525362976352
 20
1589.1104498813891
 30
0.0
 11
2069.8525362976352
 21
1582.6104498813891
 31
0.0
  0
LINE
  5
14171
  8
HIDE
 10
2078.6525362976349
 20
1582.6104498813891
 30
0.0
 11
2078.6525362976349
 21
1554.1104498813891
 31
0.0
  0
LINE
  5
14172
  8
HIDE
 10
2080.8525362976352
 20
1589.1104498813891
 30
0.0
 11
2080.8525362976352
 21
1582.6104498813891
 31
0.0
  0
LINE
  5
14173
  8
HIDE
 10
2069.8522922976349
 20
1582.6104498813891
 30
0.0
 11
2080.8525362976352
 21
1582.6104498813891
 31
0.0
  0
LINE
  5
14174
  8
HIDE
 10
2115.8525362976352
 20
1589.1104498813891
 30
0.0
 11
2115.8525362976352
 21
1582.6104498813891
 31
0.0
  0
LINE
  5
14175
  8
HIDE
 10
2115.8522922976349
 20
1582.6104498813891
 30
0.0
 11
2126.8525362976352
 21
1582.6104498813891
 31
0.0
  0
LINE
  5
14176
  8
HIDE
 10
2126.8525362976352
 20
1589.1104498813891
 30
0.0
 11
2126.8525362976352
 21
1582.6104498813891
 31
0.0
  0
LINE
  5
14177
  8
HIDE
 10
2124.6525362976349
 20
1582.6104498813891
 30
0.0
 11
2124.6525362976349
 21
1554.1104498813891
 31
0.0
  0
LINE
  5
14178
  8
HIDE
 10
2118.052536297635
 20
1582.6104498813891
 30
0.0
 11
2118.052536297635
 21
1554.1104498813891
 31
0.0
  0
LINE
  5
14179
  8
0
 10
2115.8525362976352
 20
1589.1104498813891
 30
0.0
 11
2128.3522922976349
 21
1589.1104498813891
 31
0.0
  0
LINE
  5
1417A
  8
0
 10
2068.3522922976349
 20
1589.1104498813891
 30
0.0
 11
2080.8525362976352
 21
1589.1104498813891
 31
0.0
  0
ARC
  5
1417B
  8
CENTER
 10
2098.3522922976349
 20
1579.1104498813891
 30
0.0
 40
17.0
 50
119.4810775055947
 51
150.6711079196875
  0
ARC
  5
1417C
  8
CENTER
 10
2098.3522922976349
 20
1579.1104498813891
 30
0.0
 40
17.0
 50
31.12049917541734
 51
60.098043755695933
  0
ARC
  5
1417D
  8
CENTER
 10
2098.3522922976349
 20
1579.1104498813891
 30
0.0
 40
17.0
 50
300.61809696234388
 51
330.15465030819507
  0
CIRCLE
  5
1417E
  8
0
 10
2098.3522922976349
 20
1579.1104498813891
 30
0.0
 40
12.5
  0
CIRCLE
  5
1417F
  8
0
 10
2110.3730442976348
 20
1591.1312098813889
 30
0.0
 40
3.25
  0
CIRCLE
  5
14180
  8
0
 10
2086.331540297635
 20
1567.0896978813889
 30
0.0
 40
3.25
  0
CIRCLE
  5
14181
  8
0
 10
2086.331540297635
 20
1591.1312098813889
 30
0.0
 40
3.25
  0
ARC
  5
14182
  8
0
 10
2098.3522922976349
 20
1579.1104498813891
 30
0.0
 40
21.75
 50
308.59184999998422
 51
321.40816000000387
  0
ARC
  5
14183
  8
0
 10
2098.3522922976349
 20
1579.1104498813891
 30
0.0
 40
21.75
 50
218.5918599999886
 51
231.40819000001321
  0
ARC
  5
14184
  8
0
 10
2098.3522922976349
 20
1579.1104498813891
 30
0.0
 40
21.75
 50
128.5918599999886
 51
141.4081400000114
  0
ARC
  5
14185
  8
0
 10
2098.3522922976349
 20
1579.1104498813891
 30
0.0
 40
21.75
 50
38.591848999986198
 51
51.408150000015787
  0
CIRCLE
  5
14186
  8
0
 10
2121.3522922976349
 20
1579.1104498813891
 30
0.0
 40
2.75
  0
CIRCLE
  5
14187
  8
0
 10
2075.3522922976349
 20
1561.1104498813891
 30
0.0
 40
2.75
  0
CIRCLE
  5
14188
  8
0
 10
2121.3522922976349
 20
1561.1104498813891
 30
0.0
 40
2.75
  0
CIRCLE
  5
14189
  8
0
 10
2075.3522922976349
 20
1579.1104498813891
 30
0.0
 40
2.75
  0
CIRCLE
  5
1418A
  8
0
 10
2110.3730442976348
 20
1567.089636881389
 30
0.0
 40
3.25
  0
ARC
  5
1418B
  8
CENTER
 10
2098.3522922976349
 20
1579.1104498813891
 30
0.0
 40
17.0
 50
211.00408891409199
 51
240.3570038932119
  0
LINE
  5
1418C
  8
0
 10
2128.3522922976349
 20
1554.1104498813891
 30
0.0
 11
2128.3522922976349
 21
1589.1104498813891
 31
0.0
  0
LINE
  5
1418D
  8
0
 10
2082.8522922976349
 20
1597.110457881389
 30
0.0
 11
2113.8522922976349
 21
1597.110457881389
 31
0.0
  0
LINE
  5
1418E
  8
CENTER
 10
2066.1923802976348
 20
1579.1104498813891
 30
0.0
 11
2130.919980297635
 21
1579.1104498813891
 31
0.0
  0
LINE
  5
1418F
  8
CENTER
 10
2083.4558753786182
 20
1564.2141109623719
 30
0.0
 11
2089.2319492976349
 21
1569.990184881389
 31
0.0
  0
LINE
  5
14190
  8
CENTER
 10
2082.9878822976352
 20
1594.474878881389
 30
0.0
 11
2089.377867297635
 21
1588.0848928813889
 31
0.0
  0
LINE
  5
14191
  8
0
 10
2087.5562832976352
 20
1565.864783881389
 30
0.0
 11
2088.0046042976351
 21
1567.5379398813891
 31
0.0
  0
LINE
  5
14192
  8
0
 10
2084.6585052976352
 20
1566.6412418813879
 30
0.0
 11
2085.1068272976349
 21
1568.314396881389
 31
0.0
  0
LINE
  5
14193
  8
0
 10
2088.0047412976351
 20
1567.5379688813889
 30
0.0
 11
2086.7799062976351
 21
1568.7628038813889
 31
0.0
  0
LINE
  5
14194
  8
0
 10
2085.883420297635
 20
1565.416648881388
 30
0.0
 11
2084.658585297635
 21
1566.6414838813889
 31
0.0
  0
LINE
  5
14195
  8
0
 10
2085.8831822976349
 20
1565.4166178813889
 30
0.0
 11
2087.556336297635
 21
1565.8649378813891
 31
0.0
  0
LINE
  5
14196
  8
0
 10
2085.1067242976351
 20
1568.3143958813889
 30
0.0
 11
2086.7798202976351
 21
1568.7626998813889
 31
0.0
  0
LINE
  5
14197
  8
0
 10
2111.597881297635
 20
1568.314453881389
 30
0.0
 11
2109.9247252976352
 21
1568.7627748813891
 31
0.0
  0
LINE
  5
14198
  8
CENTER
 10
2098.3522922976349
 20
1551.6007758813889
 30
0.0
 11
2098.3522922976349
 21
1599.5649248813891
 31
0.0
  0
LINE
  5
14199
  8
0
 10
2110.8214232976352
 20
1565.4166768813891
 30
0.0
 11
2109.1482692976351
 21
1565.8649968813879
 31
0.0
  0
LINE
  5
1419A
  8
0
 10
2109.9248782976342
 20
1568.762802881389
 30
0.0
 11
2108.7000432976351
 21
1567.5379688813889
 31
0.0
  0
LINE
  5
1419B
  8
0
 10
2112.0461982976349
 20
1566.6414838813889
 30
0.0
 11
2110.8213632976349
 21
1565.416648881388
 31
0.0
  0
LINE
  5
1419C
  8
0
 10
2112.046142297635
 20
1566.641318881389
 30
0.0
 11
2111.5978202976348
 21
1568.3144748813891
 31
0.0
  0
LINE
  5
1419D
  8
0
 10
2109.148364297635
 20
1565.8648628813889
 30
0.0
 11
2108.7000532976349
 21
1567.5379808813891
 31
0.0
  0
LINE
  5
1419E
  8
0
 10
2109.1482102976352
 20
1592.356051881389
 30
0.0
 11
2108.6998902976352
 21
1590.6828968813891
 31
0.0
  0
LINE
  5
1419F
  8
0
 10
2112.0459882976352
 20
1591.5795948813891
 30
0.0
 11
2111.5976682976352
 21
1589.906438881389
 31
0.0
  0
LINE
  5
141A0
  8
0
 10
2108.700044297635
 20
1590.6829418813891
 30
0.0
 11
2109.9248782976342
 21
1589.4581068813891
 31
0.0
  0
LINE
  5
141A1
  8
0
 10
2110.8213632976349
 20
1592.8042608813889
 30
0.0
 11
2112.0461992976352
 21
1591.5794268813891
 31
0.0
  0
LINE
  5
141A2
  8
0
 10
2110.8214432976351
 20
1592.8042648813889
 30
0.0
 11
2109.1482882976352
 21
1592.355944881389
 31
0.0
  0
LINE
  5
141A3
  8
0
 10
2111.5979002976351
 20
1589.9064888813889
 30
0.0
 11
2109.9247742976349
 21
1589.458175881389
 31
0.0
  0
LINE
  5
141A4
  8
0
 10
2085.1066132976348
 20
1589.9063818813891
 30
0.0
 11
2086.7797682976352
 21
1589.4580598813891
 31
0.0
  0
LINE
  5
141A5
  8
0
 10
2085.8830702976352
 20
1592.804158881389
 30
0.0
 11
2087.5562252976351
 21
1592.3558378813891
 31
0.0
  0
LINE
  5
141A6
  8
0
 10
2086.7799052976352
 20
1589.458105881389
 30
0.0
 11
2088.0047402976352
 21
1590.6829418813891
 31
0.0
  0
LINE
  5
141A7
  8
0
 10
2084.658585297635
 20
1591.5794268813891
 30
0.0
 11
2085.883420297635
 21
1592.8042608813889
 31
0.0
  0
LINE
  5
141A8
  8
0
 10
2084.6584822976351
 20
1591.5795628813889
 30
0.0
 11
2085.1068042976349
 21
1589.906407881389
 31
0.0
  0
LINE
  5
141A9
  8
0
 10
2087.5562602976352
 20
1592.3560198813891
 30
0.0
 11
2088.0045672976348
 21
1590.682916881389
 31
0.0
  0
LINE
  5
141AA
  8
0
 10
2113.852287297635
 20
1597.1104608813889
 30
0.0
 11
2115.8525362976352
 21
1595.110216882108
 31
0.0
  0
LINE
  5
141AB
  8
0
 10
2082.8522462976348
 20
1597.110491881388
 30
0.0
 11
2080.8525362976352
 21
1595.1107468863941
 31
0.0
  0
LINE
  5
141AC
  8
0
 10
2115.3522922976349
 20
1565.5434788813891
 30
0.0
 11
2115.3522922976349
 21
1592.677420881389
 31
0.0
  0
LINE
  5
141AD
  8
0
 10
2081.3522922976349
 20
1565.5434788813891
 30
0.0
 11
2081.3522922976349
 21
1592.677420881389
 31
0.0
  0
LINE
  5
141AE
  8
0
 10
2084.785397297635
 20
1562.1104498813891
 30
0.0
 11
2111.9191872976348
 21
1562.1104498813891
 31
0.0
  0
LINE
  5
141AF
  8
0
 10
2084.785397297635
 20
1596.110457881389
 30
0.0
 11
2111.9191872976348
 21
1596.110457881389
 31
0.0
  0
LINE
  5
141B0
  8
CENTER
 10
2121.3522922976349
 20
1551.6007758813889
 30
0.0
 11
2121.3522922976349
 21
1591.2173318262189
 31
0.0
  0
LINE
  5
141B1
  8
CENTER
 10
2075.3522922976349
 20
1551.6007758813889
 30
0.0
 11
2075.3522922976349
 21
1591.2173318262189
 31
0.0
  0
LINE
  5
141B2
  8
CENTER
 10
2071.2185032976349
 20
1561.1104498813891
 30
0.0
 11
2080.0588352976351
 21
1561.1104498813891
 31
0.0
  0
LINE
  5
141B3
  8
CENTER
 10
2117.496579297635
 20
1561.1104498813891
 30
0.0
 11
2125.1313452976351
 21
1561.1104498813891
 31
0.0
  0
LINE
  5
141B4
  8
0
 10
2068.3522922976349
 20
1554.1104498813891
 30
0.0
 11
2128.3522922976349
 21
1554.1104498813891
 31
0.0
  0
LINE
  5
141B5
  8
CENTER
 10
2107.424930297635
 20
1588.1831648813891
 30
0.0
 11
2113.6150702976352
 21
1594.3733058813889
 31
0.0
  0
LINE
  5
141B6
  8
CENTER
 10
2107.4198792976349
 20
1570.042880881389
 30
0.0
 11
2113.4024649741268
 21
1564.060296159977
 31
0.0
  0
LINE
  5
141B7
  8
0
 10
2068.3522922976349
 20
1554.1104498813891
 30
0.0
 11
2068.3522922976349
 21
1589.1104498813891
 31
0.0
  0
ARC
  5
141B8
  8
0
 10
2098.3522922976349
 20
1579.1104498813891
 30
0.0
 40
11.0
 50
165.27264131893091
 51
194.72735868106909
  0
ARC
  5
141B9
  8
0
 10
2098.3522922976349
 20
1579.1104498813891
 30
0.0
 40
11.0
 50
255.27264131888049
 51
284.72735868111948
  0
ARC
  5
141BA
  8
0
 10
2098.3522922976349
 20
1579.1104498813891
 30
0.0
 40
11.0
 50
345.27264131893099
 51
14.727358681069081
  0
ARC
  5
141BB
  8
0
 10
2098.3522922976349
 20
1579.1104498813891
 30
0.0
 40
11.0
 50
75.272641318880531
 51
104.7273586811195
  0
POLYLINE
  5
141BC
  8
0
 66
     1
 10
0.0
 20
0.0
 30
0.0
  0
VERTEX
  5
1426B
  8
0
 10
2095.5558746617021
 20
1589.7490610880011
 30
0.0
  0
VERTEX
  5
1426C
  8
0
 10
2087.7136810910229
 20
1581.9068675173201
 30
0.0
  0
SEQEND
  5
1426D
  8
0
  0
POLYLINE
  5
141BD
  8
0
 66
     1
 10
0.0
 20
0.0
 30
0.0
  0
VERTEX
  5
1426E
  8
0
 10
2087.7136810910229
 20
1576.314032245456
 30
0.0
  0
VERTEX
  5
1426F
  8
0
 10
2095.5558746617021
 20
1568.471838674777
 30
0.0
  0
SEQEND
  5
14270
  8
0
  0
POLYLINE
  5
141BE
  8
0
 66
     1
 10
0.0
 20
0.0
 30
0.0
  0
VERTEX
  5
14271
  8
0
 10
2101.1487099335682
 20
1568.471838674775
 30
0.0
  0
VERTEX
  5
14272
  8
0
 10
2108.9909035042469
 20
1576.314032245456
 30
0.0
  0
SEQEND
  5
14273
  8
0
  0
POLYLINE
  5
141BF
  8
0
 66
     1
 10
0.0
 20
0.0
 30
0.0
  0
VERTEX
  5
14274
  8
0
 10
2108.9909035042469
 20
1581.9068675173201
 30
0.0
  0
VERTEX
  5
14275
  8
0
 10
2101.1487099335682
 20
1589.7490610879991
 30
0.0
  0
SEQEND
  5
14276
  8
0
  0
ARC
  5
141C0
  8
HIDE
 10
2098.3522922976349
 20
1579.1104498813891
 30
0.0
 40
6.0
 50
270.0
 51
180.0
  0
CIRCLE
  5
141C1
  8
0
 10
2098.3522922976349
 20
1579.1104498813891
 30
0.0
 40
5.5
  0
LINE
  5
141C2
  8
HIDE
 10
2100.3522922976372
 20
1589.9271037077799
 30
0.0
 11
2100.3522922976349
 21
1584.2339252643681
 31
0.0
  0
LINE
  5
141C3
  8
HIDE
 10
2100.0022922976341
 20
1589.9859958446959
 30
0.0
 11
2100.0022922976341
 21
1584.357115489182
 31
0.0
  0
LINE
  5
141C4
  8
HIDE
 10
2096.3522922976349
 20
1589.927103707781
 30
0.0
 11
2096.3522922976349
 21
1584.233925264369
 31
0.0
  0
LINE
  5
141C5
  8
HIDE
 10
2096.7022922976348
 20
1589.9859958446959
 30
0.0
 11
2096.7022922976348
 21
1584.357115489182
 31
0.0
  0
LINE
  5
141C6
  8
HIDE
 10
2096.3522922976349
 20
1589.57297314374
 30
0.0
 11
2100.3522922976372
 21
1589.5729731437391
 31
0.0
  0
LINE
  5
141C7
  8
HIDE
 10
2096.3522922976349
 20
1585.57297314374
 30
0.0
 11
2100.3522922976372
 21
1585.5729731437391
 31
0.0
  0
LINE
  5
141C8
  8
HIDE
 10
2100.0022922976341
 20
1585.3709005495241
 30
0.0
 11
2100.3522922976349
 21
1585.5729731437391
 31
0.0
  0
LINE
  5
141C9
  8
HIDE
 10
2100.0022922976341
 20
1585.3709005495241
 30
0.0
 11
2096.7022922976348
 21
1585.3709005495241
 31
0.0
  0
LINE
  5
141CA
  8
HIDE
 10
2096.7022922976348
 20
1585.3709005495241
 30
0.0
 11
2096.3522922976349
 21
1585.5729731437391
 31
0.0
  0
ENDSEC
  0
EOF
