  0
SECTION
  2
HEADER
  9
$ACADVER
  1
AC1009
  9
$INSBASE
 10
0.0
 20
0.0
 30
0.0
  9
$EXTMIN
 10
1903.0405749290021
 20
1433.173578249188
 30
0.0
  9
$EXTMAX
 10
2348.540574929003
 20
1748.173578249188
 30
0.0
  9
$LIMMIN
 10
0.0
 20
0.0
  9
$LIMMAX
 10
12.0
 20
9.0
  9
$ORTHOMODE
 70
     0
  9
$REGENMODE
 70
     1
  9
$FILLMODE
 70
     1
  9
$QTEXTMODE
 70
     0
  9
$MIRRTEXT
 70
     0
  9
$DRAGMODE
 70
     2
  9
$LTSCALE
 40
5.0
  9
$OSMODE
 70
  2239
  9
$ATTMODE
 70
     1
  9
$TEXTSIZE
 40
2.5
  9
$TRACEWID
 40
0.05
  9
$TEXTSTYLE
  7
BIG
  9
$CLAYER
  8
0
  9
$CELTYPE
  6
BYLAYER
  9
$CECOLOR
 62
   256
  9
$DIMSCALE
 40
1.0
  9
$DIMASZ
 40
3.0
  9
$DIMEXO
 40
1.0
  9
$DIMDLI
 40
0.0
  9
$DIMRND
 40
0.0
  9
$DIMDLE
 40
0.0
  9
$DIMEXE
 40
1.0
  9
$DIMTP
 40
0.0
  9
$DIMTM
 40
0.0
  9
$DIMTXT
 40
3.0
  9
$DIMCEN
 40
0.0
  9
$DIMTSZ
 40
0.0
  9
$DIMTOL
 70
     0
  9
$DIMLIM
 70
     0
  9
$DIMTIH
 70
     0
  9
$DIMTOH
 70
     0
  9
$DIMSE1
 70
     0
  9
$DIMSE2
 70
     0
  9
$DIMTAD
 70
     1
  9
$DIMZIN
 70
     8
  9
$DIMBLK
  1

  9
$DIMASO
 70
     1
  9
$DIMSHO
 70
     1
  9
$DIMPOST
  1

  9
$DIMAPOST
  1

  9
$DIMALT
 70
     0
  9
$DIMALTD
 70
     2
  9
$DIMALTF
 40
25.399999999999999
  9
$DIMLFAC
 40
1.0
  9
$DIMTOFL
 70
     1
  9
$DIMTVP
 40
0.0
  9
$DIMTIX
 70
     1
  9
$DIMSOXD
 70
     0
  9
$DIMSAH
 70
     0
  9
$DIMBLK1
  1

  9
$DIMBLK2
  1

  9
$DIMSTYLE
  2
DUKITEC
  9
$DIMCLRD
 70
     5
  9
$DIMCLRE
 70
     5
  9
$DIMCLRT
 70
     0
  9
$DIMTFAC
 40
1.0
  9
$DIMGAP
 40
1.0
  9
$LUNITS
 70
     2
  9
$LUPREC
 70
     4
  9
$SKETCHINC
 40
0.1
  9
$FILLETRAD
 40
0.2
  9
$AUNITS
 70
     0
  9
$AUPREC
 70
     0
  9
$MENU
  1
.
  9
$ELEVATION
 40
0.0
  9
$PELEVATION
 40
0.0
  9
$THICKNESS
 40
0.0
  9
$LIMCHECK
 70
     0
  9
$BLIPMODE
 70
     0
  9
$CHAMFERA
 40
2.0
  9
$CHAMFERB
 40
2.0
  9
$SKPOLY
 70
     0
  9
$TDCREATE
 40
2454396.691847512
  9
$TDUPDATE
 40
2456630.4567889702
  9
$TDINDWG
 40
0.0023447338
  9
$TDUSRTIMER
 40
0.0023445486
  9
$USRTIMER
 70
     1
  9
$ANGBASE
 50
0.0
  9
$ANGDIR
 70
     0
  9
$PDMODE
 70
     0
  9
$PDSIZE
 40
0.0
  9
$PLINEWID
 40
0.0
  9
$COORDS
 70
     1
  9
$SPLFRAME
 70
     0
  9
$SPLINETYPE
 70
     6
  9
$SPLINESEGS
 70
     8
  9
$ATTDIA
 70
     0
  9
$ATTREQ
 70
     1
  9
$HANDLING
 70
     1
  9
$HANDSEED
  5
14394
  9
$SURFTAB1
 70
     6
  9
$SURFTAB2
 70
     6
  9
$SURFTYPE
 70
     6
  9
$SURFU
 70
     6
  9
$SURFV
 70
     6
  9
$UCSNAME
  2

  9
$UCSORG
 10
0.0
 20
0.0
 30
0.0
  9
$UCSXDIR
 10
1.0
 20
0.0
 30
0.0
  9
$UCSYDIR
 10
0.0
 20
1.0
 30
0.0
  9
$PUCSNAME
  2

  9
$PUCSORG
 10
0.0
 20
0.0
 30
0.0
  9
$PUCSXDIR
 10
1.0
 20
0.0
 30
0.0
  9
$PUCSYDIR
 10
0.0
 20
1.0
 30
0.0
  9
$USERI1
 70
     0
  9
$USERI2
 70
     0
  9
$USERI3
 70
     0
  9
$USERI4
 70
     0
  9
$USERI5
 70
     0
  9
$USERR1
 40
0.0
  9
$USERR2
 40
0.0
  9
$USERR3
 40
0.0
  9
$USERR4
 40
0.0
  9
$USERR5
 40
0.0
  9
$WORLDVIEW
 70
     1
  9
$SHADEDGE
 70
     3
  9
$SHADEDIF
 70
    70
  9
$TILEMODE
 70
     1
  9
$MAXACTVP
 70
    64
  9
$PLIMCHECK
 70
     0
  9
$PEXTMIN
 10
0.0
 20
0.0
 30
0.0
  9
$PEXTMAX
 10
0.0
 20
0.0
 30
0.0
  9
$PLIMMIN
 10
0.0
 20
0.0
  9
$PLIMMAX
 10
12.0
 20
9.0
  9
$UNITMODE
 70
     0
  9
$VISRETAIN
 70
     1
  9
$PLINEGEN
 70
     0
  9
$PSLTSCALE
 70
     1
  0
ENDSEC
  0
SECTION
  2
TABLES
  0
TABLE
  2
VPORT
 70
     1
  0
VPORT
  2
*ACTIVE
 70
     0
 10
0.0
 20
0.0
 11
1.0
 21
1.0
 12
2121.8818660817569
 22
1585.2928790037849
 13
0.0
 23
0.0
 14
0.5
 24
0.5
 15
0.5
 25
0.5
 16
0.0
 26
0.0
 36
1.0
 17
0.0
 27
0.0
 37
0.0
 40
299.27912856439838
 41
2.1408934707903771
 42
50.0
 43
0.0
 44
0.0
 50
0.0
 51
0.0
 71
     0
 72
  2000
 73
     1
 74
     3
 75
     0
 76
     0
 77
     0
 78
     0
  0
ENDTAB
  0
TABLE
  2
LTYPE
 70
     5
  0
LTYPE
  2
CONTINUOUS
 70
     0
  3
Solid line
 72
    65
 73
     0
 40
0.0
  0
LTYPE
  2
PHANTOM2
 70
     0
  3
Phantom (.5x) ___ _ _ ___ _ _ ___ _ _ ___ _ _
 72
    65
 73
     6
 40
1.25
 49
0.625
 49
-0.125
 49
0.125
 49
-0.125
 49
0.125
 49
-0.125
  0
LTYPE
  2
CENTER
 70
     0
  3
___ _ ___ _ ___ _ ___ _ ___ _ ___ _ ___ _ ___ _
 72
    65
 73
     4
 40
0.95
 49
0.625
 49
-0.125
 49
0.075
 49
-0.125
  0
LTYPE
  2
DASHED2
 70
     0
  3
Dashed (.5x) _ _ _ _ _ _ _ _ _ _ _ _ _ _ _ _ _
 72
    65
 73
     2
 40
0.375
 49
0.25
 49
-0.125
  0
ENDTAB
  0
TABLE
  2
LAYER
 70
     5
  0
LAYER
  2
0
 70
     0
 62
     7
  6
CONTINUOUS
  0
LAYER
  2
HIDE
 70
     0
 62
     1
  6
DASHED2
  0
LAYER
  2
CENTER
 70
     0
 62
     3
  6
CENTER
  0
ENDTAB
  0
TABLE
  2
STYLE
 70
     3
  0
STYLE
  2
STANDARD
 70
     0
 40
5.0
 41
1.0
 50
0.0
 71
     0
 42
5.0
  3
txt.shx
  4
whgtxt.shx
  0
STYLE
  2
BIG
 70
     0
 40
20.0
 41
1.0
 50
0.0
 71
     0
 42
2.5
  3
txt
  4

  0
ENDTAB
  0
TABLE
  2
VIEW
 70
     0
  0
ENDTAB
  0
TABLE
  2
UCS
 70
     0
  0
ENDTAB
  0
TABLE
  2
APPID
 70
    10
  0
APPID
  2
ACAD
 70
     0
  0
APPID
  2
ACADANNOTATIVE
 70
     0
  0
APPID
  2
ACAD_EXEMPT_FROM_CAD_STANDARDS
 70
     0
  0
APPID
  2
ACAD_DSTYLE_DIMJOGGED_JOGA
 70
     0
  0
APPID
  2
ACAD_PSEXT
 70
     0
  0
APPID
  2
ACAECLAYERSTANDARD
 70
     0
  0
APPID
  2
DCO15
 70
     0
  0
APPID
  2
CONTENTBLOCKICON
 70
     0
  0
APPID
  2
ACAD_NAV_VCDISPLAY
 70
     0
  0
APPID
  2
ACAD_MLEADERVER
 70
     0
  0
ENDTAB
  0
TABLE
  2
DIMSTYLE
 70
     4
  0
DIMSTYLE
  2
DUKITEC
 70
     0
  3

  4

  5

  6

  7

 40
1.0
 41
3.0
 42
1.0
 43
0.0
 44
1.0
 45
0.0
 46
0.0
 47
0.0
 48
0.0
140
3.0
141
0.0
142
0.0
143
25.399999999999999
144
1.0
145
0.0
146
1.0
147
1.0
 71
     0
 72
     0
 73
     0
 74
     0
 75
     0
 76
     0
 77
     1
 78
     8
170
     0
171
     2
172
     1
173
     0
174
     1
175
     0
176
     5
177
     5
178
     0
  0
ENDTAB
  0
ENDSEC
  0
SECTION
  2
BLOCKS
  0
BLOCK
  8
0
  2
$MODEL_SPACE
 70
     0
 10
0.0
 20
0.0
 30
0.0
  3
$MODEL_SPACE
  1

  0
ENDBLK
  5
140DD
  8
0
  0
BLOCK
 67
     1
  8
0
  2
$PAPER_SPACE
 70
     0
 10
0.0
 20
0.0
 30
0.0
  3
$PAPER_SPACE
  1

  0
ENDBLK
  5
140D9
 67
     1
  8
0
  0
ENDSEC
  0
SECTION
  2
ENTITIES
  0
POLYLINE
  5
13E1C
  8
0
 66
     1
 10
0.0
 20
0.0
 30
0.0
 70
     1
  0
VERTEX
  5
14343
  8
0
 10
1903.0405749290021
 20
1433.173578249188
 30
0.0
  0
VERTEX
  5
14344
  8
0
 10
1903.0405749290021
 20
1748.173578249188
 30
0.0
  0
VERTEX
  5
14345
  8
0
 10
2348.540574929003
 20
1748.173578249188
 30
0.0
  0
VERTEX
  5
14346
  8
0
 10
2348.540574929003
 20
1433.173578249188
 30
0.0
  0
VERTEX
  5
14347
  8
0
 10
1903.0405749290021
 20
1433.173578249188
 30
0.0
  0
SEQEND
  5
14348
  8
0
  0
TEXT
  5
14035
  8
0
 10
2086.5291864523379
 20
1468.9578685746651
 30
0.0
 40
20.0
  1
BK17
  7
BIG
  0
LINE
  5
140FB
  8
HIDE
 10
2165.162188994876
 20
1562.129689670611
 30
0.0
 11
2174.162188994876
 21
1562.1296896706119
 31
0.0
  0
LINE
  5
140FC
  8
HIDE
 10
2198.162188994876
 20
1562.1296896706101
 30
0.0
 11
2207.162188994876
 21
1562.129689670609
 31
0.0
  0
LINE
  5
140FD
  8
HIDE
 10
2165.162188994876
 20
1579.129689670611
 30
0.0
 11
2174.162188994876
 21
1579.1296896706119
 31
0.0
  0
LINE
  5
140FE
  8
HIDE
 10
2198.162188994876
 20
1579.1296896706101
 30
0.0
 11
2207.162188994876
 21
1579.129689670609
 31
0.0
  0
LINE
  5
140FF
  8
0
 10
2164.162188994876
 20
1546.6296896706101
 30
0.0
 11
2172.162188994876
 21
1546.6296896706101
 31
0.0
  0
LINE
  5
14100
  8
0
 10
2164.162188994876
 20
1594.6296896706101
 30
0.0
 11
2172.162188994876
 21
1594.6296896706101
 31
0.0
  0
LINE
  5
14101
  8
0
 10
2172.162188994876
 20
1586.6296896706101
 30
0.0
 11
2207.162188994876
 21
1586.6296896706101
 31
0.0
  0
LINE
  5
14102
  8
0
 10
2172.162188994876
 20
1592.62921667061
 30
0.0
 11
2207.162188994876
 21
1592.62921667061
 31
0.0
  0
LINE
  5
14103
  8
0
 10
2164.162188994876
 20
1594.6296896706101
 30
0.0
 11
2164.162188994876
 21
1546.6296896706101
 31
0.0
  0
LINE
  5
14104
  8
0
 10
2172.162188994876
 20
1595.6296896706101
 30
0.0
 11
2172.162188994876
 21
1531.629857670609
 31
0.0
  0
LINE
  5
14105
  8
0
 10
2172.162188994876
 20
1595.6296896706101
 30
0.0
 11
2207.162188994876
 21
1595.6296896706101
 31
0.0
  0
LINE
  5
14106
  8
0
 10
2172.162188994876
 20
1531.629857670609
 30
0.0
 11
2207.162188994876
 21
1531.629857670609
 31
0.0
  0
LINE
  5
14107
  8
0
 10
2207.162188994876
 20
1595.6296896706101
 30
0.0
 11
2207.162188994876
 21
1531.629857670609
 31
0.0
  0
LINE
  5
14108
  8
CENTER
 10
2153.3190246809249
 20
1570.6296896706101
 30
0.0
 11
2210.143413019242
 21
1570.6296896706101
 31
0.0
  0
LINE
  5
14109
  8
HIDE
 10
2165.162188994876
 20
1560.1296896706101
 30
0.0
 11
2174.162188994876
 21
1560.1296896706101
 31
0.0
  0
LINE
  5
1410A
  8
HIDE
 10
2198.162188994876
 20
1560.1296896706101
 30
0.0
 11
2207.162188994876
 21
1560.1296896706101
 31
0.0
  0
LINE
  5
1410B
  8
HIDE
 10
2165.162188994876
 20
1581.1296896706101
 30
0.0
 11
2174.162188994876
 21
1581.129689670609
 31
0.0
  0
LINE
  5
1410C
  8
HIDE
 10
2198.162188994876
 20
1581.129689670609
 30
0.0
 11
2207.162188994876
 21
1581.129689670611
 31
0.0
  0
LINE
  5
1410D
  8
HIDE
 10
2165.162188994876
 20
1582.1296896706101
 30
0.0
 11
2165.162188994876
 21
1559.1296896706101
 31
0.0
  0
LINE
  5
1410E
  8
CENTER
 10
2160.162188994876
 20
1585.8709943024901
 30
0.0
 11
2160.162188994876
 21
1577.155063760672
 31
0.0
  0
LINE
  5
1410F
  8
HIDE
 10
2157.6621889948751
 20
1584.6296896706101
 30
0.0
 11
2157.6621889948728
 21
1578.6296896706101
 31
0.0
  0
LINE
  5
14110
  8
HIDE
 10
2158.0621889948738
 20
1584.6296896706101
 30
0.0
 11
2158.0621889948738
 21
1578.6296896706101
 31
0.0
  0
LINE
  5
14111
  8
HIDE
 10
2162.6621889948742
 20
1584.6296896706101
 30
0.0
 11
2162.6621889948719
 21
1578.6296896706101
 31
0.0
  0
LINE
  5
14112
  8
HIDE
 10
2162.2621889948741
 20
1584.6296896706101
 30
0.0
 11
2162.2621889948741
 21
1578.6296896706101
 31
0.0
  0
LINE
  5
14113
  8
HIDE
 10
2164.662188994876
 20
1584.6296896706101
 30
0.0
 11
2164.662188994876
 21
1556.6296896706101
 31
0.0
  0
LINE
  5
14114
  8
0
 10
2155.162188994876
 20
1584.6296896706101
 30
0.0
 11
2155.162188994876
 21
1556.6296896706101
 31
0.0
  0
LINE
  5
14115
  8
0
 10
2164.162188994876
 20
1584.6296896706101
 30
0.0
 11
2155.162188994876
 21
1584.6296896706101
 31
0.0
  0
LINE
  5
14116
  8
HIDE
 10
2165.162188994876
 20
1582.1296896706101
 30
0.0
 11
2164.662188994876
 21
1582.418364805206
 31
0.0
  0
LINE
  5
14117
  8
HIDE
 10
2165.162188994876
 20
1578.6296896706101
 30
0.0
 11
2155.162188994876
 21
1578.6296896706101
 31
0.0
  0
LINE
  5
14118
  8
HIDE
 10
2165.162188994876
 20
1579.1296896706101
 30
0.0
 11
2155.162188994876
 21
1579.1296896706101
 31
0.0
  0
LINE
  5
14119
  8
HIDE
 10
2162.6621889948742
 20
1584.3441806059509
 30
0.0
 11
2157.6621889948751
 21
1584.3441806059529
 31
0.0
  0
LINE
  5
1411A
  8
HIDE
 10
2162.6621889948719
 20
1580.3441806059509
 30
0.0
 11
2157.6621889948728
 21
1580.3441806059529
 31
0.0
  0
LINE
  5
1411B
  8
HIDE
 10
2162.6621889948719
 20
1580.3441806059509
 30
0.0
 11
2162.2621889948741
 21
1580.1132404982759
 31
0.0
  0
LINE
  5
1411C
  8
HIDE
 10
2157.6621889948819
 20
1580.3441806059579
 30
0.0
 11
2158.0621889948779
 21
1580.1132404982829
 31
0.0
  0
LINE
  5
1411D
  8
HIDE
 10
2162.2621889948741
 20
1580.1132404982759
 30
0.0
 11
2158.0621889948738
 21
1580.1132404982759
 31
0.0
  0
LINE
  5
1411E
  8
0
 10
2164.162188994876
 20
1574.015951531255
 30
0.0
 11
2155.162188994876
 21
1574.015951531255
 31
0.0
  0
LINE
  5
1411F
  8
CENTER
 10
2160.162188994876
 20
1555.3883850387299
 30
0.0
 11
2160.162188994876
 21
1564.104315580548
 31
0.0
  0
LINE
  5
14120
  8
HIDE
 10
2157.6621889948751
 20
1556.6296896706101
 30
0.0
 11
2157.6621889948728
 21
1562.6296896706101
 31
0.0
  0
LINE
  5
14121
  8
HIDE
 10
2158.0621889948738
 20
1556.6296896706101
 30
0.0
 11
2158.0621889948738
 21
1562.6296896706101
 31
0.0
  0
LINE
  5
14122
  8
HIDE
 10
2162.6621889948742
 20
1556.6296896706101
 30
0.0
 11
2162.6621889948719
 21
1562.6296896706101
 31
0.0
  0
LINE
  5
14123
  8
HIDE
 10
2162.2621889948741
 20
1556.6296896706101
 30
0.0
 11
2162.2621889948741
 21
1562.6296896706101
 31
0.0
  0
LINE
  5
14124
  8
0
 10
2164.162188994876
 20
1556.6296896706101
 30
0.0
 11
2155.162188994876
 21
1556.6296896706101
 31
0.0
  0
LINE
  5
14125
  8
HIDE
 10
2165.162188994876
 20
1559.1296896706101
 30
0.0
 11
2164.662188994876
 21
1558.841014536014
 31
0.0
  0
LINE
  5
14126
  8
HIDE
 10
2165.162188994876
 20
1562.6296896706101
 30
0.0
 11
2155.162188994876
 21
1562.6296896706101
 31
0.0
  0
LINE
  5
14127
  8
HIDE
 10
2165.162188994876
 20
1562.1296896706101
 30
0.0
 11
2155.162188994876
 21
1562.1296896706101
 31
0.0
  0
LINE
  5
14128
  8
HIDE
 10
2162.6621889948742
 20
1556.9151987352691
 30
0.0
 11
2157.6621889948751
 21
1556.915198735267
 31
0.0
  0
LINE
  5
14129
  8
HIDE
 10
2162.6621889948719
 20
1560.9151987352691
 30
0.0
 11
2157.6621889948728
 21
1560.915198735267
 31
0.0
  0
LINE
  5
1412A
  8
HIDE
 10
2162.6621889948719
 20
1560.9151987352691
 30
0.0
 11
2162.2621889948741
 21
1561.1461388429429
 31
0.0
  0
LINE
  5
1412B
  8
HIDE
 10
2157.6621889948819
 20
1560.915198735262
 30
0.0
 11
2158.0621889948779
 21
1561.146138842937
 31
0.0
  0
LINE
  5
1412C
  8
HIDE
 10
2162.2621889948741
 20
1561.1461388429429
 30
0.0
 11
2158.0621889948738
 21
1561.1461388429429
 31
0.0
  0
LINE
  5
1412D
  8
0
 10
2164.162188994876
 20
1567.2434278099649
 30
0.0
 11
2155.162188994876
 21
1567.243427809964
 31
0.0
  0
LINE
  5
1412E
  8
HIDE
 10
2164.162188994876
 20
1556.6296896706101
 30
0.0
 11
2164.662188994876
 21
1556.6296896706101
 31
0.0
  0
LINE
  5
1412F
  8
HIDE
 10
2164.162188994876
 20
1584.6296896706101
 30
0.0
 11
2164.662188994876
 21
1584.6296896706101
 31
0.0
  0
LINE
  5
14130
  8
HIDE
 10
2164.162188994876
 20
1574.015951531255
 30
0.0
 11
2164.662188994876
 21
1574.015951531255
 31
0.0
  0
LINE
  5
14131
  8
HIDE
 10
2164.162188994876
 20
1567.2434278099649
 30
0.0
 11
2164.662188994876
 21
1567.2434278099661
 31
0.0
  0
CIRCLE
  5
14132
  8
HIDE
 10
2192.162188994876
 20
1556.3796896706101
 30
0.0
 40
3.4500000000000002
  0
CIRCLE
  5
14133
  8
HIDE
 10
2192.162188994876
 20
1584.8796896706101
 30
0.0
 40
3.4500000000000002
  0
CIRCLE
  5
14134
  8
HIDE
 10
2180.162188994876
 20
1556.3796896706101
 30
0.0
 40
3.449999999999998
  0
CIRCLE
  5
14135
  8
HIDE
 10
2180.162188994876
 20
1584.8796896706101
 30
0.0
 40
3.449999999999998
  0
ARC
  5
14136
  8
HIDE
 10
2185.8621889948759
 20
1590.3296896706099
 30
0.0
 40
0.3000000000000007
 50
0.0
 51
90.0
  0
ARC
  5
14137
  8
HIDE
 10
2174.7621889948759
 20
1590.02968967061
 30
0.0
 40
0.6000000000000015
 50
90.0
 51
180.0
  0
ARC
  5
14138
  8
HIDE
 10
2185.562188994877
 20
1579.72968967061
 30
0.0
 40
0.5999999999999996
 50
270.0
 51
0.0
  0
ARC
  5
14139
  8
HIDE
 10
2185.562188994877
 20
1561.52968967061
 30
0.0
 40
0.5999999999999996
 50
0.0
 51
90.0
  0
ARC
  5
1413A
  8
HIDE
 10
2174.4621889948762
 20
1579.4296896706101
 30
0.0
 40
0.3000000000000007
 50
180.0
 51
270.0
  0
ARC
  5
1413B
  8
HIDE
 10
2174.4621889948762
 20
1561.8296896706099
 30
0.0
 40
0.3000000000000007
 50
90.0
 51
180.0
  0
ARC
  5
1413C
  8
HIDE
 10
2185.8621889948759
 20
1550.9296896706101
 30
0.0
 40
0.3000000000000007
 50
270.0
 51
0.0
  0
ARC
  5
1413D
  8
HIDE
 10
2174.7621889948759
 20
1551.22968967061
 30
0.0
 40
0.6000000000000015
 50
180.0
 51
270.0
  0
LINE
  5
1413E
  8
HIDE
 10
2174.162188994876
 20
1586.52968967061
 30
0.0
 11
2177.1323375133679
 21
1586.52968967061
 31
0.0
  0
LINE
  5
1413F
  8
HIDE
 10
2174.7621889948759
 20
1590.6296896706101
 30
0.0
 11
2185.8621889948759
 21
1590.6296896706101
 31
0.0
  0
LINE
  5
14140
  8
HIDE
 10
2186.162188994876
 20
1583.22968967061
 30
0.0
 11
2183.1920404763841
 21
1583.22968967061
 31
0.0
  0
LINE
  5
14141
  8
HIDE
 10
2181.427929886439
 20
1588.089113294164
 30
0.0
 11
2186.162188994876
 21
1588.47968967061
 31
0.0
  0
LINE
  5
14142
  8
HIDE
 10
2174.162188994876
 20
1583.22968967061
 30
0.0
 11
2177.1323375133679
 21
1583.22968967061
 31
0.0
  0
LINE
  5
14143
  8
HIDE
 10
2174.162188994876
 20
1558.02968967061
 30
0.0
 11
2177.1323375133679
 21
1558.02968967061
 31
0.0
  0
LINE
  5
14144
  8
HIDE
 10
2174.4621889948762
 20
1579.1296896706101
 30
0.0
 11
2185.562188994877
 21
1579.1296896706101
 31
0.0
  0
LINE
  5
14145
  8
HIDE
 10
2174.4621889948762
 20
1562.1296896706101
 30
0.0
 11
2185.562188994877
 21
1562.1296896706101
 31
0.0
  0
LINE
  5
14146
  8
HIDE
 10
2186.162188994876
 20
1558.02968967061
 30
0.0
 11
2183.1920404763841
 21
1558.02968967061
 31
0.0
  0
LINE
  5
14147
  8
HIDE
 10
2174.162188994876
 20
1554.72968967061
 30
0.0
 11
2177.1323375133679
 21
1554.72968967061
 31
0.0
  0
LINE
  5
14148
  8
HIDE
 10
2185.8621889948759
 20
1550.6296896706101
 30
0.0
 11
2174.7621889948759
 21
1550.6296896706101
 31
0.0
  0
LINE
  5
14149
  8
HIDE
 10
2181.427929886439
 20
1553.170266047056
 30
0.0
 11
2186.162188994876
 21
1552.77968967061
 31
0.0
  0
LINE
  5
1414A
  8
HIDE
 10
2174.162188994876
 20
1551.22968967061
 30
0.0
 11
2174.162188994876
 21
1590.02968967061
 31
0.0
  0
LINE
  5
1414B
  8
HIDE
 10
2186.162188994876
 20
1590.3296896706099
 30
0.0
 11
2186.162188994876
 21
1550.9296896706101
 31
0.0
  0
ARC
  5
1414C
  8
HIDE
 10
2186.4621889948762
 20
1550.9296896706101
 30
0.0
 40
0.3000000000000007
 50
180.0
 51
270.0
  0
ARC
  5
1414D
  8
HIDE
 10
2197.5621889948761
 20
1551.22968967061
 30
0.0
 40
0.6000000000000015
 50
270.0
 51
0.0
  0
ARC
  5
1414E
  8
HIDE
 10
2186.7621889948759
 20
1561.5296896706111
 30
0.0
 40
0.5999999999999996
 50
90.0
 51
180.0
  0
ARC
  5
1414F
  8
HIDE
 10
2186.7621889948759
 20
1579.72968967061
 30
0.0
 40
0.5999999999999996
 50
180.0
 51
270.0
  0
ARC
  5
14150
  8
HIDE
 10
2197.8621889948759
 20
1561.8296896706099
 30
0.0
 40
0.3
 50
0.0
 51
90.0
  0
ARC
  5
14151
  8
HIDE
 10
2197.8621889948772
 20
1579.4296896706101
 30
0.0
 40
0.3000000000000007
 50
270.0
 51
0.0
  0
ARC
  5
14152
  8
HIDE
 10
2186.4621889948762
 20
1590.3296896706099
 30
0.0
 40
0.3000000000000007
 50
90.0
 51
180.0
  0
ARC
  5
14153
  8
HIDE
 10
2197.562188994877
 20
1590.02968967061
 30
0.0
 40
0.6
 50
0.0
 51
90.0
  0
LINE
  5
14154
  8
HIDE
 10
2198.162188994876
 20
1554.72968967061
 30
0.0
 11
2195.192040476385
 21
1554.72968967061
 31
0.0
  0
LINE
  5
14155
  8
HIDE
 10
2197.5621889948761
 20
1550.6296896706101
 30
0.0
 11
2186.4621889948762
 21
1550.6296896706101
 31
0.0
  0
LINE
  5
14156
  8
HIDE
 10
2186.162188994876
 20
1558.02968967061
 30
0.0
 11
2189.1323375133679
 21
1558.02968967061
 31
0.0
  0
LINE
  5
14157
  8
HIDE
 10
2190.8964481033131
 20
1553.170266047056
 30
0.0
 11
2186.162188994876
 21
1552.77968967061
 31
0.0
  0
LINE
  5
14158
  8
HIDE
 10
2198.162188994876
 20
1558.02968967061
 30
0.0
 11
2195.192040476385
 21
1558.02968967061
 31
0.0
  0
LINE
  5
14159
  8
HIDE
 10
2198.162188994876
 20
1583.22968967061
 30
0.0
 11
2195.192040476385
 21
1583.22968967061
 31
0.0
  0
LINE
  5
1415A
  8
HIDE
 10
2197.8621889948759
 20
1562.1296896706101
 30
0.0
 11
2186.7621889948759
 21
1562.1296896706101
 31
0.0
  0
LINE
  5
1415B
  8
HIDE
 10
2197.8621889948772
 20
1579.1296896706101
 30
0.0
 11
2186.7621889948759
 21
1579.1296896706101
 31
0.0
  0
LINE
  5
1415C
  8
HIDE
 10
2186.162188994876
 20
1583.22968967061
 30
0.0
 11
2189.1323375133679
 21
1583.22968967061
 31
0.0
  0
LINE
  5
1415D
  8
HIDE
 10
2198.162188994876
 20
1586.52968967061
 30
0.0
 11
2195.192040476385
 21
1586.52968967061
 31
0.0
  0
LINE
  5
1415E
  8
HIDE
 10
2186.4621889948762
 20
1590.6296896706101
 30
0.0
 11
2197.562188994877
 21
1590.6296896706101
 31
0.0
  0
LINE
  5
1415F
  8
HIDE
 10
2190.896448103314
 20
1588.089113294164
 30
0.0
 11
2186.162188994876
 21
1588.47968967061
 31
0.0
  0
LINE
  5
14160
  8
HIDE
 10
2198.162188994876
 20
1590.02968967061
 30
0.0
 11
2198.162188994876
 21
1551.22968967061
 31
0.0
  0
LINE
  5
14161
  8
CENTER
 10
2180.162188994876
 20
1540.438287709849
 30
0.0
 11
2180.1621889948769
 21
1519.292537608306
 31
0.0
  0
LINE
  5
14162
  8
CENTER
 10
2199.1621889948769
 20
1540.438287709849
 30
0.0
 11
2199.162188994876
 21
1519.292537608306
 31
0.0
  0
LINE
  5
14165
  8
HIDE
 10
2059.8385086958051
 20
1633.1047839716509
 30
0.0
 11
2059.8385086958051
 21
1685.10478397165
 31
0.0
  0
LINE
  5
14166
  8
HIDE
 10
2076.8385086958051
 20
1633.1047839716509
 30
0.0
 11
2076.8385086958051
 21
1685.10478397165
 31
0.0
  0
LINE
  5
14167
  8
0
 10
2044.3385086958051
 20
1642.1047839716509
 30
0.0
 11
2044.3385086958051
 21
1650.10478397165
 31
0.0
  0
LINE
  5
14168
  8
0
 10
2092.3382656813701
 20
1642.1047839716509
 30
0.0
 11
2092.3382656813701
 21
1650.10478397165
 31
0.0
  0
LINE
  5
14169
  8
0
 10
2054.3385086958051
 20
1633.1047839716509
 30
0.0
 11
2054.338508695806
 21
1642.1047839716509
 31
0.0
  0
LINE
  5
1416A
  8
0
 10
2082.3385086958051
 20
1633.1047839716509
 30
0.0
 11
2082.3385086958051
 21
1642.1047839716509
 31
0.0
  0
LINE
  5
1416B
  8
0
 10
2082.3385086958051
 20
1633.1047839716509
 30
0.0
 11
2054.3385086958051
 21
1633.1047839716509
 31
0.0
  0
LINE
  5
1416C
  8
0
 10
2111.3387526958049
 20
1650.10478397165
 30
0.0
 11
2025.3387526958049
 21
1650.10478397165
 31
0.0
  0
LINE
  5
1416D
  8
0
 10
2111.3387526958049
 20
1685.10478397165
 30
0.0
 11
2025.3387526958049
 21
1685.10478397165
 31
0.0
  0
CIRCLE
  5
1416E
  8
0
 10
2102.3385086958051
 20
1658.10478397165
 30
0.0
 40
7.0
  0
CIRCLE
  5
1416F
  8
0
 10
2102.3385086958051
 20
1677.10478397165
 30
0.0
 40
7.0
  0
CIRCLE
  5
14170
  8
0
 10
2102.3385086958051
 20
1677.10478397165
 30
0.0
 40
4.5
  0
CIRCLE
  5
14171
  8
0
 10
2102.3385086958051
 20
1658.10478397165
 30
0.0
 40
4.5
  0
CIRCLE
  5
14172
  8
0
 10
2034.3385086958051
 20
1658.10478397165
 30
0.0
 40
4.5
  0
CIRCLE
  5
14173
  8
0
 10
2034.3385086958051
 20
1677.10478397165
 30
0.0
 40
7.0
  0
CIRCLE
  5
14174
  8
0
 10
2034.3385086958051
 20
1658.10478397165
 30
0.0
 40
7.0
  0
CIRCLE
  5
14175
  8
0
 10
2034.3385086958051
 20
1677.10478397165
 30
0.0
 40
4.5
  0
LINE
  5
14176
  8
0
 10
2068.3386766958042
 20
1639.259491971651
 30
0.0
 11
2067.3385076958052
 21
1638.682037971651
 31
0.0
  0
LINE
  5
14177
  8
0
 10
2069.3385076958052
 20
1637.5273449716501
 30
0.0
 11
2068.3386756958048
 21
1636.9500889716501
 31
0.0
  0
LINE
  5
14178
  8
0
 10
2069.3385116958052
 20
1638.682236971651
 30
0.0
 11
2068.3386786958049
 21
1639.259491971651
 31
0.0
  0
LINE
  5
14179
  8
0
 10
2068.3386766958042
 20
1636.9500889716501
 30
0.0
 11
2067.3385106958049
 21
1637.527534971651
 31
0.0
  0
LINE
  5
1417A
  8
0
 10
2069.3385086958051
 20
1637.527336971651
 30
0.0
 11
2069.3385086958051
 21
1638.682236971651
 31
0.0
  0
LINE
  5
1417B
  8
0
 10
2067.3385086958042
 20
1637.527534971651
 30
0.0
 11
2067.3385086958042
 21
1638.682037971651
 31
0.0
  0
LINE
  5
1417C
  8
CENTER
 10
2065.3386766958042
 20
1638.1049809716501
 30
0.0
 11
2071.3386766958042
 21
1638.1049809716501
 31
0.0
  0
LINE
  5
1417D
  8
CENTER
 10
2068.3385086958051
 20
1627.7135161707561
 30
0.0
 11
2068.3385086958051
 21
1691.6704424175391
 31
0.0
  0
LINE
  5
1417E
  8
CENTER
 10
2025.3385086958051
 20
1658.10478397165
 30
0.0
 11
2043.3385086958051
 21
1658.10478397165
 31
0.0
  0
LINE
  5
1417F
  8
CENTER
 10
2093.3385086958051
 20
1677.10478397165
 30
0.0
 11
2111.3385086958051
 21
1677.10478397165
 31
0.0
  0
LINE
  5
14180
  8
CENTER
 10
2093.3385086958051
 20
1658.10478397165
 30
0.0
 11
2111.3385086958051
 21
1658.10478397165
 31
0.0
  0
LINE
  5
14181
  8
CENTER
 10
2102.3385086958051
 20
1649.1047639716489
 30
0.0
 11
2102.3385086958051
 21
1667.1047439716499
 31
0.0
  0
LINE
  5
14182
  8
CENTER
 10
2102.3385086958051
 20
1668.1047539716501
 30
0.0
 11
2102.3385086958051
 21
1686.1045439716499
 31
0.0
  0
LINE
  5
14183
  8
CENTER
 10
2034.3385086958051
 20
1649.1047639716489
 30
0.0
 11
2034.3385086958051
 21
1667.1047439716499
 31
0.0
  0
LINE
  5
14184
  8
CENTER
 10
2034.3385086958051
 20
1668.1047539716501
 30
0.0
 11
2034.3385086958051
 21
1686.1045439716499
 31
0.0
  0
LINE
  5
14185
  8
CENTER
 10
2025.3385086958051
 20
1677.10478397165
 30
0.0
 11
2043.3385086958051
 21
1677.10478397165
 31
0.0
  0
LINE
  5
14186
  8
0
 10
2044.3385086958051
 20
1642.1047839716509
 30
0.0
 11
2092.3382656813701
 21
1642.1047839716509
 31
0.0
  0
LINE
  5
14187
  8
0
 10
2090.3387526958049
 20
1650.10478397165
 30
0.0
 11
2090.3387526958049
 21
1685.10478397165
 31
0.0
  0
LINE
  5
14188
  8
0
 10
2046.338752695804
 20
1650.10478397165
 30
0.0
 11
2046.338752695804
 21
1685.10478397165
 31
0.0
  0
LINE
  5
14189
  8
0
 10
2093.3387526958049
 20
1650.10478397165
 30
0.0
 11
2093.3387526958049
 21
1685.10478397165
 31
0.0
  0
LINE
  5
1418A
  8
0
 10
2043.3387526958049
 20
1650.10478397165
 30
0.0
 11
2043.3387526958049
 21
1685.10478397165
 31
0.0
  0
LINE
  5
1418B
  8
0
 10
2111.3387526958049
 20
1650.10478397165
 30
0.0
 11
2111.3387526958049
 21
1685.10478397165
 31
0.0
  0
LINE
  5
1418C
  8
0
 10
2025.3387526958049
 20
1650.10478397165
 30
0.0
 11
2025.3387526958049
 21
1685.10478397165
 31
0.0
  0
POINT
  5
1418D
  8
0
 10
2068.3386766958042
 20
1638.1049809716501
 30
0.0
  0
CIRCLE
  5
1418E
  8
0
 10
2068.3386766958042
 20
1638.1049809716501
 30
0.0
 40
2.5000000000036362
  0
CIRCLE
  5
1418F
  8
0
 10
2068.3386766958042
 20
1638.1049809716501
 30
0.0
 40
2.1000000000036381
  0
LINE
  5
14190
  8
0
 10
2064.9524908351568
 20
1633.1047839716509
 30
0.0
 11
2064.9524908351568
 21
1642.10478397165
 31
0.0
  0
LINE
  5
14191
  8
0
 10
2071.725014556449
 20
1633.1047839716521
 30
0.0
 11
2071.725014556449
 21
1642.10478397165
 31
0.0
  0
LINE
  5
14192
  8
HIDE
 10
2041.3387526958049
 20
1586.6296896706101
 30
0.0
 11
2041.3387526958049
 21
1578.1296896706101
 31
0.0
  0
LINE
  5
14193
  8
HIDE
 10
2038.8387526958049
 20
1578.1296896706101
 30
0.0
 11
2038.8387526958049
 21
1531.6296896706101
 31
0.0
  0
LINE
  5
14194
  8
HIDE
 10
2027.3387526958049
 20
1586.6296896706101
 30
0.0
 11
2027.3387526958049
 21
1578.1296896706101
 31
0.0
  0
LINE
  5
14195
  8
HIDE
 10
2029.8387526958049
 20
1578.1296896706101
 30
0.0
 11
2029.8387526958049
 21
1531.6296896706101
 31
0.0
  0
LINE
  5
14196
  8
HIDE
 10
2027.3387526958049
 20
1578.1296896706101
 30
0.0
 11
2041.3387526958049
 21
1578.1296896706101
 31
0.0
  0
LINE
  5
14197
  8
HIDE
 10
2095.3387526958049
 20
1578.1296896706101
 30
0.0
 11
2109.3387526958049
 21
1578.1296896706101
 31
0.0
  0
LINE
  5
14198
  8
HIDE
 10
2097.8387526958049
 20
1578.1296896706101
 30
0.0
 11
2097.8387526958049
 21
1531.6296896706101
 31
0.0
  0
LINE
  5
14199
  8
HIDE
 10
2106.8387526958049
 20
1578.1296896706101
 30
0.0
 11
2106.8387526958049
 21
1531.6296896706101
 31
0.0
  0
LINE
  5
1419A
  8
HIDE
 10
2109.3387526958049
 20
1586.6296896706101
 30
0.0
 11
2109.3387526958049
 21
1578.1296896706101
 31
0.0
  0
LINE
  5
1419B
  8
HIDE
 10
2095.3387526958049
 20
1586.6296896706101
 30
0.0
 11
2095.3387526958049
 21
1578.1296896706101
 31
0.0
  0
LINE
  5
1419C
  8
CENTER
 10
2055.8046372589401
 20
1558.097568047529
 30
0.0
 11
2046.5754733599331
 21
1548.8684034959219
 31
0.0
  0
LINE
  5
1419D
  8
CENTER
 10
2080.8728681326702
 20
1558.097568047529
 30
0.0
 11
2090.102032031677
 21
1548.8684034959219
 31
0.0
  0
LINE
  5
1419E
  8
CENTER
 10
2055.8046372589401
 20
1583.1618112936901
 30
0.0
 11
2046.5754733599331
 21
1592.390975845298
 31
0.0
  0
ARC
  5
1419F
  8
CENTER
 10
2068.3387526958049
 20
1570.6296896706101
 30
0.0
 40
24.0
 50
118.9792911511968
 51
150.79967937167601
  0
ARC
  5
141A0
  8
CENTER
 10
2068.3387526958049
 20
1570.6296896706101
 30
0.0
 40
24.0
 50
29.508720466985761
 51
61.709929648733272
  0
ARC
  5
141A1
  8
CENTER
 10
2068.3387526958049
 20
1570.6296896706101
 30
0.0
 40
24.0
 50
299.12214548347168
 51
330.7059171180079
  0
CIRCLE
  5
141A2
  8
0
 10
2085.3096996958052
 20
1587.6001026706101
 30
0.0
 40
5.0
  0
ARC
  5
141A3
  8
0
 10
2068.3387526958049
 20
1570.6296896706101
 30
0.0
 40
31.5
 50
310.36759000000069
 51
319.63171000001017
  0
ARC
  5
141A4
  8
0
 10
2068.3387526958049
 20
1570.6296896706101
 30
0.0
 40
31.5
 50
220.36695000000691
 51
229.63239999997049
  0
ARC
  5
141A5
  8
0
 10
2068.3387526958049
 20
1570.6296896706101
 30
0.0
 40
31.5
 50
130.3675499999984
 51
139.63304999999309
  0
ARC
  5
141A6
  8
0
 10
2068.3387526958049
 20
1570.6296896706101
 30
0.0
 40
31.5
 50
40.368276000001039
 51
49.632405999999101
  0
CIRCLE
  5
141A7
  8
0
 10
2051.3675616958049
 20
1553.6592766706101
 30
0.0
 40
5.0
  0
CIRCLE
  5
141A8
  8
0
 10
2085.3096996958052
 20
1553.6592766706101
 30
0.0
 40
5.0
  0
CIRCLE
  5
141A9
  8
0
 10
2051.3675616958049
 20
1587.6001026706101
 30
0.0
 40
5.0
  0
CIRCLE
  5
141AA
  8
0
 10
2034.3387526958049
 20
1542.6296896706101
 30
0.0
 40
3.299998999999997
  0
CIRCLE
  5
141AB
  8
0
 10
2102.3387526958049
 20
1542.6296896706101
 30
0.0
 40
3.299998999999997
  0
CIRCLE
  5
141AC
  8
0
 10
2102.3387526958049
 20
1570.6296896706101
 30
0.0
 40
3.299998999999997
  0
CIRCLE
  5
141AD
  8
0
 10
2034.3387526958049
 20
1570.6296896706101
 30
0.0
 40
3.299998999999997
  0
ARC
  5
141AE
  8
CENTER
 10
2068.3387526958049
 20
1570.6296896706101
 30
0.0
 40
24.0
 50
208.8249190028244
 51
240.84278102339579
  0
CIRCLE
  5
141AF
  8
0
 10
2068.3387526958049
 20
1570.6296896706101
 30
0.0
 40
16.5
  0
LINE
  5
141B0
  8
CENTER
 10
2034.3387526958049
 20
1527.2172906706101
 30
0.0
 11
2034.3387526958049
 21
1590.06708267061
 31
0.0
  0
LINE
  5
141B1
  8
0
 10
2025.3387526958049
 20
1531.6296896706101
 30
0.0
 11
2111.3387526958049
 21
1531.6296896706101
 31
0.0
  0
LINE
  5
141B2
  8
0
 10
2111.3387526958049
 20
1531.6296896706101
 30
0.0
 11
2111.3387526958049
 21
1586.6296896706101
 31
0.0
  0
LINE
  5
141B3
  8
0
 10
2045.3387526958049
 20
1595.6296896706101
 30
0.0
 11
2091.338752695804
 21
1595.6296896706101
 31
0.0
  0
LINE
  5
141B4
  8
0
 10
2082.5222916958051
 20
1588.34664867061
 30
0.0
 11
2084.5633066958048
 21
1590.3878776706099
 31
0.0
  0
LINE
  5
141B5
  8
0
 10
2044.3387526958049
 20
1550.2277576706099
 30
0.0
 11
2044.3387526958049
 21
1591.03160667061
 31
0.0
  0
LINE
  5
141B6
  8
0
 10
2092.3387526958049
 20
1550.2271936706099
 30
0.0
 11
2092.3387526958049
 21
1591.03217067061
 31
0.0
  0
LINE
  5
141B7
  8
0
 10
2047.9366526958049
 20
1546.6296896706101
 30
0.0
 11
2088.741096695805
 21
1546.6296896706101
 31
0.0
  0
LINE
  5
141B8
  8
0
 10
2047.9366526958049
 20
1594.6296896706101
 30
0.0
 11
2088.741096695805
 21
1594.6296896706101
 31
0.0
  0
LINE
  5
141B9
  8
0
 10
2083.268977695805
 20
1585.55868767061
 30
0.0
 11
2082.521912695805
 21
1588.3470626706101
 31
0.0
  0
LINE
  5
141BA
  8
CENTER
 10
2102.3387526958049
 20
1589.91144367061
 30
0.0
 11
2102.3387526958049
 21
1527.2172746706101
 31
0.0
  0
LINE
  5
141BD
  8
0
 10
2093.3387526958049
 20
1586.6296896706101
 30
0.0
 11
2111.3387526958049
 21
1586.6296896706101
 31
0.0
  0
LINE
  5
141BE
  8
0
 10
2025.3387526958049
 20
1586.6296896706101
 30
0.0
 11
2043.3387526958049
 21
1586.6296896706101
 31
0.0
  0
LINE
  5
141BF
  8
0
 10
2025.3387526958049
 20
1531.6296896706101
 30
0.0
 11
2025.3387526958049
 21
1586.6296896706101
 31
0.0
  0
LINE
  5
141C2
  8
CENTER
 10
2097.3387526958049
 20
1542.6296896706101
 30
0.0
 11
2107.3387526958049
 21
1542.6296896706101
 31
0.0
  0
LINE
  5
141C3
  8
CENTER
 10
2029.3387526958049
 20
1542.6296896706101
 30
0.0
 11
2039.3387526958049
 21
1542.6296896706101
 31
0.0
  0
LINE
  5
141C4
  8
0
 10
2050.621093695805
 20
1556.4473886706101
 30
0.0
 11
2053.4094466958049
 21
1555.7002366706099
 31
0.0
  0
LINE
  5
141C5
  8
0
 10
2048.579536695805
 20
1554.4061006706099
 30
0.0
 11
2050.620761695805
 21
1556.447311670609
 31
0.0
  0
LINE
  5
141C6
  8
0
 10
2049.3266946958051
 20
1551.6181066706099
 30
0.0
 11
2048.5796276958049
 21
1554.4064826706101
 31
0.0
  0
LINE
  5
141C7
  8
0
 10
2052.1155046958052
 20
1550.8706606706101
 30
0.0
 11
2049.3268966958049
 21
1551.61780067061
 31
0.0
  0
LINE
  5
141C8
  8
0
 10
2054.1559546958051
 20
1552.911776670609
 30
0.0
 11
2052.1150146958048
 21
1550.87062367061
 31
0.0
  0
LINE
  5
141C9
  8
0
 10
2053.4092276958049
 20
1555.70068767061
 30
0.0
 11
2054.156292695805
 21
1552.9123126706099
 31
0.0
  0
LINE
  5
141CA
  8
0
 10
2083.2689456958051
 20
1555.7005976706091
 30
0.0
 11
2086.057298695805
 21
1556.447749670609
 31
0.0
  0
LINE
  5
141CB
  8
0
 10
2086.057775695805
 20
1556.44730667061
 30
0.0
 11
2088.099000695805
 21
1554.4060966706099
 31
0.0
  0
LINE
  5
141CC
  8
0
 10
2088.0994696958051
 20
1554.40612567061
 30
0.0
 11
2087.3524036958052
 21
1551.61774967061
 31
0.0
  0
LINE
  5
141CD
  8
0
 10
2087.3516276958048
 20
1551.61795167061
 30
0.0
 11
2084.5630186958051
 21
1550.8708106706099
 31
0.0
  0
LINE
  5
141CE
  8
0
 10
2084.5633316958051
 20
1550.8705666706101
 30
0.0
 11
2082.5223926958051
 21
1552.91171967061
 31
0.0
  0
LINE
  5
141CF
  8
0
 10
2082.522804695805
 20
1552.9119566706099
 30
0.0
 11
2083.2698706958049
 21
1555.70033167061
 31
0.0
  0
LINE
  5
141D0
  8
0
 10
2053.4091966958049
 20
1585.5587276706101
 30
0.0
 11
2050.620843695805
 21
1584.81157567061
 31
0.0
  0
LINE
  5
141D1
  8
0
 10
2050.6203726958051
 20
1584.8110736706101
 30
0.0
 11
2048.579145695805
 21
1586.8522846706101
 31
0.0
  0
LINE
  5
141D2
  8
0
 10
2048.579517695805
 20
1586.8525636706099
 30
0.0
 11
2049.3265816958051
 21
1589.6409376706099
 31
0.0
  0
LINE
  5
141D3
  8
0
 10
2049.3267406958048
 20
1589.64116967061
 30
0.0
 11
2052.1153486958051
 21
1590.3883086706101
 31
0.0
  0
LINE
  5
141D4
  8
0
 10
2052.1148336958049
 20
1590.3877676706099
 30
0.0
 11
2054.1557726958049
 21
1588.34661667061
 31
0.0
  0
LINE
  5
141D5
  8
0
 10
2054.1561816958051
 20
1588.34673067061
 30
0.0
 11
2053.4091156958052
 21
1585.5583556706099
 31
0.0
  0
LINE
  5
141D6
  8
CENTER
 10
2080.8728681326702
 20
1583.1618112936901
 30
0.0
 11
2090.102032031677
 21
1592.390975845298
 31
0.0
  0
LINE
  5
141D7
  8
0
 10
2086.0580706958049
 20
1584.8112806706099
 30
0.0
 11
2083.2697186958048
 21
1585.55843267061
 31
0.0
  0
LINE
  5
141D8
  8
0
 10
2088.0990736958051
 20
1586.8522296706101
 30
0.0
 11
2086.057803695805
 21
1584.8109756706101
 31
0.0
  0
LINE
  5
141D9
  8
0
 10
2087.3515106958048
 20
1589.64126967061
 30
0.0
 11
2088.098577695805
 21
1586.85289367061
 31
0.0
  0
LINE
  5
141DA
  8
0
 10
2084.563485695805
 20
1590.3881396706099
 30
0.0
 11
2087.3520946958051
 21
1589.6409986706101
 31
0.0
  0
ARC
  5
141DB
  8
0
 10
2068.3387526958049
 20
1570.6296896706101
 30
0.0
 40
14.0
 50
166.0027191339004
 51
193.99728086609949
  0
ARC
  5
141DC
  8
0
 10
2068.3387526958049
 20
1570.6296896706101
 30
0.0
 40
14.0
 50
256.0027191338973
 51
283.9972808661027
  0
ARC
  5
141DD
  8
0
 10
2068.3387526958049
 20
1570.6296896706101
 30
0.0
 40
14.0
 50
346.00271913390043
 51
13.997280866099549
  0
ARC
  5
141DE
  8
0
 10
2068.3387526958049
 20
1570.6296896706101
 30
0.0
 40
14.0
 50
76.002719133897301
 51
103.9972808661027
  0
ARC
  5
141DF
  8
HIDE
 10
2068.3387526958049
 20
1570.6296896706101
 30
0.0
 40
8.5
 50
270.0
 51
180.0
  0
CIRCLE
  5
141E0
  8
0
 10
2068.3387526958049
 20
1570.6296896706101
 30
0.0
 40
8.0
  0
POLYLINE
  5
141E1
  8
0
 66
     1
 10
0.0
 20
0.0
 30
0.0
  0
VERTEX
  5
14385
  8
0
 10
2064.9524908351582
 20
1584.2139905584411
 30
0.0
  0
VERTEX
  5
14386
  8
0
 10
2054.7544518079721
 20
1574.015951531255
 30
0.0
  0
SEQEND
  5
14387
  8
0
  0
POLYLINE
  5
141E2
  8
0
 66
     1
 10
0.0
 20
0.0
 30
0.0
  0
VERTEX
  5
14388
  8
0
 10
2054.754451807974
 20
1567.2434278099629
 30
0.0
  0
VERTEX
  5
14389
  8
0
 10
2064.9524908351582
 20
1557.0453887827789
 30
0.0
  0
SEQEND
  5
1438A
  8
0
  0
POLYLINE
  5
141E3
  8
0
 66
     1
 10
0.0
 20
0.0
 30
0.0
  0
VERTEX
  5
1438B
  8
0
 10
2071.7250145564499
 20
1557.0453887827789
 30
0.0
  0
VERTEX
  5
1438C
  8
0
 10
2081.9230535836359
 20
1567.2434278099629
 30
0.0
  0
SEQEND
  5
1438D
  8
0
  0
POLYLINE
  5
141E4
  8
0
 66
     1
 10
0.0
 20
0.0
 30
0.0
  0
VERTEX
  5
1438E
  8
0
 10
2081.9230535836359
 20
1574.015951531255
 30
0.0
  0
VERTEX
  5
1438F
  8
0
 10
2071.7250145564499
 20
1584.2139905584411
 30
0.0
  0
SEQEND
  5
14390
  8
0
  0
LINE
  5
141E5
  8
CENTER
 10
2023.11307073076
 20
1570.6296896706101
 30
0.0
 11
2113.5644346608501
 21
1570.6296896706101
 31
0.0
  0
LINE
  5
141E6
  8
HIDE
 10
2070.8387526958049
 20
1584.4046669845659
 30
0.0
 11
2070.838752695809
 21
1578.2290317473951
 31
0.0
  0
LINE
  5
141E7
  8
HIDE
 10
2070.4387526958071
 20
1584.4712936239091
 30
0.0
 11
2070.4387526958071
 21
1578.3491456099871
 31
0.0
  0
LINE
  5
141E8
  8
HIDE
 10
2065.8387526958049
 20
1584.4046669845659
 30
0.0
 11
2065.838752695809
 21
1578.229031747396
 31
0.0
  0
LINE
  5
141E9
  8
HIDE
 10
2066.2387526958059
 20
1584.4712936239091
 30
0.0
 11
2066.2387526958059
 21
1578.349145609988
 31
0.0
  0
LINE
  5
141EA
  8
HIDE
 10
2065.8387526958072
 20
1584.3441806059509
 30
0.0
 11
2070.8387526958072
 21
1584.3441806059529
 31
0.0
  0
LINE
  5
141EB
  8
HIDE
 10
2065.838752695809
 20
1580.3441806059509
 30
0.0
 11
2070.838752695809
 21
1580.3441806059529
 31
0.0
  0
LINE
  5
141EC
  8
HIDE
 10
2065.838752695809
 20
1580.3441806059509
 30
0.0
 11
2066.2387526958059
 21
1580.1132404982759
 31
0.0
  0
LINE
  5
141ED
  8
HIDE
 10
2070.8387526957999
 20
1580.3441806059579
 30
0.0
 11
2070.4387526958039
 21
1580.1132404982829
 31
0.0
  0
LINE
  5
141EE
  8
HIDE
 10
2066.2387526958059
 20
1580.1132404982759
 30
0.0
 11
2070.4387526958071
 21
1580.1132404982759
 31
0.0
  0
LINE
  5
141EF
  8
HIDE
 10
2070.8387526958072
 20
1556.8547123566541
 30
0.0
 11
2070.838752695809
 21
1563.030347593826
 31
0.0
  0
LINE
  5
141F0
  8
HIDE
 10
2070.4387526958071
 20
1556.78808571731
 30
0.0
 11
2070.4387526958071
 21
1562.9102337312329
 31
0.0
  0
LINE
  5
141F1
  8
HIDE
 10
2065.8387526958072
 20
1556.854712356653
 30
0.0
 11
2065.8387526958099
 21
1563.0303475938231
 31
0.0
  0
LINE
  5
141F2
  8
HIDE
 10
2066.2387526958059
 20
1556.78808571731
 30
0.0
 11
2066.2387526958059
 21
1562.910233731232
 31
0.0
  0
LINE
  5
141F3
  8
HIDE
 10
2065.8387526958072
 20
1556.9151987352691
 30
0.0
 11
2070.8387526958072
 21
1556.915198735267
 31
0.0
  0
LINE
  5
141F4
  8
HIDE
 10
2065.838752695809
 20
1560.9151987352691
 30
0.0
 11
2070.838752695809
 21
1560.915198735267
 31
0.0
  0
LINE
  5
141F5
  8
HIDE
 10
2065.838752695809
 20
1560.9151987352691
 30
0.0
 11
2066.2387526958059
 21
1561.1461388429429
 31
0.0
  0
LINE
  5
141F6
  8
HIDE
 10
2070.8387526957999
 20
1560.915198735262
 30
0.0
 11
2070.4387526958039
 21
1561.146138842937
 31
0.0
  0
LINE
  5
141F7
  8
HIDE
 10
2066.2387526958059
 20
1561.1461388429429
 30
0.0
 11
2070.4387526958071
 21
1561.1461388429429
 31
0.0
  0
LINE
  5
141F8
  8
CENTER
 10
2068.3387526958049
 20
1527.2205787772859
 30
0.0
 11
2068.3387526958049
 21
1599.4612185233041
 31
0.0
  0
LINE
  5
1426A
  8
0
 10
2093.3387526958049
 20
1586.6296896706101
 30
0.0
 11
2093.3387526958049
 21
1593.6296896706101
 31
0.0
  0
LINE
  5
1426B
  8
0
 10
2043.3387526958049
 20
1586.6296896706101
 30
0.0
 11
2043.3387526958049
 21
1593.6296896706101
 31
0.0
  0
LINE
  5
1426C
  8
0
 10
2045.3387526958049
 20
1595.6296896706101
 30
0.0
 11
2043.3387526958049
 21
1593.6296896706101
 31
0.0
  0
LINE
  5
1426D
  8
0
 10
2091.338752695804
 20
1595.6296896706101
 30
0.0
 11
2093.3387526958049
 21
1593.6296896706101
 31
0.0
  0
ENDSEC
  0
EOF
