  0
SECTION
  2
HEADER
  9
$ACADVER
  1
AC1009
  9
$INSBASE
 10
0.0
 20
0.0
 30
0.0
  9
$EXTMIN
 10
1903.0405749290021
 20
1433.173578249188
 30
0.0
  9
$EXTMAX
 10
2348.540574929003
 20
1748.173578249188
 30
0.0
  9
$LIMMIN
 10
0.0
 20
0.0
  9
$LIMMAX
 10
12.0
 20
9.0
  9
$ORTHOMODE
 70
     0
  9
$REGENMODE
 70
     1
  9
$FILLMODE
 70
     1
  9
$QTEXTMODE
 70
     0
  9
$MIRRTEXT
 70
     0
  9
$DRAGMODE
 70
     2
  9
$LTSCALE
 40
5.0
  9
$OSMODE
 70
  2239
  9
$ATTMODE
 70
     1
  9
$TEXTSIZE
 40
2.5
  9
$TRACEWID
 40
0.05
  9
$TEXTSTYLE
  7
BIG
  9
$CLAYER
  8
0
  9
$CELTYPE
  6
BYLAYER
  9
$CECOLOR
 62
   256
  9
$DIMSCALE
 40
1.0
  9
$DIMASZ
 40
3.0
  9
$DIMEXO
 40
1.0
  9
$DIMDLI
 40
0.0
  9
$DIMRND
 40
0.0
  9
$DIMDLE
 40
0.0
  9
$DIMEXE
 40
1.0
  9
$DIMTP
 40
0.0
  9
$DIMTM
 40
0.0
  9
$DIMTXT
 40
3.0
  9
$DIMCEN
 40
0.0
  9
$DIMTSZ
 40
0.0
  9
$DIMTOL
 70
     0
  9
$DIMLIM
 70
     0
  9
$DIMTIH
 70
     0
  9
$DIMTOH
 70
     0
  9
$DIMSE1
 70
     0
  9
$DIMSE2
 70
     0
  9
$DIMTAD
 70
     1
  9
$DIMZIN
 70
     8
  9
$DIMBLK
  1

  9
$DIMASO
 70
     1
  9
$DIMSHO
 70
     1
  9
$DIMPOST
  1

  9
$DIMAPOST
  1

  9
$DIMALT
 70
     0
  9
$DIMALTD
 70
     2
  9
$DIMALTF
 40
25.399999999999999
  9
$DIMLFAC
 40
1.0
  9
$DIMTOFL
 70
     1
  9
$DIMTVP
 40
0.0
  9
$DIMTIX
 70
     1
  9
$DIMSOXD
 70
     0
  9
$DIMSAH
 70
     0
  9
$DIMBLK1
  1

  9
$DIMBLK2
  1

  9
$DIMSTYLE
  2
DUKITEC
  9
$DIMCLRD
 70
     5
  9
$DIMCLRE
 70
     5
  9
$DIMCLRT
 70
     0
  9
$DIMTFAC
 40
1.0
  9
$DIMGAP
 40
1.0
  9
$LUNITS
 70
     2
  9
$LUPREC
 70
     4
  9
$SKETCHINC
 40
0.1
  9
$FILLETRAD
 40
0.2
  9
$AUNITS
 70
     0
  9
$AUPREC
 70
     0
  9
$MENU
  1
.
  9
$ELEVATION
 40
0.0
  9
$PELEVATION
 40
0.0
  9
$THICKNESS
 40
0.0
  9
$LIMCHECK
 70
     0
  9
$BLIPMODE
 70
     0
  9
$CHAMFERA
 40
0.5
  9
$CHAMFERB
 40
0.5
  9
$SKPOLY
 70
     0
  9
$TDCREATE
 40
2454396.693461725
  9
$TDUPDATE
 40
2456630.4536050349
  9
$TDINDWG
 40
0.0017607523
  9
$TDUSRTIMER
 40
0.001760544
  9
$USRTIMER
 70
     1
  9
$ANGBASE
 50
0.0
  9
$ANGDIR
 70
     0
  9
$PDMODE
 70
     0
  9
$PDSIZE
 40
0.0
  9
$PLINEWID
 40
0.0
  9
$COORDS
 70
     1
  9
$SPLFRAME
 70
     0
  9
$SPLINETYPE
 70
     6
  9
$SPLINESEGS
 70
     8
  9
$ATTDIA
 70
     0
  9
$ATTREQ
 70
     1
  9
$HANDLING
 70
     1
  9
$HANDSEED
  5
1433F
  9
$SURFTAB1
 70
     6
  9
$SURFTAB2
 70
     6
  9
$SURFTYPE
 70
     6
  9
$SURFU
 70
     6
  9
$SURFV
 70
     6
  9
$UCSNAME
  2

  9
$UCSORG
 10
0.0
 20
0.0
 30
0.0
  9
$UCSXDIR
 10
1.0
 20
0.0
 30
0.0
  9
$UCSYDIR
 10
0.0
 20
1.0
 30
0.0
  9
$PUCSNAME
  2

  9
$PUCSORG
 10
0.0
 20
0.0
 30
0.0
  9
$PUCSXDIR
 10
1.0
 20
0.0
 30
0.0
  9
$PUCSYDIR
 10
0.0
 20
1.0
 30
0.0
  9
$USERI1
 70
     0
  9
$USERI2
 70
     0
  9
$USERI3
 70
     0
  9
$USERI4
 70
     0
  9
$USERI5
 70
     0
  9
$USERR1
 40
0.0
  9
$USERR2
 40
0.0
  9
$USERR3
 40
0.0
  9
$USERR4
 40
0.0
  9
$USERR5
 40
0.0
  9
$WORLDVIEW
 70
     1
  9
$SHADEDGE
 70
     3
  9
$SHADEDIF
 70
    70
  9
$TILEMODE
 70
     1
  9
$MAXACTVP
 70
    64
  9
$PLIMCHECK
 70
     0
  9
$PEXTMIN
 10
0.0
 20
0.0
 30
0.0
  9
$PEXTMAX
 10
0.0
 20
0.0
 30
0.0
  9
$PLIMMIN
 10
0.0
 20
0.0
  9
$PLIMMAX
 10
12.0
 20
9.0
  9
$UNITMODE
 70
     0
  9
$VISRETAIN
 70
     1
  9
$PLINEGEN
 70
     0
  9
$PSLTSCALE
 70
     1
  0
ENDSEC
  0
SECTION
  2
TABLES
  0
TABLE
  2
VPORT
 70
     1
  0
VPORT
  2
*ACTIVE
 70
     0
 10
0.0
 20
0.0
 11
1.0
 21
1.0
 12
2150.9877383125172
 22
1600.6983131493059
 13
0.0
 23
0.0
 14
0.5
 24
0.5
 15
0.5
 25
0.5
 16
0.0
 26
0.0
 36
1.0
 17
0.0
 27
0.0
 37
0.0
 40
331.69069465650318
 41
2.1408934707903771
 42
50.0
 43
0.0
 44
0.0
 50
0.0
 51
0.0
 71
     0
 72
  2000
 73
     1
 74
     3
 75
     0
 76
     0
 77
     0
 78
     0
  0
ENDTAB
  0
TABLE
  2
LTYPE
 70
     4
  0
LTYPE
  2
CONTINUOUS
 70
     0
  3
Solid line
 72
    65
 73
     0
 40
0.0
  0
LTYPE
  2
PHANTOM2
 70
     0
  3
Phantom (.5x) ___ _ _ ___ _ _ ___ _ _ ___ _ _
 72
    65
 73
     6
 40
1.25
 49
0.625
 49
-0.125
 49
0.125
 49
-0.125
 49
0.125
 49
-0.125
  0
LTYPE
  2
CENTER
 70
     0
  3
___ _ ___ _ ___ _ ___ _ ___ _ ___ _ ___ _ ___ _
 72
    65
 73
     4
 40
0.95
 49
0.625
 49
-0.125
 49
0.075
 49
-0.125
  0
LTYPE
  2
DASHED2
 70
     0
  3
Dashed (.5x) _ _ _ _ _ _ _ _ _ _ _ _ _ _ _ _ _
 72
    65
 73
     2
 40
0.375
 49
0.25
 49
-0.125
  0
ENDTAB
  0
TABLE
  2
LAYER
 70
     4
  0
LAYER
  2
0
 70
     0
 62
     7
  6
CONTINUOUS
  0
LAYER
  2
HIDE
 70
     0
 62
     1
  6
DASHED2
  0
LAYER
  2
CENTER
 70
     0
 62
     3
  6
CENTER
  0
ENDTAB
  0
TABLE
  2
STYLE
 70
     3
  0
STYLE
  2
STANDARD
 70
     0
 40
5.0
 41
1.0
 50
0.0
 71
     0
 42
5.0
  3
txt.shx
  4
whgtxt.shx
  0
STYLE
  2
BIG
 70
     0
 40
20.0
 41
1.0
 50
0.0
 71
     0
 42
2.5
  3
txt
  4

  0
ENDTAB
  0
TABLE
  2
VIEW
 70
     0
  0
ENDTAB
  0
TABLE
  2
UCS
 70
     0
  0
ENDTAB
  0
TABLE
  2
APPID
 70
    10
  0
APPID
  2
ACAD
 70
     0
  0
APPID
  2
ACADANNOTATIVE
 70
     0
  0
APPID
  2
ACAD_EXEMPT_FROM_CAD_STANDARDS
 70
     0
  0
APPID
  2
ACAD_DSTYLE_DIMJOGGED_JOGA
 70
     0
  0
APPID
  2
ACAD_PSEXT
 70
     0
  0
APPID
  2
ACAECLAYERSTANDARD
 70
     0
  0
APPID
  2
DCO15
 70
     0
  0
APPID
  2
CONTENTBLOCKICON
 70
     0
  0
APPID
  2
ACAD_NAV_VCDISPLAY
 70
     0
  0
APPID
  2
ACAD_MLEADERVER
 70
     0
  0
ENDTAB
  0
TABLE
  2
DIMSTYLE
 70
     3
  0
DIMSTYLE
  2
DUKITEC
 70
     0
  3

  4

  5

  6

  7

 40
1.0
 41
3.0
 42
1.0
 43
0.0
 44
1.0
 45
0.0
 46
0.0
 47
0.0
 48
0.0
140
3.0
141
0.0
142
0.0
143
25.399999999999999
144
1.0
145
0.0
146
1.0
147
1.0
 71
     0
 72
     0
 73
     0
 74
     0
 75
     0
 76
     0
 77
     1
 78
     8
170
     0
171
     2
172
     1
173
     0
174
     1
175
     0
176
     5
177
     5
178
     0
  0
ENDTAB
  0
ENDSEC
  0
SECTION
  2
BLOCKS
  0
BLOCK
  8
0
  2
$MODEL_SPACE
 70
     0
 10
0.0
 20
0.0
 30
0.0
  3
$MODEL_SPACE
  1

  0
ENDBLK
  5
140D7
  8
0
  0
BLOCK
 67
     1
  8
0
  2
$PAPER_SPACE
 70
     0
 10
0.0
 20
0.0
 30
0.0
  3
$PAPER_SPACE
  1

  0
ENDBLK
  5
140D3
 67
     1
  8
0
  0
ENDSEC
  0
SECTION
  2
ENTITIES
  0
POLYLINE
  5
13E1C
  8
0
 66
     1
 10
0.0
 20
0.0
 30
0.0
 70
     1
  0
VERTEX
  5
142EA
  8
0
 10
1903.0405749290021
 20
1433.173578249188
 30
0.0
  0
VERTEX
  5
142EB
  8
0
 10
1903.0405749290021
 20
1748.173578249188
 30
0.0
  0
VERTEX
  5
142EC
  8
0
 10
2348.540574929003
 20
1748.173578249188
 30
0.0
  0
VERTEX
  5
142ED
  8
0
 10
2348.540574929003
 20
1433.173578249188
 30
0.0
  0
VERTEX
  5
142EE
  8
0
 10
1903.0405749290021
 20
1433.173578249188
 30
0.0
  0
SEQEND
  5
142EF
  8
0
  0
TEXT
  5
14030
  8
0
 10
2105.6464157977089
 20
1483.8564008443241
 30
0.0
 40
20.0
  1
BK25
  7
BIG
  0
LINE
  5
140F5
  8
0
 10
2045.533994756534
 20
1675.959726495493
 30
0.0
 11
2045.533994756534
 21
1687.9597164954921
 31
0.0
  0
LINE
  5
140F6
  8
0
 10
2107.5315667565342
 20
1675.959726495493
 30
0.0
 11
2107.5315667565342
 21
1687.9597164954921
 31
0.0
  0
LINE
  5
140F7
  8
HIDE
 10
2064.0318107565722
 20
1667.9597464954929
 30
0.0
 11
2064.0318107565722
 21
1729.959716495493
 31
0.0
  0
LINE
  5
140F8
  8
HIDE
 10
2089.0318107564958
 20
1667.9597464954929
 30
0.0
 11
2089.0318107564958
 21
1729.959716495493
 31
0.0
  0
LINE
  5
140F9
  8
0
 10
2057.531810756534
 20
1667.9597464954929
 30
0.0
 11
2057.531810756534
 21
1675.959726495493
 31
0.0
  0
LINE
  5
140FA
  8
0
 10
2095.531810756534
 20
1667.9597464954929
 30
0.0
 11
2095.531810756534
 21
1675.959726495493
 31
0.0
  0
LINE
  5
140FB
  8
0
 10
2108.531810756534
 20
1687.9597164954921
 30
0.0
 11
2108.531810756534
 21
1729.959716495493
 31
0.0
  0
LINE
  5
140FC
  8
0
 10
2105.5292551973612
 20
1687.9597164954921
 30
0.0
 11
2105.5292551973612
 21
1729.959716495493
 31
0.0
  0
LINE
  5
140FD
  8
0
 10
2047.5343663157071
 20
1687.9597164954921
 30
0.0
 11
2047.5343663157071
 21
1729.959716495493
 31
0.0
  0
LINE
  5
140FE
  8
0
 10
2044.531810756534
 20
1687.9597164954921
 30
0.0
 11
2044.531810756534
 21
1729.959716495493
 31
0.0
  0
LINE
  5
140FF
  8
0
 10
2023.531810756534
 20
1729.959716495493
 30
0.0
 11
2023.531810756534
 21
1687.9597164954921
 31
0.0
  0
LINE
  5
14100
  8
0
 10
2129.531810756534
 20
1687.9597164954921
 30
0.0
 11
2129.531810756534
 21
1729.959716495493
 31
0.0
  0
LINE
  5
14101
  8
0
 10
2023.531810756534
 20
1729.959716495493
 30
0.0
 11
2129.531810756534
 21
1729.959716495493
 31
0.0
  0
CIRCLE
  5
14102
  8
0
 10
2119.031810756534
 20
1697.959716495493
 30
0.0
 40
8.7499990000000007
  0
CIRCLE
  5
14103
  8
0
 10
2119.031810756534
 20
1719.9597164954921
 30
0.0
 40
8.7499990000000007
  0
CIRCLE
  5
14104
  8
0
 10
2034.031810756534
 20
1697.959716495493
 30
0.0
 40
8.7499990000000007
  0
CIRCLE
  5
14105
  8
0
 10
2034.031810756534
 20
1697.959716495493
 30
0.0
 40
5.4999989999999981
  0
CIRCLE
  5
14106
  8
0
 10
2119.031810756534
 20
1697.959716495493
 30
0.0
 40
5.4999989999999981
  0
CIRCLE
  5
14107
  8
0
 10
2119.031810756534
 20
1719.9597164954921
 30
0.0
 40
5.4999989999999981
  0
CIRCLE
  5
14108
  8
0
 10
2034.031444756534
 20
1719.9597164954921
 30
0.0
 40
8.7499990000000007
  0
CIRCLE
  5
14109
  8
0
 10
2034.031444756534
 20
1719.9597164954921
 30
0.0
 40
5.4999989999999981
  0
LINE
  5
1410A
  8
CENTER
 10
2076.531810756534
 20
1664.960679705425
 30
0.0
 11
2076.531810756534
 21
1734.5053062683039
 31
0.0
  0
LINE
  5
1410B
  8
0
 10
2095.531810756534
 20
1667.9597464954929
 30
0.0
 11
2057.531810756534
 21
1667.9597464954929
 31
0.0
  0
LINE
  5
1410C
  8
0
 10
2023.531810756534
 20
1687.9597164954921
 30
0.0
 11
2129.531810756534
 21
1687.9597164954921
 31
0.0
  0
LINE
  5
1410D
  8
0
 10
2045.533994756534
 20
1675.959726495493
 30
0.0
 11
2107.5315667565342
 21
1675.959726495493
 31
0.0
  0
LINE
  5
1410E
  8
CENTER
 10
2034.031444756534
 20
1686.285376495493
 30
0.0
 11
2034.031444756534
 21
1732.2401464954919
 31
0.0
  0
LINE
  5
1410F
  8
CENTER
 10
2119.0314447565338
 20
1686.159476495493
 30
0.0
 11
2119.0314447565338
 21
1731.8622164954929
 31
0.0
  0
ARC
  5
14110
  8
0
 10
2076.531810756534
 20
1673.959716495493
 30
0.0
 40
2.4999999999990901
 50
126.869515672327
 51
53.130484327672939
  0
ARC
  5
14111
  8
0
 10
2076.531810756534
 20
1673.959716495493
 30
0.0
 40
3.0
 50
138.1894288692327
 51
41.810571130767237
  0
LINE
  5
14112
  8
CENTER
 10
2080.531810756534
 20
1673.959716495493
 30
0.0
 11
2072.531810756534
 21
1673.959716495493
 31
0.0
  0
LINE
  5
14113
  8
CENTER
 10
2108.2818117565348
 20
1697.959716495493
 30
0.0
 11
2129.7818097565341
 21
1697.959716495493
 31
0.0
  0
LINE
  5
14114
  8
CENTER
 10
2108.282177756535
 20
1719.9597164954921
 30
0.0
 11
2129.7821757565339
 21
1719.9597164954921
 31
0.0
  0
LINE
  5
14115
  8
CENTER
 10
2023.2818117565339
 20
1697.959716495493
 30
0.0
 11
2044.7818097565339
 21
1697.959716495493
 31
0.0
  0
LINE
  5
14116
  8
CENTER
 10
2023.2818117565339
 20
1719.9597164954921
 30
0.0
 11
2044.7818097565339
 21
1719.9597164954921
 31
0.0
  0
LINE
  5
14117
  8
0
 10
2070.5109954763639
 20
1667.9597464954941
 30
0.0
 11
2070.510995476363
 21
1675.959726495493
 31
0.0
  0
LINE
  5
14118
  8
0
 10
2082.552626036721
 20
1667.9597464954929
 30
0.0
 11
2082.552626036721
 21
1675.959726495493
 31
0.0
  0
POLYLINE
  5
14119
  8
0
 66
     1
 10
0.0
 20
0.0
 30
0.0
 70
     1
  0
VERTEX
  5
1432C
  8
0
 10
2078.4305858900998
 20
1673.959716495493
 30
0.0
  0
VERTEX
  5
1432D
  8
0
 10
2077.4811983233171
 20
1675.6041039972349
 30
0.0
  0
VERTEX
  5
1432E
  8
0
 10
2075.5824231897509
 20
1675.6041039972349
 30
0.0
  0
VERTEX
  5
1432F
  8
0
 10
2074.6330356229678
 20
1673.959716495493
 30
0.0
  0
VERTEX
  5
14330
  8
0
 10
2075.5824231897509
 20
1672.31532899375
 30
0.0
  0
VERTEX
  5
14331
  8
0
 10
2077.4811983233171
 20
1672.31532899375
 30
0.0
  0
SEQEND
  5
14332
  8
0
  0
LINE
  5
1411C
  8
HIDE
 10
2186.7243123329658
 20
1574.78031700065
 30
0.0
 11
2196.7243123329649
 21
1574.7803170006489
 31
0.0
  0
LINE
  5
1411D
  8
HIDE
 10
2226.7243123329649
 20
1574.7803170006489
 30
0.0
 11
2236.7243123329649
 21
1574.7803170006489
 31
0.0
  0
LINE
  5
1411E
  8
HIDE
 10
2186.7243123329658
 20
1599.78031700065
 30
0.0
 11
2196.7243123329649
 21
1599.78031700065
 31
0.0
  0
LINE
  5
1411F
  8
HIDE
 10
2226.7243123329649
 20
1599.78031700065
 30
0.0
 11
2236.7243123329649
 21
1599.7803170006489
 31
0.0
  0
LINE
  5
14120
  8
0
 10
2182.7243123329649
 20
1556.277645000649
 30
0.0
 11
2194.7243123329649
 21
1556.277645000649
 31
0.0
  0
LINE
  5
14121
  8
0
 10
2182.7243123329649
 20
1618.2772220006491
 30
0.0
 11
2194.7243123329649
 21
1618.2772220006491
 31
0.0
  0
LINE
  5
14122
  8
CENTER
 10
2168.0371079857109
 20
1587.2803170006489
 30
0.0
 11
2242.5411795055429
 21
1587.2803170006489
 31
0.0
  0
LINE
  5
14123
  8
HIDE
 10
2186.7243123329649
 20
1572.0303170006489
 30
0.0
 11
2196.724312332964
 21
1572.0303170006489
 31
0.0
  0
LINE
  5
14124
  8
HIDE
 10
2226.7243123329649
 20
1572.0303170006489
 30
0.0
 11
2236.7243123329649
 21
1572.0303170006489
 31
0.0
  0
LINE
  5
14125
  8
HIDE
 10
2186.7243123329649
 20
1602.5303170006489
 30
0.0
 11
2196.724312332964
 21
1602.530317000648
 31
0.0
  0
LINE
  5
14126
  8
HIDE
 10
2226.7243123329649
 20
1602.5303170006489
 30
0.0
 11
2236.7243123329649
 21
1602.53031700065
 31
0.0
  0
LINE
  5
14127
  8
0
 10
2194.7243123329649
 20
1619.281676000649
 30
0.0
 11
2236.7243123329649
 21
1619.281676000649
 31
0.0
  0
LINE
  5
14128
  8
0
 10
2194.7243123329649
 20
1619.281676000649
 30
0.0
 11
2194.7243123329649
 21
1539.280310000649
 31
0.0
  0
LINE
  5
14129
  8
0
 10
2182.7243123329649
 20
1618.2772220006491
 30
0.0
 11
2182.7243123329649
 21
1556.277645000649
 31
0.0
  0
LINE
  5
1412A
  8
0
 10
2236.7243123329649
 20
1619.281676000649
 30
0.0
 11
2236.7243123329649
 21
1539.280310000649
 31
0.0
  0
LINE
  5
1412B
  8
0
 10
2194.7243123329649
 20
1616.2799210006481
 30
0.0
 11
2236.7243123329649
 21
1616.2799210006481
 31
0.0
  0
LINE
  5
1412C
  8
0
 10
2194.7243123329649
 20
1609.280348000648
 30
0.0
 11
2236.7243123329649
 21
1609.280348000648
 31
0.0
  0
LINE
  5
1412D
  8
0
 10
2194.7243123329649
 20
1539.280310000649
 30
0.0
 11
2236.7243123329649
 21
1539.280310000649
 31
0.0
  0
CIRCLE
  5
1412E
  8
HIDE
 10
2219.2243123329649
 20
1568.0303170006489
 30
0.0
 40
4.049999999999998
  0
CIRCLE
  5
1412F
  8
HIDE
 10
2219.2243123329649
 20
1606.5303170006489
 30
0.0
 40
4.049999999999998
  0
CIRCLE
  5
14130
  8
HIDE
 10
2204.2243123329649
 20
1568.0303170006489
 30
0.0
 40
4.0499999999999989
  0
CIRCLE
  5
14131
  8
HIDE
 10
2204.2243123329649
 20
1606.5303170006489
 30
0.0
 40
4.0499999999999989
  0
ARC
  5
14132
  8
HIDE
 10
2211.1243123329659
 20
1612.6803170006481
 30
0.0
 40
0.5999999999999996
 50
0.0
 51
90.0
  0
ARC
  5
14133
  8
HIDE
 10
2197.7243123329649
 20
1612.2803170006489
 30
0.0
 40
1.0
 50
90.0
 51
180.0
  0
ARC
  5
14134
  8
HIDE
 10
2210.7243123329649
 20
1600.7803170006489
 30
0.0
 40
1.0
 50
270.0
 51
0.0
  0
ARC
  5
14135
  8
HIDE
 10
2210.7243123329649
 20
1573.7803170006489
 30
0.0
 40
1.0
 50
0.0
 51
90.0
  0
ARC
  5
14136
  8
HIDE
 10
2197.3243123329648
 20
1600.380317000649
 30
0.0
 40
0.6000000000000015
 50
180.0
 51
270.0
  0
ARC
  5
14137
  8
HIDE
 10
2197.3243123329648
 20
1574.1803170006481
 30
0.0
 40
0.5999999999999996
 50
90.0
 51
180.0
  0
ARC
  5
14138
  8
HIDE
 10
2211.1243123329659
 20
1561.880317000649
 30
0.0
 40
0.6000000000000015
 50
270.0
 51
0.0
  0
ARC
  5
14139
  8
HIDE
 10
2197.7243123329649
 20
1562.2803170006489
 30
0.0
 40
1.0
 50
180.0
 51
270.0
  0
LINE
  5
1413A
  8
HIDE
 10
2196.7243123329649
 20
1608.230317000648
 30
0.0
 11
2200.5483770778219
 21
1608.230317000648
 31
0.0
  0
LINE
  5
1413B
  8
HIDE
 10
2197.7243123329649
 20
1613.2803170006489
 30
0.0
 11
2211.1243123329659
 21
1613.2803170006489
 31
0.0
  0
LINE
  5
1413C
  8
HIDE
 10
2211.7243123329649
 20
1604.7303170006489
 30
0.0
 11
2207.8523283197001
 21
1604.7303170006489
 31
0.0
  0
LINE
  5
1413D
  8
HIDE
 10
2205.715905833908
 20
1610.295638876391
 30
0.0
 11
2211.7243123329649
 21
1610.7803170006489
 31
0.0
  0
LINE
  5
1413E
  8
HIDE
 10
2196.7243123329649
 20
1604.7303170006489
 30
0.0
 11
2200.5962963462312
 21
1604.7303170006489
 31
0.0
  0
LINE
  5
1413F
  8
HIDE
 10
2196.7243123329649
 20
1569.8303170006491
 30
0.0
 11
2200.5962963462312
 21
1569.8303170006491
 31
0.0
  0
LINE
  5
14140
  8
HIDE
 10
2197.3243123329648
 20
1599.7803170006489
 30
0.0
 11
2210.7243123329649
 21
1599.7803170006489
 31
0.0
  0
LINE
  5
14141
  8
HIDE
 10
2197.3243123329648
 20
1574.7803170006489
 30
0.0
 11
2210.7243123329649
 21
1574.7803170006489
 31
0.0
  0
LINE
  5
14142
  8
HIDE
 10
2211.7243123329649
 20
1569.8303170006491
 30
0.0
 11
2207.8523283197001
 21
1569.8303170006491
 31
0.0
  0
LINE
  5
14143
  8
HIDE
 10
2196.7243123329649
 20
1566.3303170006491
 30
0.0
 11
2200.5483770778219
 21
1566.3303170006491
 31
0.0
  0
LINE
  5
14144
  8
HIDE
 10
2211.1243123329659
 20
1561.2803170006489
 30
0.0
 11
2197.7243123329649
 21
1561.2803170006489
 31
0.0
  0
LINE
  5
14145
  8
HIDE
 10
2205.715905833908
 20
1564.2649951249059
 30
0.0
 11
2211.7243123329649
 21
1563.7803170006489
 31
0.0
  0
LINE
  5
14146
  8
HIDE
 10
2196.7243123329649
 20
1562.2803170006489
 30
0.0
 11
2196.7243123329649
 21
1612.2803170006489
 31
0.0
  0
LINE
  5
14147
  8
HIDE
 10
2211.7243123329649
 20
1612.6803170006481
 30
0.0
 11
2211.7243123329649
 21
1561.880317000649
 31
0.0
  0
LINE
  5
14148
  8
HIDE
 10
2200.3380028850752
 20
1608.230317000648
 30
0.0
 11
2200.799068463326
 21
1608.6913825788999
 31
0.0
  0
ARC
  5
14149
  8
HIDE
 10
2212.3243123329648
 20
1561.880317000649
 30
0.0
 40
0.5999999999999996
 50
180.0
 51
270.0
  0
ARC
  5
1414A
  8
HIDE
 10
2225.7243123329649
 20
1562.2803170006489
 30
0.0
 40
1.0
 50
270.0
 51
0.0
  0
ARC
  5
1414B
  8
HIDE
 10
2212.7243123329649
 20
1573.7803170006489
 30
0.0
 40
1.0
 50
90.0
 51
180.0
  0
ARC
  5
1414C
  8
HIDE
 10
2212.7243123329649
 20
1600.7803170006489
 30
0.0
 40
1.0
 50
180.0
 51
270.0
  0
ARC
  5
1414D
  8
HIDE
 10
2226.1243123329659
 20
1574.1803170006481
 30
0.0
 40
0.6
 50
0.0
 51
90.0
  0
ARC
  5
1414E
  8
HIDE
 10
2226.1243123329659
 20
1600.380317000649
 30
0.0
 40
0.5999999999999996
 50
270.0
 51
0.0
  0
ARC
  5
1414F
  8
HIDE
 10
2212.3243123329648
 20
1612.680317000649
 30
0.0
 40
0.6000000000000015
 50
90.0
 51
180.0
  0
ARC
  5
14150
  8
HIDE
 10
2225.7243123329649
 20
1612.2803170006489
 30
0.0
 40
1.0
 50
0.0
 51
90.0
  0
LINE
  5
14151
  8
HIDE
 10
2226.7243123329649
 20
1566.3303170006491
 30
0.0
 11
2222.900247588107
 21
1566.3303170006491
 31
0.0
  0
LINE
  5
14152
  8
HIDE
 10
2225.7243123329649
 20
1561.2803170006489
 30
0.0
 11
2212.3243123329648
 21
1561.2803170006489
 31
0.0
  0
LINE
  5
14153
  8
HIDE
 10
2211.7243123329649
 20
1569.8303170006491
 30
0.0
 11
2215.5962963462312
 21
1569.8303170006491
 31
0.0
  0
LINE
  5
14154
  8
HIDE
 10
2217.7327188320228
 20
1564.2649951249059
 30
0.0
 11
2211.7243123329649
 21
1563.7803170006489
 31
0.0
  0
LINE
  5
14155
  8
HIDE
 10
2226.7243123329649
 20
1569.8303170006491
 30
0.0
 11
2222.8523283196992
 21
1569.8303170006491
 31
0.0
  0
LINE
  5
14156
  8
HIDE
 10
2226.7243123329649
 20
1604.7303170006489
 30
0.0
 11
2222.8523283196992
 21
1604.7303170006489
 31
0.0
  0
LINE
  5
14157
  8
HIDE
 10
2226.1243123329659
 20
1574.7803170006489
 30
0.0
 11
2212.7243123329649
 21
1574.7803170006489
 31
0.0
  0
LINE
  5
14158
  8
HIDE
 10
2226.1243123329659
 20
1599.7803170006489
 30
0.0
 11
2212.7243123329649
 21
1599.7803170006489
 31
0.0
  0
LINE
  5
14159
  8
HIDE
 10
2211.7243123329649
 20
1604.7303170006489
 30
0.0
 11
2215.5962963462312
 21
1604.7303170006489
 31
0.0
  0
LINE
  5
1415A
  8
HIDE
 10
2226.7243123329649
 20
1608.230317000648
 30
0.0
 11
2222.900247588107
 21
1608.230317000648
 31
0.0
  0
LINE
  5
1415B
  8
HIDE
 10
2212.3243123329648
 20
1613.2803170006489
 30
0.0
 11
2225.7243123329658
 21
1613.2803170006489
 31
0.0
  0
LINE
  5
1415C
  8
HIDE
 10
2217.7327188320228
 20
1610.2956388763921
 30
0.0
 11
2211.7243123329658
 21
1610.7803170006489
 31
0.0
  0
LINE
  5
1415D
  8
HIDE
 10
2226.7243123329649
 20
1612.2803170006489
 30
0.0
 11
2226.7243123329649
 21
1562.2803170006489
 31
0.0
  0
LINE
  5
1415E
  8
HIDE
 10
2222.6495562026039
 20
1608.6913825789011
 30
0.0
 11
2223.1106217808551
 21
1608.230317000648
 31
0.0
  0
LINE
  5
1415F
  8
HIDE
 10
2186.7243123329649
 20
1603.7803170006489
 30
0.0
 11
2186.7243123329649
 21
1570.7803170006489
 31
0.0
  0
LINE
  5
14160
  8
CENTER
 10
2180.7243123329649
 20
1607.7868611864219
 30
0.0
 11
2180.7243123329649
 21
1597.2556786719661
 31
0.0
  0
LINE
  5
14161
  8
HIDE
 10
2183.7243123329649
 20
1606.2803170006489
 30
0.0
 11
2183.7243123329649
 21
1599.03031700065
 31
0.0
  0
LINE
  5
14162
  8
HIDE
 10
2183.2243123329649
 20
1606.2803170006489
 30
0.0
 11
2183.2243123329649
 21
1599.03031700065
 31
0.0
  0
LINE
  5
14163
  8
HIDE
 10
2177.7243123329649
 20
1606.2803170006489
 30
0.0
 11
2177.7243123329649
 21
1599.0303170006489
 31
0.0
  0
LINE
  5
14164
  8
HIDE
 10
2178.2243123329649
 20
1606.2803170006489
 30
0.0
 11
2178.2243123329649
 21
1599.0303170006489
 31
0.0
  0
LINE
  5
14165
  8
HIDE
 10
2186.2243123329649
 20
1606.2803170006489
 30
0.0
 11
2186.2243123329649
 21
1568.2803170006489
 31
0.0
  0
LINE
  5
14166
  8
0
 10
2174.7243123329649
 20
1606.2803170006489
 30
0.0
 11
2174.7243123329649
 21
1568.2803170006489
 31
0.0
  0
LINE
  5
14167
  8
0
 10
2182.7243123329649
 20
1606.2803170006489
 30
0.0
 11
2174.7243123329649
 21
1606.2803170006489
 31
0.0
  0
LINE
  5
14168
  8
HIDE
 10
2186.7243123329649
 20
1603.7803170006489
 30
0.0
 11
2186.2243123329649
 21
1604.0689921352421
 31
0.0
  0
LINE
  5
14169
  8
HIDE
 10
2186.7243123329649
 20
1599.03031700065
 30
0.0
 11
2174.7243123329649
 21
1599.0303170006489
 31
0.0
  0
LINE
  5
1416A
  8
HIDE
 10
2186.7243123329649
 20
1599.7803170006489
 30
0.0
 11
2174.7243123329649
 21
1599.7803170006489
 31
0.0
  0
LINE
  5
1416B
  8
0
 10
2182.7243123329649
 20
1593.30113228082
 30
0.0
 11
2174.7243123329649
 21
1593.30113228082
 31
0.0
  0
LINE
  5
1416C
  8
HIDE
 10
2183.7243123329649
 20
1605.9850713068411
 30
0.0
 11
2177.7243123329649
 21
1605.9850713068411
 31
0.0
  0
LINE
  5
1416D
  8
HIDE
 10
2183.7243123329649
 20
1600.985071306842
 30
0.0
 11
2177.7243123329649
 21
1600.985071306842
 31
0.0
  0
LINE
  5
1416E
  8
HIDE
 10
2183.7243123329649
 20
1600.985071306842
 30
0.0
 11
2183.2243123329649
 21
1600.696396172247
 31
0.0
  0
LINE
  5
1416F
  8
HIDE
 10
2177.7243123329649
 20
1600.985071306842
 30
0.0
 11
2178.2243123329649
 21
1600.696396172247
 31
0.0
  0
LINE
  5
14170
  8
HIDE
 10
2178.2243123329649
 20
1600.696396172247
 30
0.0
 11
2183.2243123329649
 21
1600.696396172247
 31
0.0
  0
LINE
  5
14171
  8
CENTER
 10
2180.7243123329649
 20
1566.773772814875
 30
0.0
 11
2180.7243123329649
 21
1577.304955329332
 31
0.0
  0
LINE
  5
14172
  8
HIDE
 10
2183.7243123329649
 20
1568.2803170006489
 30
0.0
 11
2183.7243123329649
 21
1575.530317000648
 31
0.0
  0
LINE
  5
14173
  8
HIDE
 10
2183.2243123329649
 20
1568.2803170006489
 30
0.0
 11
2183.2243123329649
 21
1575.530317000648
 31
0.0
  0
LINE
  5
14174
  8
HIDE
 10
2177.7243123329649
 20
1568.2803170006489
 30
0.0
 11
2177.7243123329649
 21
1575.5303170006489
 31
0.0
  0
LINE
  5
14175
  8
HIDE
 10
2178.2243123329649
 20
1568.2803170006489
 30
0.0
 11
2178.2243123329649
 21
1575.5303170006489
 31
0.0
  0
LINE
  5
14176
  8
0
 10
2182.7243123329649
 20
1568.2803170006489
 30
0.0
 11
2174.7243123329649
 21
1568.2803170006489
 31
0.0
  0
LINE
  5
14177
  8
HIDE
 10
2186.7243123329649
 20
1570.7803170006489
 30
0.0
 11
2186.2243123329649
 21
1570.4916418660559
 31
0.0
  0
LINE
  5
14178
  8
HIDE
 10
2186.7243123329649
 20
1575.530317000648
 30
0.0
 11
2174.7243123329649
 21
1575.5303170006489
 31
0.0
  0
LINE
  5
14179
  8
HIDE
 10
2186.7243123329649
 20
1574.7803170006489
 30
0.0
 11
2174.7243123329649
 21
1574.7803170006489
 31
0.0
  0
LINE
  5
1417A
  8
0
 10
2182.7243123329649
 20
1581.2595017204769
 30
0.0
 11
2174.7243123329649
 21
1581.2595017204769
 31
0.0
  0
LINE
  5
1417B
  8
HIDE
 10
2183.7243123329649
 20
1568.575562694456
 30
0.0
 11
2177.7243123329649
 21
1568.575562694456
 31
0.0
  0
LINE
  5
1417C
  8
HIDE
 10
2183.7243123329649
 20
1573.575562694456
 30
0.0
 11
2177.7243123329649
 21
1573.575562694456
 31
0.0
  0
LINE
  5
1417D
  8
HIDE
 10
2183.7243123329649
 20
1573.575562694456
 30
0.0
 11
2183.2243123329649
 21
1573.8642378290499
 31
0.0
  0
LINE
  5
1417E
  8
HIDE
 10
2177.7243123329649
 20
1573.575562694456
 30
0.0
 11
2178.2243123329649
 21
1573.8642378290499
 31
0.0
  0
LINE
  5
1417F
  8
HIDE
 10
2178.2243123329649
 20
1573.8642378290499
 30
0.0
 11
2183.2243123329649
 21
1573.8642378290499
 31
0.0
  0
LINE
  5
14180
  8
HIDE
 10
2182.7243123329649
 20
1606.2803170006489
 30
0.0
 11
2186.2243123329649
 21
1606.2803170006489
 31
0.0
  0
LINE
  5
14181
  8
HIDE
 10
2182.7243123329649
 20
1593.30113228082
 30
0.0
 11
2186.2243123329649
 21
1593.30113228082
 31
0.0
  0
LINE
  5
14182
  8
HIDE
 10
2182.7243123329649
 20
1581.2595017204769
 30
0.0
 11
2186.2243123329649
 21
1581.2595017204769
 31
0.0
  0
LINE
  5
14183
  8
HIDE
 10
2182.7243123329649
 20
1568.2803170006489
 30
0.0
 11
2186.2243123329649
 21
1568.2803170006489
 31
0.0
  0
LINE
  5
14184
  8
CENTER
 10
2204.7243123329649
 20
1549.7806760006499
 30
0.0
 11
2204.7243123329649
 21
1526.9384295429161
 31
0.0
  0
LINE
  5
14185
  8
CENTER
 10
2226.7243123329649
 20
1549.7806760006499
 30
0.0
 11
2226.7243123329649
 21
1526.9384295429161
 31
0.0
  0
LINE
  5
14186
  8
HIDE
 10
2042.7818097565339
 20
1609.280348000648
 30
0.0
 11
2042.7818097565339
 21
1598.280348000648
 31
0.0
  0
LINE
  5
14187
  8
HIDE
 10
2039.5318097565339
 20
1598.280348000648
 30
0.0
 11
2039.5318097565339
 21
1539.2803330006491
 31
0.0
  0
LINE
  5
14188
  8
HIDE
 10
2025.2818117565339
 20
1609.280348000648
 30
0.0
 11
2025.2818117565339
 21
1598.280348000648
 31
0.0
  0
LINE
  5
14189
  8
HIDE
 10
2028.5318117565339
 20
1598.280348000648
 30
0.0
 11
2028.5318117565339
 21
1539.2803330006491
 31
0.0
  0
LINE
  5
1418A
  8
HIDE
 10
2025.2818117565339
 20
1598.280348000648
 30
0.0
 11
2042.7818097565339
 21
1598.280348000648
 31
0.0
  0
LINE
  5
1418B
  8
HIDE
 10
2110.2818117565339
 20
1598.280348000648
 30
0.0
 11
2127.7818097565341
 21
1598.280348000648
 31
0.0
  0
LINE
  5
1418C
  8
HIDE
 10
2127.7818097565341
 20
1609.280348000648
 30
0.0
 11
2127.7818097565341
 21
1598.280348000648
 31
0.0
  0
LINE
  5
1418D
  8
HIDE
 10
2124.5318097565341
 20
1598.280348000648
 30
0.0
 11
2124.5318097565341
 21
1539.2803330006491
 31
0.0
  0
LINE
  5
1418E
  8
HIDE
 10
2113.5318117565339
 20
1598.280348000648
 30
0.0
 11
2113.5318117565339
 21
1539.2803330006491
 31
0.0
  0
LINE
  5
1418F
  8
HIDE
 10
2110.2818117565339
 20
1609.280348000648
 30
0.0
 11
2110.2818117565339
 21
1598.280348000648
 31
0.0
  0
LINE
  5
14190
  8
0
 10
2023.531810756534
 20
1609.280348000648
 30
0.0
 11
2023.531810756534
 21
1539.2803330006491
 31
0.0
  0
LINE
  5
14191
  8
0
 10
2129.531810756534
 20
1539.2803330006491
 30
0.0
 11
2129.531810756534
 21
1609.280348000648
 31
0.0
  0
LINE
  5
14192
  8
0
 10
2047.5343663157071
 20
1619.281813000649
 30
0.0
 11
2044.531810756534
 21
1616.2799170006481
 31
0.0
  0
LINE
  5
14193
  8
0
 10
2044.531810756534
 20
1609.280348000648
 30
0.0
 11
2044.531810756534
 21
1616.2784830006481
 31
0.0
  0
LINE
  5
14194
  8
0
 10
2108.531810756534
 20
1609.280348000648
 30
0.0
 11
2108.531810756534
 21
1616.2799170006481
 31
0.0
  0
CIRCLE
  5
14195
  8
0
 10
2076.531810756534
 20
1587.280348000648
 30
0.0
 40
23.0
  0
ARC
  5
14196
  8
CENTER
 10
2076.531810756534
 20
1587.280348000648
 30
0.0
 40
31.499977000000001
 50
27.474285999999012
 51
61.337995000018331
  0
ARC
  5
14197
  8
CENTER
 10
2076.531810756534
 20
1587.280348000648
 30
0.0
 40
31.499977000000001
 50
119.22799999997881
 51
151.03985000003371
  0
ARC
  5
14198
  8
CENTER
 10
2076.531810756534
 20
1587.280348000648
 30
0.0
 40
31.499977000000001
 50
208.26155999999909
 51
241.6128200000164
  0
CIRCLE
  5
14199
  8
0
 10
2098.8047597565342
 20
1609.5547470006491
 30
0.0
 40
5.333625999999998
  0
ARC
  5
1419A
  8
CENTER
 10
2076.531810756534
 20
1587.280348000648
 30
0.0
 40
31.499977000000001
 50
299.52599999998171
 51
331.40056000000692
  0
CIRCLE
  5
1419B
  8
0
 10
2098.8065907565342
 20
1565.0073840006489
 30
0.0
 40
5.333625999999998
  0
CIRCLE
  5
1419C
  8
0
 10
2054.2592277565341
 20
1565.005446000649
 30
0.0
 40
5.333625999999998
  0
CIRCLE
  5
1419D
  8
0
 10
2054.257396756534
 20
1609.5532820006481
 30
0.0
 40
5.333625999999998
  0
CIRCLE
  5
1419E
  8
0
 10
2119.031810756534
 20
1554.2803330006491
 30
0.0
 40
4.4999989999999981
  0
CIRCLE
  5
1419F
  8
0
 10
2034.031810756534
 20
1554.2803330006491
 30
0.0
 40
4.4999989999999981
  0
CIRCLE
  5
141A0
  8
0
 10
2034.031810756534
 20
1587.280348000648
 30
0.0
 40
4.4999989999999981
  0
CIRCLE
  5
141A1
  8
0
 10
2119.031810756534
 20
1587.280348000648
 30
0.0
 40
4.4999989999999981
  0
LINE
  5
141A2
  8
0
 10
2050.5315667565342
 20
1618.2803480006489
 30
0.0
 11
2102.5316887565332
 21
1618.2803480006489
 31
0.0
  0
LINE
  5
141A3
  8
0
 10
2045.5316887565341
 20
1613.279371000649
 30
0.0
 11
2045.5316887565341
 21
1561.280348000648
 31
0.0
  0
LINE
  5
141A4
  8
0
 10
2101.7830297565338
 20
1608.7551270006491
 30
0.0
 11
2100.9860057565352
 21
1611.729666000648
 31
0.0
  0
LINE
  5
141A5
  8
0
 10
2096.631269756534
 20
1607.374716000649
 30
0.0
 11
2095.8342437565339
 21
1610.3492550006481
 31
0.0
  0
LINE
  5
141A6
  8
0
 10
2100.988210756534
 20
1611.7298300006489
 30
0.0
 11
2098.0133207565341
 21
1612.5269510006481
 31
0.0
  0
LINE
  5
141A7
  8
0
 10
2099.6078017565342
 20
1606.578076000648
 30
0.0
 11
2096.6329117565342
 21
1607.375197000649
 31
0.0
  0
LINE
  5
141A8
  8
0
 10
2107.5315667565342
 20
1613.2808360006479
 30
0.0
 11
2107.5315667565342
 21
1561.280348000648
 31
0.0
  0
LINE
  5
141A9
  8
0
 10
2107.5345387565349
 20
1561.277521000648
 30
0.0
 11
2102.5347787565338
 21
1556.277645000649
 31
0.0
  0
LINE
  5
141AA
  8
0
 10
2045.535154756534
 20
1561.276802000649
 30
0.0
 11
2050.535688756534
 21
1556.276680000648
 31
0.0
  0
LINE
  5
141AB
  8
0
 10
2050.533868756534
 20
1618.2778990006491
 30
0.0
 11
2045.533994756534
 21
1613.2774720006489
 31
0.0
  0
LINE
  5
141AC
  8
0
 10
2098.012824756534
 20
1612.5250700006491
 30
0.0
 11
2095.8348747565342
 21
1610.3471200006491
 31
0.0
  0
LINE
  5
141AD
  8
CENTER
 10
2104.4664477565339
 20
1615.2078590006481
 30
0.0
 11
2093.1524087565349
 21
1603.893822000648
 31
0.0
  0
LINE
  5
141AE
  8
0
 10
2098.0096857565341
 20
1562.0307500006479
 30
0.0
 11
2100.9842227565341
 21
1562.827774000649
 31
0.0
  0
LINE
  5
141AF
  8
0
 10
2096.629274756534
 20
1567.182511000648
 30
0.0
 11
2099.603811756534
 21
1567.9795360006481
 31
0.0
  0
LINE
  5
141B0
  8
0
 10
2100.9882587565339
 20
1562.827189000649
 30
0.0
 11
2101.7853207565349
 21
1565.8018590006491
 31
0.0
  0
LINE
  5
141B1
  8
0
 10
2101.7844357565341
 20
1608.7534600006479
 30
0.0
 11
2099.6064857565339
 21
1606.575510000649
 31
0.0
  0
LINE
  5
141B2
  8
0
 10
2095.8364987565342
 20
1564.207598000648
 30
0.0
 11
2096.6335587565341
 21
1567.1822680006489
 31
0.0
  0
LINE
  5
141B3
  8
0
 10
2098.0119647565339
 20
1562.0278990006491
 30
0.0
 11
2095.8341927565339
 21
1564.2056710006491
 31
0.0
  0
LINE
  5
141B4
  8
CENTER
 10
2104.4665587565341
 20
1559.3456920006479
 30
0.0
 11
2093.1525037565339
 21
1570.659746000649
 31
0.0
  0
LINE
  5
141B5
  8
0
 10
2051.287116756534
 20
1565.804941000649
 30
0.0
 11
2052.0841727565348
 21
1562.830288000649
 31
0.0
  0
LINE
  5
141B6
  8
0
 10
2056.4388787565349
 20
1567.1853530006481
 30
0.0
 11
2057.2359347565339
 21
1564.2106970006489
 31
0.0
  0
LINE
  5
141B7
  8
0
 10
2101.7836477565338
 20
1565.799582000649
 30
0.0
 11
2099.6058747565339
 21
1567.977354000649
 31
0.0
  0
LINE
  5
141B8
  8
0
 10
2052.0858557565339
 20
1562.827147000648
 30
0.0
 11
2055.0603947565342
 21
1562.030121000648
 31
0.0
  0
LINE
  5
141B9
  8
0
 10
2055.0579907565339
 20
1562.0285700006491
 30
0.0
 11
2057.2359407565341
 21
1564.2065200006491
 31
0.0
  0
LINE
  5
141BA
  8
0
 10
2051.2863827565338
 20
1565.800181000649
 30
0.0
 11
2053.4643307565352
 21
1567.9781310006481
 31
0.0
  0
LINE
  5
141BB
  8
CENTER
 10
2048.6043527565339
 20
1559.3457660006491
 30
0.0
 11
2059.9184037565351
 21
1570.6598170006489
 31
0.0
  0
LINE
  5
141BC
  8
0
 10
2055.0606017565342
 20
1612.5287420006489
 30
0.0
 11
2052.0860637565338
 21
1611.731718000648
 31
0.0
  0
LINE
  5
141BD
  8
0
 10
2053.4662607565342
 20
1567.9788860006479
 30
0.0
 11
2056.4407977565338
 21
1567.1818600006491
 31
0.0
  0
LINE
  5
141BE
  8
0
 10
2056.441011756534
 20
1607.376980000648
 30
0.0
 11
2053.4664747565339
 21
1606.579956000649
 31
0.0
  0
LINE
  5
141BF
  8
0
 10
2057.2371327565338
 20
1610.3491710006481
 30
0.0
 11
2056.4400787565341
 21
1607.3745230006491
 31
0.0
  0
LINE
  5
141C0
  8
0
 10
2051.2871567565339
 20
1608.7540670006481
 30
0.0
 11
2053.4649277565341
 21
1606.5762960006491
 31
0.0
  0
LINE
  5
141C1
  8
0
 10
2055.0588547565339
 20
1612.525765000649
 30
0.0
 11
2057.2366257565341
 21
1610.3479960006489
 31
0.0
  0
LINE
  5
141C2
  8
0
 10
2052.0853727565341
 20
1611.729582000648
 30
0.0
 11
2051.2883167565342
 21
1608.754934000649
 31
0.0
  0
LINE
  5
141C3
  8
0
 10
2105.5292551973612
 20
1619.281813000649
 30
0.0
 11
2108.531810756534
 21
1616.2799170006481
 31
0.0
  0
LINE
  5
141C4
  8
CENTER
 10
2034.031810756534
 20
1611.1094500006479
 30
0.0
 11
2034.031810756534
 21
1537.5674500006489
 31
0.0
  0
LINE
  5
141C5
  8
CENTER
 10
2119.031810756534
 20
1611.1094500006479
 30
0.0
 11
2119.031810756534
 21
1537.5674500006489
 31
0.0
  0
LINE
  5
141C6
  8
0
 10
2108.531810756534
 20
1609.280348000648
 30
0.0
 11
2129.531810756534
 21
1609.280348000648
 31
0.0
  0
LINE
  5
141C7
  8
0
 10
2023.531810756534
 20
1609.280348000648
 30
0.0
 11
2044.531810756534
 21
1609.280348000648
 31
0.0
  0
LINE
  5
141C8
  8
CENTER
 10
2076.531810756534
 20
1623.1182390006491
 30
0.0
 11
2076.531810756534
 21
1537.5674500006489
 31
0.0
  0
LINE
  5
141C9
  8
CENTER
 10
2047.623107756534
 20
1616.1891420006491
 30
0.0
 11
2058.9374197565348
 21
1604.8748300006489
 31
0.0
  0
LINE
  5
141CA
  8
CENTER
 10
2105.4531597565342
 20
1558.3611620006491
 30
0.0
 11
2094.138845756534
 21
1569.675476000649
 31
0.0
  0
LINE
  5
141CB
  8
0
 10
2023.531810756534
 20
1539.2803330006491
 30
0.0
 11
2129.531810756534
 21
1539.2803330006491
 31
0.0
  0
LINE
  5
141CC
  8
0
 10
2047.5343663157071
 20
1619.281813000649
 30
0.0
 11
2105.5292551973612
 21
1619.281813000649
 31
0.0
  0
LINE
  5
141CD
  8
0
 10
2102.5345477565338
 20
1618.2772220006491
 30
0.0
 11
2107.534690756534
 21
1613.277743000649
 31
0.0
  0
LINE
  5
141CE
  8
0
 10
2050.5322987565341
 20
1556.2803480006489
 30
0.0
 11
2102.5320547565339
 21
1556.2803480006489
 31
0.0
  0
ARC
  5
141CF
  8
0
 10
2076.531810756534
 20
1587.280348000648
 30
0.0
 40
19.0
 50
71.525352016555729
 51
108.4746479834442
  0
ARC
  5
141D0
  8
0
 10
2076.531810756534
 20
1587.280348000648
 30
0.0
 40
19.0
 50
161.52535201660919
 51
198.4746479833907
  0
ARC
  5
141D1
  8
0
 10
2076.531810756534
 20
1587.280348000648
 30
0.0
 40
19.0
 50
251.52535201655579
 51
288.4746479834443
  0
ARC
  5
141D2
  8
0
 10
2076.531810756534
 20
1587.280348000648
 30
0.0
 40
19.0
 50
341.5253520166093
 51
18.47464798339071
  0
POLYLINE
  5
141D3
  8
0
 66
     1
 10
0.0
 20
0.0
 30
0.0
  0
VERTEX
  5
14333
  8
0
 10
2070.510995476363
 20
1605.3011632808179
 30
0.0
  0
VERTEX
  5
14334
  8
0
 10
2058.510995476362
 20
1593.30116328082
 30
0.0
  0
SEQEND
  5
14335
  8
0
  0
POLYLINE
  5
141D4
  8
0
 66
     1
 10
0.0
 20
0.0
 30
0.0
  0
VERTEX
  5
14336
  8
0
 10
2058.510995476362
 20
1581.259532720477
 30
0.0
  0
VERTEX
  5
14337
  8
0
 10
2070.510995476363
 20
1569.259532720477
 30
0.0
  0
SEQEND
  5
14338
  8
0
  0
POLYLINE
  5
141D5
  8
0
 66
     1
 10
0.0
 20
0.0
 30
0.0
  0
VERTEX
  5
14339
  8
0
 10
2082.552626036706
 20
1569.259532720477
 30
0.0
  0
VERTEX
  5
1433A
  8
0
 10
2094.552626036706
 20
1581.2595327204749
 30
0.0
  0
SEQEND
  5
1433B
  8
0
  0
POLYLINE
  5
141D6
  8
0
 66
     1
 10
0.0
 20
0.0
 30
0.0
  0
VERTEX
  5
1433C
  8
0
 10
2094.552626036706
 20
1593.3011632808179
 30
0.0
  0
VERTEX
  5
1433D
  8
0
 10
2082.552626036706
 20
1605.3011632808159
 30
0.0
  0
SEQEND
  5
1433E
  8
0
  0
ARC
  5
141D7
  8
HIDE
 10
2076.531810756534
 20
1587.280348000648
 30
0.0
 40
12.5
 50
270.0
 51
180.0
  0
CIRCLE
  5
141D8
  8
0
 10
2076.531810756534
 20
1587.280348000648
 30
0.0
 40
11.75
  0
LINE
  5
141D9
  8
CENTER
 10
2021.531810756534
 20
1587.280348000648
 30
0.0
 11
2131.531810756534
 21
1587.280348000648
 31
0.0
  0
LINE
  5
141DA
  8
HIDE
 10
2073.531810756534
 20
1606.0420110399421
 30
0.0
 11
2073.531810756534
 21
1598.6409157681501
 31
0.0
  0
LINE
  5
141DB
  8
HIDE
 10
2074.031810756534
 20
1606.1151562024861
 30
0.0
 11
2074.031810756534
 21
1598.7613105038531
 31
0.0
  0
LINE
  5
141DC
  8
HIDE
 10
2079.531810756534
 20
1606.0420110399421
 30
0.0
 11
2079.531810756534
 21
1598.640915768151
 31
0.0
  0
LINE
  5
141DD
  8
HIDE
 10
2079.031810756534
 20
1606.1151562024861
 30
0.0
 11
2079.031810756534
 21
1598.7613105038531
 31
0.0
  0
LINE
  5
141DE
  8
HIDE
 10
2073.531810756534
 20
1605.9851023068411
 30
0.0
 11
2079.531810756534
 21
1605.9851023068411
 31
0.0
  0
LINE
  5
141DF
  8
HIDE
 10
2073.531810756534
 20
1600.9851023068411
 30
0.0
 11
2079.531810756534
 21
1600.9851023068411
 31
0.0
  0
LINE
  5
141E0
  8
HIDE
 10
2073.531810756534
 20
1600.9851023068411
 30
0.0
 11
2074.031810756534
 21
1600.696427172247
 31
0.0
  0
LINE
  5
141E1
  8
HIDE
 10
2079.531810756534
 20
1600.9851023068411
 30
0.0
 11
2079.031810756534
 21
1600.696427172247
 31
0.0
  0
LINE
  5
141E2
  8
HIDE
 10
2079.031810756534
 20
1600.696427172247
 30
0.0
 11
2074.031810756534
 21
1600.696427172247
 31
0.0
  0
LINE
  5
141E3
  8
HIDE
 10
2073.531810756534
 20
1568.5186849613549
 30
0.0
 11
2073.531810756534
 21
1575.9197802331471
 31
0.0
  0
LINE
  5
141E4
  8
HIDE
 10
2074.031810756534
 20
1568.4455397988111
 30
0.0
 11
2074.031810756534
 21
1575.7993854974441
 31
0.0
  0
LINE
  5
141E5
  8
HIDE
 10
2079.531810756534
 20
1568.5186849613549
 30
0.0
 11
2079.531810756534
 21
1575.919780233146
 31
0.0
  0
LINE
  5
141E6
  8
HIDE
 10
2079.031810756534
 20
1568.4455397988111
 30
0.0
 11
2079.031810756534
 21
1575.7993854974441
 31
0.0
  0
LINE
  5
141E7
  8
HIDE
 10
2073.531810756534
 20
1568.5755936944561
 30
0.0
 11
2079.531810756534
 21
1568.5755936944561
 31
0.0
  0
LINE
  5
141E8
  8
HIDE
 10
2073.531810756534
 20
1573.5755936944561
 30
0.0
 11
2079.531810756534
 21
1573.5755936944561
 31
0.0
  0
LINE
  5
141E9
  8
HIDE
 10
2073.531810756534
 20
1573.5755936944561
 30
0.0
 11
2074.031810756534
 21
1573.8642688290499
 31
0.0
  0
LINE
  5
141EA
  8
HIDE
 10
2079.531810756534
 20
1573.5755936944561
 30
0.0
 11
2079.031810756534
 21
1573.8642688290499
 31
0.0
  0
LINE
  5
141EB
  8
HIDE
 10
2079.031810756534
 20
1573.8642688290499
 30
0.0
 11
2074.031810756534
 21
1573.8642688290499
 31
0.0
  0
LINE
  5
141EC
  8
CENTER
 10
2112.5318117565339
 20
1554.2803330006491
 30
0.0
 11
2125.5318097565341
 21
1554.2803330006491
 31
0.0
  0
LINE
  5
141ED
  8
CENTER
 10
2027.531811756535
 20
1554.2803330006491
 30
0.0
 11
2040.5318097565339
 21
1554.2803330006491
 31
0.0
  0
ENDSEC
  0
EOF
