  0
SECTION
  2
HEADER
  9
$ACADVER
  1
AC1009
  9
$INSBASE
 10
0.0
 20
0.0
 30
0.0
  9
$EXTMIN
 10
1903.0405749290021
 20
1433.173578249188
 30
0.0
  9
$EXTMAX
 10
2348.540574929003
 20
1748.173578249188
 30
0.0
  9
$LIMMIN
 10
0.0
 20
0.0
  9
$LIMMAX
 10
12.0
 20
9.0
  9
$ORTHOMODE
 70
     1
  9
$REGENMODE
 70
     1
  9
$FILLMODE
 70
     1
  9
$QTEXTMODE
 70
     0
  9
$MIRRTEXT
 70
     0
  9
$DRAGMODE
 70
     2
  9
$LTSCALE
 40
5.0
  9
$OSMODE
 70
  2495
  9
$ATTMODE
 70
     1
  9
$TEXTSIZE
 40
2.5
  9
$TRACEWID
 40
0.05
  9
$TEXTSTYLE
  7
BIG
  9
$CLAYER
  8
0
  9
$CELTYPE
  6
BYLAYER
  9
$CECOLOR
 62
   256
  9
$DIMSCALE
 40
1.0
  9
$DIMASZ
 40
3.0
  9
$DIMEXO
 40
1.0
  9
$DIMDLI
 40
0.0
  9
$DIMRND
 40
0.0
  9
$DIMDLE
 40
0.0
  9
$DIMEXE
 40
1.0
  9
$DIMTP
 40
0.0
  9
$DIMTM
 40
0.0
  9
$DIMTXT
 40
3.0
  9
$DIMCEN
 40
0.0
  9
$DIMTSZ
 40
0.0
  9
$DIMTOL
 70
     0
  9
$DIMLIM
 70
     0
  9
$DIMTIH
 70
     0
  9
$DIMTOH
 70
     0
  9
$DIMSE1
 70
     0
  9
$DIMSE2
 70
     0
  9
$DIMTAD
 70
     1
  9
$DIMZIN
 70
     8
  9
$DIMBLK
  1

  9
$DIMASO
 70
     1
  9
$DIMSHO
 70
     1
  9
$DIMPOST
  1

  9
$DIMAPOST
  1

  9
$DIMALT
 70
     0
  9
$DIMALTD
 70
     2
  9
$DIMALTF
 40
25.399999999999999
  9
$DIMLFAC
 40
1.0
  9
$DIMTOFL
 70
     1
  9
$DIMTVP
 40
0.0
  9
$DIMTIX
 70
     1
  9
$DIMSOXD
 70
     0
  9
$DIMSAH
 70
     0
  9
$DIMBLK1
  1

  9
$DIMBLK2
  1

  9
$DIMSTYLE
  2
DUKITEC
  9
$DIMCLRD
 70
     5
  9
$DIMCLRE
 70
     5
  9
$DIMCLRT
 70
     0
  9
$DIMTFAC
 40
1.0
  9
$DIMGAP
 40
1.0
  9
$LUNITS
 70
     2
  9
$LUPREC
 70
     4
  9
$SKETCHINC
 40
0.1
  9
$FILLETRAD
 40
0.2
  9
$AUNITS
 70
     0
  9
$AUPREC
 70
     0
  9
$MENU
  1
.
  9
$ELEVATION
 40
0.0
  9
$PELEVATION
 40
0.0
  9
$THICKNESS
 40
0.0
  9
$LIMCHECK
 70
     0
  9
$BLIPMODE
 70
     0
  9
$CHAMFERA
 40
0.5
  9
$CHAMFERB
 40
0.5
  9
$SKPOLY
 70
     0
  9
$TDCREATE
 40
2454396.694968171
  9
$TDUPDATE
 40
2457375.4991335999
  9
$TDINDWG
 40
0.087523287
  9
$TDUSRTIMER
 40
0.0875231713
  9
$USRTIMER
 70
     1
  9
$ANGBASE
 50
0.0
  9
$ANGDIR
 70
     0
  9
$PDMODE
 70
     0
  9
$PDSIZE
 40
0.0
  9
$PLINEWID
 40
0.0
  9
$COORDS
 70
     1
  9
$SPLFRAME
 70
     0
  9
$SPLINETYPE
 70
     6
  9
$SPLINESEGS
 70
     8
  9
$ATTDIA
 70
     0
  9
$ATTREQ
 70
     1
  9
$HANDLING
 70
     1
  9
$HANDSEED
  5
147B2
  9
$SURFTAB1
 70
     6
  9
$SURFTAB2
 70
     6
  9
$SURFTYPE
 70
     6
  9
$SURFU
 70
     6
  9
$SURFV
 70
     6
  9
$UCSNAME
  2

  9
$UCSORG
 10
0.0
 20
0.0
 30
0.0
  9
$UCSXDIR
 10
1.0
 20
0.0
 30
0.0
  9
$UCSYDIR
 10
0.0
 20
1.0
 30
0.0
  9
$PUCSNAME
  2

  9
$PUCSORG
 10
0.0
 20
0.0
 30
0.0
  9
$PUCSXDIR
 10
1.0
 20
0.0
 30
0.0
  9
$PUCSYDIR
 10
0.0
 20
1.0
 30
0.0
  9
$USERI1
 70
     0
  9
$USERI2
 70
     0
  9
$USERI3
 70
     0
  9
$USERI4
 70
     0
  9
$USERI5
 70
     0
  9
$USERR1
 40
0.0
  9
$USERR2
 40
0.0
  9
$USERR3
 40
0.0
  9
$USERR4
 40
0.0
  9
$USERR5
 40
0.0
  9
$WORLDVIEW
 70
     1
  9
$SHADEDGE
 70
     3
  9
$SHADEDIF
 70
    70
  9
$TILEMODE
 70
     1
  9
$MAXACTVP
 70
    64
  9
$PLIMCHECK
 70
     0
  9
$PEXTMIN
 10
0.0
 20
0.0
 30
0.0
  9
$PEXTMAX
 10
0.0
 20
0.0
 30
0.0
  9
$PLIMMIN
 10
0.0
 20
0.0
  9
$PLIMMAX
 10
12.0
 20
9.0
  9
$UNITMODE
 70
     0
  9
$VISRETAIN
 70
     1
  9
$PLINEGEN
 70
     0
  9
$PSLTSCALE
 70
     1
  0
ENDSEC
  0
SECTION
  2
TABLES
  0
TABLE
  2
VPORT
 70
     1
  0
VPORT
  2
*ACTIVE
 70
     0
 10
0.0
 20
0.0
 11
1.0
 21
1.0
 12
2133.6671210773261
 22
1575.771592721467
 13
0.0
 23
0.0
 14
0.5
 24
0.5
 15
0.5
 25
0.5
 16
0.0
 26
0.0
 36
1.0
 17
0.0
 27
0.0
 37
0.0
 40
324.94110342294988
 41
2.2949367088607588
 42
50.0
 43
0.0
 44
0.0
 50
0.0
 51
0.0
 71
     0
 72
  2000
 73
     1
 74
     3
 75
     0
 76
     0
 77
     0
 78
     0
  0
ENDTAB
  0
TABLE
  2
LTYPE
 70
     4
  0
LTYPE
  2
CONTINUOUS
 70
     0
  3
Solid line
 72
    65
 73
     0
 40
0.0
  0
LTYPE
  2
PHANTOM2
 70
     0
  3
Phantom (.5x) ___ _ _ ___ _ _ ___ _ _ ___ _ _
 72
    65
 73
     6
 40
1.25
 49
0.625
 49
-0.125
 49
0.125
 49
-0.125
 49
0.125
 49
-0.125
  0
LTYPE
  2
CENTER
 70
     0
  3
___ _ ___ _ ___ _ ___ _ ___ _ ___ _ ___ _ ___ _
 72
    65
 73
     4
 40
0.95
 49
0.625
 49
-0.125
 49
0.075
 49
-0.125
  0
LTYPE
  2
DASHED2
 70
     0
  3
Dashed (.5x) _ _ _ _ _ _ _ _ _ _ _ _ _ _ _ _ _
 72
    65
 73
     2
 40
0.375
 49
0.25
 49
-0.125
  0
ENDTAB
  0
TABLE
  2
LAYER
 70
     5
  0
LAYER
  2
0
 70
     0
 62
     7
  6
CONTINUOUS
  0
LAYER
  2
HIDE
 70
     0
 62
     1
  6
DASHED2
  0
LAYER
  2
CENTER
 70
     0
 62
     3
  6
CENTER
  0
LAYER
  2
DEFPOINTS
 70
     0
 62
     7
  6
CONTINUOUS
  0
LAYER
  2
FONT
 70
     0
 62
     2
  6
CONTINUOUS
  0
ENDTAB
  0
TABLE
  2
STYLE
 70
    10
  0
STYLE
  2
STANDARD
 70
     0
 40
5.0
 41
1.0
 50
0.0
 71
     0
 42
5.0
  3
txt.shx
  4
whgtxt.shx
  0
STYLE
  2
BIG
 70
     0
 40
20.0
 41
1.0
 50
0.0
 71
     0
 42
2.5
  3
txt
  4

  0
STYLE
  2
DUKI2-1
 70
     0
 40
4.0
 41
1.0
 50
0.0
 71
     0
 42
4.0
  3
txt
  4

  0
STYLE
  2
DUKI_1
 70
     0
 40
2.0
 41
1.0
 50
0.0
 71
     0
 42
2.0
  3
txt
  4

  0
STYLE
  2
DUKI_2
 70
     0
 40
3.0
 41
1.0
 50
0.0
 71
     0
 42
3.0
  3
txt
  4

  0
STYLE
  2
DUKI_3
 70
     0
 40
6.0
 41
1.0
 50
0.0
 71
     0
 42
6.0
  3
txt
  4

  0
STYLE
  2
DUKI2-5
 70
     0
 40
5.0
 41
1.0
 50
0.0
 71
     0
 42
5.0
  3
txt
  4

  0
STYLE
  2
DUKI5
 70
     0
 40
11.0
 41
1.0
 50
0.0
 71
     0
 42
11.0
  3
txt
  4

  0
STYLE
  2
DUKI7
 70
     0
 40
20.0
 41
1.0
 50
0.0
 71
     0
 42
20.0
  3
txt
  4

  0
STYLE
  2
DUKI1-5
 70
     0
 40
2.5
 41
1.0
 50
0.0
 71
     0
 42
2.5
  3
txt
  4

  0
ENDTAB
  0
TABLE
  2
VIEW
 70
     0
  0
ENDTAB
  0
TABLE
  2
UCS
 70
     0
  0
ENDTAB
  0
TABLE
  2
APPID
 70
    16
  0
APPID
  2
ACAD
 70
     0
  0
APPID
  2
ACADANNOTATIVE
 70
     0
  0
APPID
  2
ACAD_EXEMPT_FROM_CAD_STANDARDS
 70
     0
  0
APPID
  2
ACAD_DSTYLE_DIMJOGGED_JOGA
 70
     0
  0
APPID
  2
ACAD_PSEXT
 70
     0
  0
APPID
  2
ACAECLAYERSTANDARD
 70
     0
  0
APPID
  2
DCO15
 70
     0
  0
APPID
  2
CONTENTBLOCKICON
 70
     0
  0
APPID
  2
ACAD_NAV_VCDISPLAY
 70
     0
  0
APPID
  2
ACAD_MLEADERVER
 70
     0
  0
APPID
  2
ACAD_DSTYLE_DIMJAG
 70
     0
  0
APPID
  2
ACAD_DSTYLE_DIMBREAK
 70
     0
  0
APPID
  2
ACAD_DSTYLE_DIMTALN
 70
     0
  0
APPID
  2
ACAD_DSTYLE_DIMTEXT_FILL
 70
     0
  0
APPID
  2
ACAD_DSTYLE_DIMRADIAL_EXTENSION
 70
     0
  0
APPID
  2
ACDBDYNAMICBLOCKTRUENAME2
 70
     0
  0
ENDTAB
  0
TABLE
  2
DIMSTYLE
 70
     7
  0
DIMSTYLE
  2
DUKITEC
 70
     0
  3

  4

  5

  6

  7

 40
1.0
 41
3.0
 42
1.0
 43
0.0
 44
1.0
 45
0.0
 46
0.0
 47
0.0
 48
0.0
140
3.0
141
0.0
142
0.0
143
25.399999999999999
144
1.0
145
0.0
146
1.0
147
1.0
 71
     0
 72
     0
 73
     0
 74
     0
 75
     0
 76
     0
 77
     1
 78
     8
170
     0
171
     2
172
     1
173
     0
174
     1
175
     0
176
     5
177
     5
178
     0
  0
DIMSTYLE
  2
DUKI2
 70
     0
  3

  4

  5

  6

  7

 40
1.0
 41
2.0
 42
0.8
 43
1.0
 44
0.6
 45
0.0
 46
0.0
 47
0.0
 48
0.000000001
140
3.0
141
1.0
142
0.0
143
25.399999999999999
144
1.0
145
0.0
146
0.5
147
1.0
 71
     0
 72
     0
 73
     0
 74
     0
 75
     0
 76
     0
 77
     1
 78
     8
170
     0
171
     2
172
     1
173
     0
174
     0
175
     0
176
     5
177
     5
178
     2
  0
DIMSTYLE
  2
DUKI3
 70
     0
  3

  4

  5

  6

  7

 40
1.0
 41
4.0
 42
1.0
 43
1.0
 44
1.0
 45
0.0
 46
0.0
 47
0.0
 48
0.000000001
140
6.0
141
1.0
142
0.0
143
25.399999999999999
144
1.0
145
0.0
146
0.5
147
2.2000000000000002
 71
     0
 72
     0
 73
     0
 74
     0
 75
     0
 76
     0
 77
     1
 78
     8
170
     0
171
     2
172
     1
173
     0
174
     0
175
     0
176
     5
177
     5
178
     2
  0
DIMSTYLE
  2
DUKI2-5
 70
     0
  3

  4

  5

  6

  7

 40
1.0
 41
3.0
 42
1.0
 43
1.0
 44
1.0
 45
0.0
 46
0.0
 47
0.0
 48
0.000000001
140
5.0
141
1.0
142
0.0
143
25.399999999999999
144
1.0
145
0.0
146
0.5
147
1.6000000000000001
 71
     0
 72
     0
 73
     0
 74
     0
 75
     0
 76
     0
 77
     1
 78
     8
170
     0
171
     2
172
     1
173
     0
174
     0
175
     0
176
     5
177
     5
178
     2
  0
DIMSTYLE
  2
DUKI5
 70
     0
  3

  4

  5

  6

  7

 40
1.0
 41
6.0
 42
2.0
 43
1.0
 44
1.0
 45
0.0
 46
0.0
 47
0.0
 48
0.000000001
140
11.0
141
1.0
142
0.0
143
25.399999999999999
144
1.0
145
0.0
146
0.5
147
3.399999999999999
 71
     0
 72
     0
 73
     0
 74
     0
 75
     0
 76
     0
 77
     1
 78
     8
170
     0
171
     2
172
     1
173
     0
174
     0
175
     0
176
     5
177
     5
178
     2
  0
DIMSTYLE
  2
DUKI7
 70
     0
  3

  4

  5

  6

  7

 40
1.0
 41
14.0
 42
9.0
 43
1.0
 44
4.0
 45
0.0
 46
0.0
 47
0.0
 48
0.000000001
140
20.0
141
1.0
142
0.0
143
25.399999999999999
144
1.0
145
0.0
146
0.5
147
7.0
 71
     0
 72
     0
 73
     0
 74
     0
 75
     0
 76
     0
 77
     1
 78
     8
170
     0
171
     2
172
     1
173
     0
174
     0
175
     0
176
     5
177
     5
178
     2
  0
DIMSTYLE
  2
DUKI1-5
 70
     0
  3

  4

  5

  6

  7

 40
1.0
 41
1.8
 42
0.5
 43
1.0
 44
0.5
 45
0.0
 46
0.0
 47
0.0
 48
0.000000001
140
2.5
141
1.0
142
0.0
143
25.399999999999999
144
1.0
145
0.0
146
0.5
147
0.8
 71
     0
 72
     0
 73
     0
 74
     0
 75
     0
 76
     0
 77
     1
 78
     8
170
     0
171
     2
172
     1
173
     0
174
     0
175
     0
176
     5
177
     5
178
     2
  0
ENDTAB
  0
ENDSEC
  0
SECTION
  2
BLOCKS
  0
BLOCK
  8
0
  2
$MODEL_SPACE
 70
     0
 10
0.0
 20
0.0
 30
0.0
  3
$MODEL_SPACE
  1

  0
ENDBLK
  5
14348
  8
0
  0
BLOCK
 67
     1
  8
0
  2
$PAPER_SPACE
 70
     0
 10
0.0
 20
0.0
 30
0.0
  3
$PAPER_SPACE
  1

  0
ENDBLK
  5
14344
 67
     1
  8
0
  0
ENDSEC
  0
SECTION
  2
ENTITIES
  0
POLYLINE
  5
13E1C
  8
0
 66
     1
 10
0.0
 20
0.0
 30
0.0
 70
     1
  0
VERTEX
  5
14770
  8
0
 10
1903.0405749290021
 20
1433.173578249188
 30
0.0
  0
VERTEX
  5
14771
  8
0
 10
1903.0405749290021
 20
1748.173578249188
 30
0.0
  0
VERTEX
  5
14772
  8
0
 10
2348.540574929003
 20
1748.173578249188
 30
0.0
  0
VERTEX
  5
14773
  8
0
 10
2348.540574929003
 20
1433.173578249188
 30
0.0
  0
VERTEX
  5
14774
  8
0
 10
1903.0405749290021
 20
1433.173578249188
 30
0.0
  0
SEQEND
  5
14775
  8
0
  0
TEXT
  5
14037
  8
0
 10
2092.7934526313879
 20
1442.4146097948039
 30
0.0
 40
20.0
  1
BK40
  7
BIG
  0
LINE
  5
1417E
  8
HIDE
 10
2251.172682297748
 20
1528.0676156444761
 30
0.0
 11
2267.1726822977448
 21
1528.0676156444761
 31
0.0
  0
LINE
  5
1417F
  8
HIDE
 10
2303.1726822977448
 20
1528.0676156444761
 30
0.0
 11
2319.1726822977448
 21
1528.0676156444761
 31
0.0
  0
LINE
  5
14180
  8
HIDE
 10
2251.1726822977471
 20
1568.0676156444761
 30
0.0
 11
2267.1726822977448
 21
1568.0676156444761
 31
0.0
  0
LINE
  5
14181
  8
HIDE
 10
2303.1726822977448
 20
1568.0676156444761
 30
0.0
 11
2319.1726822977448
 21
1568.0676156444761
 31
0.0
  0
LINE
  5
14182
  8
0
 10
2240.1726522977451
 20
1596.5676151881271
 30
0.0
 11
2258.1726522977451
 21
1596.5676151881271
 31
0.0
  0
LINE
  5
14183
  8
0
 10
2240.1726522977451
 20
1499.5676156444761
 30
0.0
 11
2258.1726522977451
 21
1499.5676156444761
 31
0.0
  0
LINE
  5
14184
  8
0
 10
2258.1726522977451
 20
1578.0676156444761
 30
0.0
 11
2319.1726822977448
 21
1578.0676156444761
 31
0.0
  0
LINE
  5
14185
  8
0
 10
2258.1726522977451
 20
1593.0677986444759
 30
0.0
 11
2319.1726822977448
 21
1593.0677986444759
 31
0.0
  0
LINE
  5
14186
  8
0
 10
2240.1726522977451
 20
1499.5676156444761
 30
0.0
 11
2240.1726522977451
 21
1596.5676151881271
 31
0.0
  0
LINE
  5
14187
  8
CENTER
 10
2226.7585266508072
 20
1548.0676156444761
 30
0.0
 11
2325.949062703738
 21
1548.0676156444761
 31
0.0
  0
LINE
  5
14188
  8
HIDE
 10
2251.1726822977448
 20
1524.0676156444749
 30
0.0
 11
2267.1726822977439
 21
1524.0676156444761
 31
0.0
  0
LINE
  5
14189
  8
HIDE
 10
2303.1726822977448
 20
1524.0676156444761
 30
0.0
 11
2319.1726822977448
 21
1524.0676156444761
 31
0.0
  0
LINE
  5
1418A
  8
HIDE
 10
2251.1726822977448
 20
1572.0676156444761
 30
0.0
 11
2267.1726822977439
 21
1572.0676156444761
 31
0.0
  0
LINE
  5
1418B
  8
HIDE
 10
2303.1726822977448
 20
1572.0676156444761
 30
0.0
 11
2319.1726822977448
 21
1572.0676156444761
 31
0.0
  0
LINE
  5
1418C
  8
0
 10
2258.1726522977451
 20
1488.0676156444761
 30
0.0
 11
2319.1726822977448
 21
1488.0676156444761
 31
0.0
  0
LINE
  5
1418D
  8
0
 10
2258.1726522977451
 20
1598.0676156444761
 30
0.0
 11
2319.1726822977448
 21
1598.0676156444761
 31
0.0
  0
LINE
  5
1418E
  8
0
 10
2319.1726822977448
 20
1488.0676156444761
 30
0.0
 11
2319.1726822977448
 21
1598.0676156444761
 31
0.0
  0
LINE
  5
1418F
  8
0
 10
2258.1726522977451
 20
1488.0676156444761
 30
0.0
 11
2258.1726522977451
 21
1598.0676156444761
 31
0.0
  0
CIRCLE
  5
14190
  8
HIDE
 10
2294.1726822977448
 20
1518.0676156444761
 30
0.0
 40
6.0
  0
CIRCLE
  5
14191
  8
HIDE
 10
2294.1726822977448
 20
1578.0676156444761
 30
0.0
 40
6.0
  0
CIRCLE
  5
14192
  8
HIDE
 10
2276.1726822977471
 20
1518.0676156444761
 30
0.0
 40
6.0
  0
CIRCLE
  5
14193
  8
HIDE
 10
2276.1726822977471
 20
1578.0676156444761
 30
0.0
 40
6.0
  0
ARC
  5
14194
  8
HIDE
 10
2284.5726822977449
 20
1587.4676156444759
 30
0.0
 40
0.6000000000000015
 50
0.0
 51
90.0
  0
ARC
  5
14195
  8
HIDE
 10
2268.2726822977452
 20
1586.9676156444759
 30
0.0
 40
1.1000000000000001
 50
90.0
 51
180.0
  0
ARC
  5
14196
  8
HIDE
 10
2284.0726822977449
 20
1569.167615644476
 30
0.0
 40
1.1000000000000001
 50
270.0
 51
0.0
  0
ARC
  5
14197
  8
HIDE
 10
2284.0726822977449
 20
1526.967615644475
 30
0.0
 40
1.1000000000000001
 50
0.0
 51
90.0
  0
ARC
  5
14198
  8
HIDE
 10
2267.7726822977452
 20
1568.667615644476
 30
0.0
 40
0.6000000000000015
 50
180.0
 51
270.0
  0
ARC
  5
14199
  8
HIDE
 10
2267.7726822977452
 20
1527.467615644475
 30
0.0
 40
0.6000000000000015
 50
90.0
 51
180.0
  0
ARC
  5
1419A
  8
HIDE
 10
2284.5726822977449
 20
1508.667615644476
 30
0.0
 40
0.6000000000000015
 50
270.0
 51
0.0
  0
ARC
  5
1419B
  8
HIDE
 10
2268.2726822977452
 20
1509.167615644476
 30
0.0
 40
1.1000000000000001
 50
180.0
 51
270.0
  0
LINE
  5
1419C
  8
HIDE
 10
2267.1726822977448
 20
1580.617615644476
 30
0.0
 11
2270.7415222006762
 21
1580.617615644476
 31
0.0
  0
LINE
  5
1419D
  8
HIDE
 10
2268.2726822977452
 20
1588.0676156444761
 30
0.0
 11
2284.5726822977449
 21
1588.0676156444761
 31
0.0
  0
LINE
  5
1419E
  8
HIDE
 10
2285.1726822977462
 20
1575.5176156444761
 30
0.0
 11
2281.6038423948148
 21
1575.5176156444761
 31
0.0
  0
LINE
  5
1419F
  8
HIDE
 10
2278.319557941948
 20
1583.670376121984
 30
0.0
 11
2285.1726822977462
 21
1584.3176156444761
 31
0.0
  0
LINE
  5
141A0
  8
HIDE
 10
2267.1726822977448
 20
1575.5176156444761
 30
0.0
 11
2270.7415222006762
 21
1575.5176156444761
 31
0.0
  0
LINE
  5
141A1
  8
HIDE
 10
2267.1726822977448
 20
1520.617615644476
 30
0.0
 11
2270.7415222006762
 21
1520.617615644476
 31
0.0
  0
LINE
  5
141A2
  8
HIDE
 10
2267.7726822977452
 20
1568.0676156444761
 30
0.0
 11
2284.0726822977449
 21
1568.0676156444761
 31
0.0
  0
LINE
  5
141A3
  8
HIDE
 10
2267.7726822977452
 20
1528.0676156444761
 30
0.0
 11
2284.0726822977449
 21
1528.0676156444761
 31
0.0
  0
LINE
  5
141A4
  8
HIDE
 10
2285.1726822977462
 20
1520.617615644476
 30
0.0
 11
2281.6038423948148
 21
1520.617615644476
 31
0.0
  0
LINE
  5
141A5
  8
HIDE
 10
2267.1726822977448
 20
1515.5176156444761
 30
0.0
 11
2270.7415222006762
 21
1515.5176156444761
 31
0.0
  0
LINE
  5
141A6
  8
HIDE
 10
2284.5726822977449
 20
1508.0676156444761
 30
0.0
 11
2268.2726822977452
 21
1508.0676156444761
 31
0.0
  0
LINE
  5
141A7
  8
HIDE
 10
2278.319557941948
 20
1512.4648551669679
 30
0.0
 11
2285.1726822977462
 21
1511.8176156444761
 31
0.0
  0
LINE
  5
141A8
  8
HIDE
 10
2267.1726822977448
 20
1509.167615644476
 30
0.0
 11
2267.1726822977448
 21
1586.9676156444759
 31
0.0
  0
LINE
  5
141A9
  8
HIDE
 10
2285.1726822977462
 20
1587.4676156444759
 30
0.0
 11
2285.1726822977462
 21
1508.667615644476
 31
0.0
  0
LINE
  5
141AA
  8
HIDE
 10
2285.0428919525521
 20
1584.3053576674299
 30
0.0
 11
2285.1726822977462
 21
1584.435148012622
 31
0.0
  0
ARC
  5
141AB
  8
HIDE
 10
2285.7726822977452
 20
1508.667615644476
 30
0.0
 40
0.6000000000000015
 50
180.0
 51
270.0
  0
ARC
  5
141AC
  8
HIDE
 10
2302.0726822977449
 20
1509.167615644476
 30
0.0
 40
1.1000000000000001
 50
270.0
 51
0.0
  0
ARC
  5
141AD
  8
HIDE
 10
2286.2726822977452
 20
1526.9676156444759
 30
0.0
 40
1.1000000000000001
 50
90.0
 51
180.0
  0
ARC
  5
141AE
  8
HIDE
 10
2286.2726822977461
 20
1569.167615644476
 30
0.0
 40
1.1000000000000001
 50
180.0
 51
270.0
  0
ARC
  5
141AF
  8
HIDE
 10
2302.5726822977449
 20
1527.467615644475
 30
0.0
 40
0.6
 50
0.0
 51
90.0
  0
ARC
  5
141B0
  8
HIDE
 10
2302.5726822977449
 20
1568.667615644476
 30
0.0
 40
0.6000000000000015
 50
270.0
 51
0.0
  0
ARC
  5
141B1
  8
HIDE
 10
2285.7726822977461
 20
1587.4676156444759
 30
0.0
 40
0.6000000000000015
 50
90.0
 51
180.0
  0
ARC
  5
141B2
  8
HIDE
 10
2302.0726822977449
 20
1586.9676156444759
 30
0.0
 40
1.1000000000000001
 50
0.0
 51
90.0
  0
LINE
  5
141B3
  8
HIDE
 10
2303.1726822977448
 20
1515.5176156444761
 30
0.0
 11
2299.6038423948148
 21
1515.5176156444761
 31
0.0
  0
LINE
  5
141B4
  8
HIDE
 10
2302.0726822977449
 20
1508.0676156444761
 30
0.0
 11
2285.7726822977452
 21
1508.0676156444761
 31
0.0
  0
LINE
  5
141B5
  8
HIDE
 10
2285.1726822977439
 20
1520.617615644476
 30
0.0
 11
2288.7415222006762
 21
1520.617615644476
 31
0.0
  0
LINE
  5
141B6
  8
HIDE
 10
2292.0258066535421
 20
1512.4648551669679
 30
0.0
 11
2285.1726822977439
 21
1511.8176156444761
 31
0.0
  0
LINE
  5
141B7
  8
HIDE
 10
2303.1726822977448
 20
1520.617615644476
 30
0.0
 11
2299.6038423948148
 21
1520.617615644476
 31
0.0
  0
LINE
  5
141B8
  8
HIDE
 10
2303.1726822977448
 20
1575.5176156444761
 30
0.0
 11
2299.6038423948139
 21
1575.5176156444761
 31
0.0
  0
LINE
  5
141B9
  8
HIDE
 10
2302.5726822977449
 20
1528.0676156444761
 30
0.0
 11
2286.2726822977452
 21
1528.0676156444761
 31
0.0
  0
LINE
  5
141BA
  8
HIDE
 10
2302.5726822977449
 20
1568.0676156444761
 30
0.0
 11
2286.2726822977461
 21
1568.0676156444761
 31
0.0
  0
LINE
  5
141BB
  8
HIDE
 10
2285.1726822977462
 20
1575.5176156444761
 30
0.0
 11
2288.7415222006762
 21
1575.5176156444761
 31
0.0
  0
LINE
  5
141BC
  8
HIDE
 10
2303.1726822977448
 20
1580.617615644476
 30
0.0
 11
2299.6038423948139
 21
1580.617615644476
 31
0.0
  0
LINE
  5
141BD
  8
HIDE
 10
2285.7726822977461
 20
1588.0676156444761
 30
0.0
 11
2302.0726822977458
 21
1588.0676156444761
 31
0.0
  0
LINE
  5
141BE
  8
HIDE
 10
2292.0258066535421
 20
1583.670376121984
 30
0.0
 11
2285.1726822977462
 21
1584.3176156444761
 31
0.0
  0
LINE
  5
141BF
  8
HIDE
 10
2303.1726822977448
 20
1586.9676156444759
 30
0.0
 11
2303.1726822977448
 21
1509.167615644476
 31
0.0
  0
LINE
  5
141C0
  8
HIDE
 10
2285.1726822977462
 20
1584.435148012622
 30
0.0
 11
2285.3024726429389
 21
1584.3053576674299
 31
0.0
  0
LINE
  5
141C1
  8
CENTER
 10
2272.1726522977451
 20
1503.067615644474
 30
0.0
 11
2272.1726522977451
 21
1469.3711803979179
 31
0.0
  0
LINE
  5
141C2
  8
CENTER
 10
2305.1726522977451
 20
1503.067615644474
 30
0.0
 11
2305.1726522977451
 21
1469.3711803979179
 31
0.0
  0
LINE
  5
141F4
  8
HIDE
 10
2034.6498076799021
 20
1578.0676156444761
 30
0.0
 11
2034.6498076799021
 21
1560.5676156444761
 31
0.0
  0
LINE
  5
141F5
  8
HIDE
 10
2030.6498076799021
 20
1560.5676156444761
 30
0.0
 11
2030.6498076799021
 21
1488.0676156444761
 31
0.0
  0
LINE
  5
141F6
  8
HIDE
 10
2008.6498076799021
 20
1578.0676156444761
 30
0.0
 11
2008.6498076799021
 21
1560.5676156444761
 31
0.0
  0
LINE
  5
141F7
  8
HIDE
 10
2012.6498076799021
 20
1560.5676156444761
 30
0.0
 11
2012.6498076799021
 21
1488.0676156444761
 31
0.0
  0
LINE
  5
141F8
  8
HIDE
 10
2008.6498076799021
 20
1560.5676156444761
 30
0.0
 11
2034.6498076799021
 21
1560.5676156444761
 31
0.0
  0
LINE
  5
141F9
  8
HIDE
 10
2138.6498076799021
 20
1560.5676156444761
 30
0.0
 11
2164.6498076799021
 21
1560.5676156444761
 31
0.0
  0
LINE
  5
141FA
  8
HIDE
 10
2164.6498076799021
 20
1578.0676156444761
 30
0.0
 11
2164.6498076799021
 21
1560.5676156444761
 31
0.0
  0
LINE
  5
141FB
  8
HIDE
 10
2160.6498076799021
 20
1560.5676156444761
 30
0.0
 11
2160.6498076799021
 21
1488.0676156444761
 31
0.0
  0
LINE
  5
141FC
  8
HIDE
 10
2142.6498076799021
 20
1560.5676156444761
 30
0.0
 11
2142.6498076799021
 21
1488.0676156444761
 31
0.0
  0
LINE
  5
141FD
  8
HIDE
 10
2138.6498076799021
 20
1578.0676156444761
 30
0.0
 11
2138.6498076799021
 21
1560.5676156444761
 31
0.0
  0
ARC
  5
141FE
  8
CENTER
 10
2086.6498076799021
 20
1548.0676156444761
 30
0.0
 40
48.0
 50
121.142969352599
 51
149.51041181827679
  0
ARC
  5
141FF
  8
CENTER
 10
2086.6498076799021
 20
1548.0676156444761
 30
0.0
 40
48.0
 50
31.266883580372848
 51
60.55864706133395
  0
ARC
  5
14200
  8
CENTER
 10
2086.6498076799021
 20
1548.0676156444761
 30
0.0
 40
48.0
 50
301.35560314831548
 51
329.56246671233401
  0
CIRCLE
  5
14201
  8
0
 10
2086.6498076799021
 20
1548.0676156444761
 30
0.0
 40
33.0
  0
CIRCLE
  5
14202
  8
0
 10
2052.7088896799019
 20
1514.126392644476
 30
0.0
 40
9.0
  0
CIRCLE
  5
14203
  8
0
 10
2120.590725679901
 20
1514.1264836444759
 30
0.0
 40
9.0
  0
CIRCLE
  5
14204
  8
0
 10
2120.591213679902
 20
1582.008655644476
 30
0.0
 40
9.0
  0
CIRCLE
  5
14205
  8
0
 10
2052.7088896799019
 20
1582.008716644476
 30
0.0
 40
9.0
  0
ARC
  5
14206
  8
0
 10
2086.6498076799021
 20
1548.0676156444761
 30
0.0
 40
60.0
 50
126.0665999999939
 51
143.9333999999954
  0
ARC
  5
14207
  8
0
 10
2086.6498076799021
 20
1548.0676156444761
 30
0.0
 40
60.0
 50
216.06660000000451
 51
233.9334499999905
  0
ARC
  5
14208
  8
0
 10
2086.6498076799021
 20
1548.0676156444761
 30
0.0
 40
60.0
 50
306.06658999998967
 51
323.9334099999997
  0
ARC
  5
14209
  8
0
 10
2086.6498076799021
 20
1548.0676156444761
 30
0.0
 40
60.0
 50
36.06658900001657
 51
53.933410999983437
  0
CIRCLE
  5
1420A
  8
0
 10
2151.6498076799021
 20
1511.0676156444761
 30
0.0
 40
7.0
  0
CIRCLE
  5
1420B
  8
0
 10
2151.6498076799021
 20
1548.0676156444761
 30
0.0
 40
7.0
  0
CIRCLE
  5
1420C
  8
0
 10
2021.6498076799021
 20
1511.0676156444761
 30
0.0
 40
7.0
  0
CIRCLE
  5
1420D
  8
0
 10
2021.6498076799021
 20
1548.0676156444761
 30
0.0
 40
7.0
  0
ARC
  5
1420E
  8
CENTER
 10
2086.6498076799021
 20
1548.0676156444761
 30
0.0
 40
48.0
 50
210.94626485593929
 51
239.1637643721304
  0
LINE
  5
1420F
  8
CENTER
 10
2043.8417786799021
 20
1590.875835644476
 30
0.0
 11
2061.5760296799021
 21
1573.1415846444761
 31
0.0
  0
LINE
  5
14210
  8
CENTER
 10
2111.7241046799031
 20
1573.141529644475
 30
0.0
 11
2129.458332679902
 21
1590.875759644475
 31
0.0
  0
LINE
  5
14211
  8
CENTER
 10
2111.7236196799031
 20
1522.9936046444759
 30
0.0
 11
2129.457871679901
 21
1505.2593536444761
 31
0.0
  0
LINE
  5
14212
  8
CENTER
 10
2043.841755679902
 20
1505.259265644476
 30
0.0
 11
2061.576006679903
 21
1522.9935166444759
 31
0.0
  0
LINE
  5
14213
  8
0
 10
2124.2653206799018
 20
1585.682437644474
 30
0.0
 11
2125.6100926799031
 21
1580.6636776444759
 31
0.0
  0
LINE
  5
14214
  8
0
 10
2125.609554679902
 20
1580.6639676444761
 30
0.0
 11
2121.9348796799031
 21
1576.9892926444761
 31
0.0
  0
LINE
  5
14215
  8
0
 10
2116.917007679901
 20
1578.334041644476
 30
0.0
 11
2121.9352956799021
 21
1576.989397644476
 31
0.0
  0
LINE
  5
14216
  8
0
 10
2115.5718636799029
 20
1583.353534644476
 30
0.0
 11
2116.9167616799018
 21
1578.3343066444761
 31
0.0
  0
LINE
  5
14217
  8
0
 10
2119.2452516799021
 20
1587.0275846444761
 30
0.0
 11
2115.571264679902
 21
1583.3535996444759
 31
0.0
  0
LINE
  5
14218
  8
0
 10
2119.2459076799018
 20
1587.027500644476
 30
0.0
 11
2124.2651376799031
 21
1585.6826016444761
 31
0.0
  0
LINE
  5
14219
  8
0
 10
2124.2646526799031
 20
1510.4521336444759
 30
0.0
 11
2119.2458956799019
 21
1509.107364644475
 31
0.0
  0
LINE
  5
1421A
  8
0
 10
2119.245972679902
 20
1509.107681644475
 30
0.0
 11
2115.5712536799019
 21
1512.782398644476
 31
0.0
  0
LINE
  5
1421B
  8
0
 10
2116.916235679902
 20
1517.800436644475
 30
0.0
 11
2115.571590679901
 21
1512.7821506444759
 31
0.0
  0
LINE
  5
1421C
  8
0
 10
2121.9357536799021
 20
1519.1455936444761
 30
0.0
 11
2116.9165236799031
 21
1517.800695644476
 31
0.0
  0
LINE
  5
1421D
  8
0
 10
2125.609589679902
 20
1515.4719846444759
 30
0.0
 11
2121.935558679902
 21
1519.1460156444759
 31
0.0
  0
LINE
  5
1421E
  8
0
 10
2125.609695679902
 20
1515.4715346444759
 30
0.0
 11
2124.2647976799021
 21
1510.452304644476
 31
0.0
  0
LINE
  5
1421F
  8
0
 10
2049.034325679901
 20
1510.4527966444759
 30
0.0
 11
2047.689552679901
 21
1515.471553644476
 31
0.0
  0
LINE
  5
14220
  8
0
 10
2047.6896936799019
 20
1515.471336644476
 30
0.0
 11
2051.3643686799019
 21
1519.1460136444759
 31
0.0
  0
LINE
  5
14221
  8
0
 10
2056.3826126799022
 20
1517.801210644476
 30
0.0
 11
2051.364327679903
 21
1519.145856644476
 31
0.0
  0
LINE
  5
14222
  8
0
 10
2057.727783679903
 20
1512.7816966444759
 30
0.0
 11
2056.382883679903
 21
1517.800924644476
 31
0.0
  0
LINE
  5
14223
  8
0
 10
2054.0539976799009
 20
1509.1077196444751
 30
0.0
 11
2057.7279836799021
 21
1512.781707644476
 31
0.0
  0
LINE
  5
14224
  8
0
 10
2054.0537116799019
 20
1509.1077536444759
 30
0.0
 11
2049.034481679902
 21
1510.452651644476
 31
0.0
  0
LINE
  5
14225
  8
0
 10
2049.0350046799031
 20
1585.683036644476
 30
0.0
 11
2054.053764679903
 21
1587.0278096444761
 31
0.0
  0
LINE
  5
14226
  8
0
 10
2054.0535476799018
 20
1587.0278126444759
 30
0.0
 11
2057.728222679902
 21
1583.353137644476
 31
0.0
  0
LINE
  5
14227
  8
0
 10
2056.383314679902
 20
1578.3345566444759
 30
0.0
 11
2057.7280716799019
 21
1583.353256644476
 31
0.0
  0
LINE
  5
14228
  8
0
 10
2051.3639076799031
 20
1576.9895786444761
 30
0.0
 11
2056.3831356799028
 21
1578.3344766444759
 31
0.0
  0
LINE
  5
14229
  8
0
 10
2047.689930679903
 20
1580.663505644475
 30
0.0
 11
2051.3639156799031
 21
1576.9895216444761
 31
0.0
  0
LINE
  5
1422A
  8
0
 10
2047.689880679902
 20
1580.663543644476
 30
0.0
 11
2049.0348406799021
 21
1585.6830106444761
 31
0.0
  0
LINE
  5
1422B
  8
0
 10
2038.1498076799021
 20
1512.744098644476
 30
0.0
 11
2038.1498076799021
 21
1583.3911326444761
 31
0.0
  0
LINE
  5
1422C
  8
0
 10
2166.649807679903
 20
1488.0676156444761
 30
0.0
 11
2166.649807679903
 21
1578.0676156444761
 31
0.0
  0
LINE
  5
1422D
  8
CENTER
 10
2086.6498076799021
 20
1481.8893926444759
 30
0.0
 11
2086.6498076799021
 21
1604.442493644475
 31
0.0
  0
LINE
  5
1422E
  8
0
 10
2006.6498076799021
 20
1488.0676156444761
 30
0.0
 11
2006.6498076799021
 21
1578.0676156444761
 31
0.0
  0
LINE
  5
1422F
  8
0
 10
2006.6498076799021
 20
1488.0676156444761
 30
0.0
 11
2166.649807679903
 21
1488.0676156444761
 31
0.0
  0
LINE
  5
14230
  8
0
 10
2051.326077679902
 20
1596.5676156444761
 30
0.0
 11
2121.9735376799022
 21
1596.5676156444761
 31
0.0
  0
LINE
  5
14231
  8
0
 10
2135.1498076799021
 20
1512.744098644476
 30
0.0
 11
2135.1498076799021
 21
1583.3911326444761
 31
0.0
  0
LINE
  5
14232
  8
CENTER
 10
2001.6498076799021
 20
1548.0676156444761
 30
0.0
 11
2171.6498076799021
 21
1548.0676156444761
 31
0.0
  0
LINE
  5
14233
  8
0
 10
2041.649807679903
 20
1598.0676156444761
 30
0.0
 11
2131.6498076799021
 21
1598.0676156444761
 31
0.0
  0
LINE
  5
14234
  8
0
 10
2006.6498076799021
 20
1578.0676156444761
 30
0.0
 11
2036.6498076799021
 21
1578.0676156444761
 31
0.0
  0
LINE
  5
14235
  8
0
 10
2136.6498076799021
 20
1578.0676156444761
 30
0.0
 11
2136.6498076799021
 21
1593.067584644476
 31
0.0
  0
LINE
  5
14236
  8
0
 10
2036.6498076799021
 20
1578.0676156444761
 30
0.0
 11
2036.6498076799021
 21
1593.0676466444761
 31
0.0
  0
LINE
  5
14237
  8
0
 10
2136.6498076799021
 20
1578.0676156444761
 30
0.0
 11
2166.649807679903
 21
1578.0676156444761
 31
0.0
  0
LINE
  5
14238
  8
CENTER
 10
2151.6498076799021
 20
1485.0662726444759
 30
0.0
 11
2151.6498076799021
 21
1583.6022836444761
 31
0.0
  0
LINE
  5
14239
  8
CENTER
 10
2021.6498076799021
 20
1485.336322644476
 30
0.0
 11
2021.6498076799021
 21
1581.9826246444759
 31
0.0
  0
LINE
  5
1423A
  8
CENTER
 10
2008.9872096799029
 20
1511.0676156444761
 30
0.0
 11
2034.3631866799019
 21
1511.0676156444761
 31
0.0
  0
LINE
  5
1423B
  8
0
 10
2041.6498686799021
 20
1598.0675236444761
 30
0.0
 11
2036.6498686799021
 21
1593.0675546444761
 31
0.0
  0
LINE
  5
1423C
  8
0
 10
2131.6498646799018
 20
1598.067584644476
 30
0.0
 11
2136.6496626799021
 21
1593.067764644476
 31
0.0
  0
LINE
  5
1423D
  8
CENTER
 10
2138.434963679902
 20
1511.0676156444761
 30
0.0
 11
2166.1063506799019
 21
1511.0676156444761
 31
0.0
  0
LINE
  5
1423E
  8
0
 10
2051.326077679902
 20
1499.5676156444761
 30
0.0
 11
2121.9735376799022
 21
1499.5676156444761
 31
0.0
  0
LINE
  5
1425F
  8
HIDE
 10
2251.1726822977448
 20
1572.0676156444761
 30
0.0
 11
2251.172682297748
 21
1524.0676156444749
 31
0.0
  0
LINE
  5
14261
  8
HIDE
 10
2066.6498076799021
 20
1630.5153904558931
 30
0.0
 11
2066.6498076799021
 21
1721.515420455893
 31
0.0
  0
LINE
  5
14262
  8
HIDE
 10
2106.6498076799021
 20
1630.5153904558931
 30
0.0
 11
2106.6498076799021
 21
1721.515420455893
 31
0.0
  0
LINE
  5
14263
  8
0
 10
2038.1498149178781
 20
1642.5153904558931
 30
0.0
 11
2038.1498149178781
 21
1660.5153904558931
 31
0.0
  0
LINE
  5
14264
  8
0
 10
2135.1498072235531
 20
1642.5153904558931
 30
0.0
 11
2135.1498072235531
 21
1660.5153904558931
 31
0.0
  0
LINE
  5
14265
  8
0
 10
2055.1498076799171
 20
1630.5153904558931
 30
0.0
 11
2055.1498076799171
 21
1642.5153904558931
 31
0.0
  0
CIRCLE
  5
14267
  8
0
 10
2151.6498076799021
 20
1674.5153904558931
 30
0.0
 40
9.0
  0
CIRCLE
  5
14268
  8
0
 10
2021.6498076799021
 20
1674.5153904558931
 30
0.0
 40
9.0
  0
CIRCLE
  5
14269
  8
0
 10
2021.6498076799021
 20
1707.5153904558931
 30
0.0
 40
9.0
  0
CIRCLE
  5
1426A
  8
0
 10
2021.6498076799021
 20
1707.5153904558931
 30
0.0
 40
13.0
  0
CIRCLE
  5
1426B
  8
0
 10
2021.6498076799021
 20
1674.5153904558931
 30
0.0
 40
13.0
  0
CIRCLE
  5
1426C
  8
0
 10
2151.6498076799021
 20
1674.5153904558931
 30
0.0
 40
13.0
  0
CIRCLE
  5
1426D
  8
0
 10
2151.6498076799021
 20
1707.5153904558931
 30
0.0
 40
13.0
  0
CIRCLE
  5
1426E
  8
0
 10
2151.6498076799021
 20
1707.5153904558931
 30
0.0
 40
9.0
  0
LINE
  5
1426F
  8
CENTER
 10
2086.6498076799021
 20
1625.364034564863
 30
0.0
 11
2086.6498076799021
 21
1730.9902948384611
 31
0.0
  0
LINE
  5
14270
  8
CENTER
 10
2136.6498076799021
 20
1674.5153904558931
 30
0.0
 11
2166.649807679903
 21
1674.5153904558931
 31
0.0
  0
LINE
  5
14271
  8
CENTER
 10
2136.6498076799021
 20
1707.5153904558931
 30
0.0
 11
2166.649807679903
 21
1707.5153904558931
 31
0.0
  0
LINE
  5
14272
  8
CENTER
 10
2021.6498076799021
 20
1654.553810455893
 30
0.0
 11
2021.6498076799021
 21
1726.566690455893
 31
0.0
  0
LINE
  5
14273
  8
CENTER
 10
2151.6498076799021
 20
1655.612830455892
 30
0.0
 11
2151.6498076799021
 21
1726.301920455893
 31
0.0
  0
LINE
  5
14274
  8
CENTER
 10
2006.6498076799021
 20
1674.5153904558931
 30
0.0
 11
2036.6498076799021
 21
1674.5153904558931
 31
0.0
  0
LINE
  5
14275
  8
CENTER
 10
2006.6498076799021
 20
1707.5153904558931
 30
0.0
 11
2036.6498076799021
 21
1707.5153904558931
 31
0.0
  0
LINE
  5
14276
  8
0
 10
2131.6498076799021
 20
1660.5153904558931
 30
0.0
 11
2131.6498076799021
 21
1721.5153604558921
 31
0.0
  0
LINE
  5
14277
  8
0
 10
2041.649807679903
 20
1660.5153904558931
 30
0.0
 11
2041.649807679903
 21
1721.5153604558921
 31
0.0
  0
LINE
  5
14278
  8
0
 10
2038.1498149178781
 20
1642.5153904558931
 30
0.0
 11
2135.1498072235531
 21
1642.5153904558931
 31
0.0
  0
LINE
  5
14279
  8
0
 10
2006.6498076799021
 20
1721.515420455893
 30
0.0
 11
2166.649807679903
 21
1721.515420455893
 31
0.0
  0
LINE
  5
1427A
  8
0
 10
2006.6498076799021
 20
1660.5153904558931
 30
0.0
 11
2166.649807679903
 21
1660.5153904558931
 31
0.0
  0
LINE
  5
1427B
  8
0
 10
2036.6498076799021
 20
1660.5153904558931
 30
0.0
 11
2036.6498076799021
 21
1721.5153604558921
 31
0.0
  0
LINE
  5
1427C
  8
0
 10
2136.6498076799021
 20
1660.5153904558931
 30
0.0
 11
2136.6498076799021
 21
1721.5153604558921
 31
0.0
  0
LINE
  5
1427D
  8
0
 10
2166.649807679903
 20
1660.5153904558931
 30
0.0
 11
2166.649807679903
 21
1721.515420455893
 31
0.0
  0
LINE
  5
1427E
  8
0
 10
2006.6498076799021
 20
1660.5153904558931
 30
0.0
 11
2006.6498076799021
 21
1721.515420455893
 31
0.0
  0
LINE
  5
1427F
  8
0
 10
2055.1498076799171
 20
1630.5153904558931
 30
0.0
 11
2118.1498144615148
 21
1630.5153904558931
 31
0.0
  0
LINE
  5
14280
  8
0
 10
2118.1498144615148
 20
1630.5153904558931
 30
0.0
 11
2118.1498144615148
 21
1642.5153904558931
 31
0.0
  0
LINE
  5
1460C
  8
CENTER
 10
2227.1726822977462
 20
1548.0676156444761
 30
0.0
 11
2254.1726822977462
 21
1548.0676156444761
 31
0.0
  0
LINE
  5
1460D
  8
0
 10
2228.1726822977462
 20
1516.5676156444761
 30
0.0
 11
2228.1726822977389
 21
1579.5676156444761
 31
0.0
  0
LINE
  5
1460E
  8
0
 10
2251.1726822977462
 20
1523.5676156444811
 30
0.0
 11
2251.1726822977462
 21
1572.567615644472
 31
0.0
  0
LINE
  5
1460F
  8
0
 10
2250.6726822977462
 20
1516.5676156444761
 30
0.0
 11
2250.6726822977462
 21
1579.5676156444761
 31
0.0
  0
LINE
  5
14610
  8
0
 10
2250.6726822977389
 20
1573.067615644489
 30
0.0
 11
2251.1726822977389
 21
1572.5676156444761
 31
0.0
  0
LINE
  5
14611
  8
HIDE
 10
2251.1726822977462
 20
1568.0676156444761
 30
0.0
 11
2228.1726822977539
 21
1568.0676156444761
 31
0.0
  0
LINE
  5
14612
  8
HIDE
 10
2251.1726822977462
 20
1567.317615644474
 30
0.0
 11
2228.1726822977539
 21
1567.3176156444781
 31
0.0
  0
LINE
  5
14616
  8
CENTER
 10
2235.1726822977462
 20
1580.5199620244609
 30
0.0
 11
2235.1726822977462
 21
1568.0676156444761
 31
0.0
  0
LINE
  5
14617
  8
HIDE
 10
2239.1726822977539
 20
1579.5676156444761
 30
0.0
 11
2239.172682297768
 21
1568.067615644474
 31
0.0
  0
LINE
  5
14618
  8
HIDE
 10
2231.172682297753
 20
1579.5676156444761
 30
0.0
 11
2231.172682297753
 21
1568.0676156444761
 31
0.0
  0
LINE
  5
14619
  8
HIDE
 10
2238.5726822977481
 20
1579.5676156444761
 30
0.0
 11
2238.5726822977622
 21
1568.0676156444761
 31
0.0
  0
LINE
  5
1461A
  8
HIDE
 10
2231.772682297752
 20
1579.5676156444761
 30
0.0
 11
2231.7726822977452
 21
1568.0676156444761
 31
0.0
  0
LINE
  5
1461B
  8
HIDE
 10
2238.5726822977481
 20
1569.0676156444761
 30
0.0
 11
2231.7726822977452
 21
1569.0676156444761
 31
0.0
  0
LINE
  5
1461C
  8
HIDE
 10
2238.5726822977481
 20
1569.0676156444761
 30
0.0
 11
2239.1726822977539
 21
1570.1068461290131
 31
0.0
  0
LINE
  5
1461D
  8
HIDE
 10
2231.7726822977452
 20
1569.0676156444761
 30
0.0
 11
2231.172682297753
 21
1570.1068461290131
 31
0.0
  0
LINE
  5
1461E
  8
HIDE
 10
2239.1726822977539
 20
1570.1068461290131
 30
0.0
 11
2231.172682297753
 21
1570.1068461290131
 31
0.0
  0
LINE
  5
1461F
  8
HIDE
 10
2239.1726822977539
 20
1578.1068461290131
 30
0.0
 11
2231.172682297753
 21
1578.1068461290131
 31
0.0
  0
LINE
  5
14623
  8
0
 10
2250.6726822977462
 20
1579.5676156444761
 30
0.0
 11
2228.1726822977389
 21
1579.5676156444761
 31
0.0
  0
LINE
  5
14624
  8
0
 10
2250.6726822977389
 20
1523.0676156444631
 30
0.0
 11
2251.1726822977389
 21
1523.5676156444761
 31
0.0
  0
LINE
  5
14625
  8
0
 10
2250.6726822977462
 20
1516.5676156444761
 30
0.0
 11
2228.1726822977389
 21
1516.5676156444761
 31
0.0
  0
LINE
  5
14626
  8
HIDE
 10
2251.1726822977462
 20
1528.0676156444761
 30
0.0
 11
2228.1726822977539
 21
1528.067615644472
 31
0.0
  0
LINE
  5
14627
  8
HIDE
 10
2251.1726822977462
 20
1528.8176156444781
 30
0.0
 11
2228.1726822977539
 21
1528.8176156444699
 31
0.0
  0
LINE
  5
14628
  8
CENTER
 10
2235.1726822977462
 20
1515.6152692644889
 30
0.0
 11
2235.1726822977462
 21
1528.067615644474
 31
0.0
  0
LINE
  5
14629
  8
HIDE
 10
2239.1726822977539
 20
1516.567615644474
 30
0.0
 11
2239.172682297768
 21
1528.0676156444761
 31
0.0
  0
LINE
  5
1462A
  8
HIDE
 10
2231.172682297753
 20
1516.567615644472
 30
0.0
 11
2231.172682297753
 21
1528.067615644472
 31
0.0
  0
LINE
  5
1462B
  8
HIDE
 10
2238.5726822977481
 20
1516.567615644474
 30
0.0
 11
2238.5726822977622
 21
1528.067615644474
 31
0.0
  0
LINE
  5
1462C
  8
HIDE
 10
2231.772682297752
 20
1516.567615644472
 30
0.0
 11
2231.7726822977452
 21
1528.067615644472
 31
0.0
  0
LINE
  5
1462D
  8
HIDE
 10
2238.5726822977481
 20
1527.067615644474
 30
0.0
 11
2231.7726822977452
 21
1527.067615644472
 31
0.0
  0
LINE
  5
1462E
  8
HIDE
 10
2238.5726822977481
 20
1527.067615644474
 30
0.0
 11
2239.1726822977539
 21
1526.028385159937
 31
0.0
  0
LINE
  5
1462F
  8
HIDE
 10
2231.7726822977452
 20
1527.067615644472
 30
0.0
 11
2231.172682297753
 21
1526.0283851599349
 31
0.0
  0
LINE
  5
14630
  8
HIDE
 10
2239.1726822977539
 20
1526.028385159937
 30
0.0
 11
2231.172682297753
 21
1526.0283851599349
 31
0.0
  0
LINE
  5
14631
  8
HIDE
 10
2239.1726822977539
 20
1518.028385159937
 30
0.0
 11
2231.172682297753
 21
1518.0283851599349
 31
0.0
  0
LINE
  5
1470C
  8
CENTER
 10
2052.3099149182372
 20
1548.0676156444761
 30
0.0
 11
2120.9897004415679
 21
1548.0676156444761
 31
0.0
  0
LINE
  5
1470D
  8
0
 10
2090.7766469767071
 20
1516.8391158819441
 30
0.0
 11
2117.8783074424491
 21
1543.9407763476911
 31
0.0
  0
LINE
  5
1470E
  8
0
 10
2055.4213079173842
 20
1552.194454941279
 30
0.0
 11
2082.5229683830898
 21
1579.2961154070019
 31
0.0
  0
LINE
  5
1470F
  8
CENTER
 10
2086.6498076799021
 20
1513.72772288281
 30
0.0
 11
2086.6498076799021
 21
1582.407508406141
 31
0.0
  0
LINE
  5
14710
  8
0
 10
2082.5229683831121
 20
1516.8391158819461
 30
0.0
 11
2055.4213079173842
 21
1543.9407763476891
 31
0.0
  0
LINE
  5
14711
  8
0
 10
2117.8783074424491
 20
1552.194454941276
 30
0.0
 11
2090.7766469767139
 21
1579.2961154070081
 31
0.0
  0
LINE
  5
14712
  8
HIDE
 10
2082.6498076798948
 20
1579.3126152444081
 30
0.0
 11
2082.649807679888
 21
1567.663533586735
 31
0.0
  0
LINE
  5
14713
  8
HIDE
 10
2090.6498076798948
 20
1579.312615244414
 30
0.0
 11
2090.6498076798948
 21
1567.6635335867461
 31
0.0
  0
LINE
  5
14714
  8
HIDE
 10
2083.2498076799011
 20
1579.383586011046
 30
0.0
 11
2083.2498076798929
 21
1567.7764968912611
 31
0.0
  0
LINE
  5
14715
  8
HIDE
 10
2090.0498076798822
 20
1579.383586011051
 30
0.0
 11
2090.0498076799031
 21
1567.7764968912661
 31
0.0
  0
LINE
  5
14716
  8
HIDE
 10
2083.2498076799011
 20
1569.0676156444761
 30
0.0
 11
2090.0498076799031
 21
1569.0676156444761
 31
0.0
  0
LINE
  5
14717
  8
HIDE
 10
2083.2498076799011
 20
1569.0676156444761
 30
0.0
 11
2082.6498076798948
 21
1570.1068461290131
 31
0.0
  0
LINE
  5
14718
  8
HIDE
 10
2090.0498076799031
 20
1569.0676156444761
 30
0.0
 11
2090.6498076798948
 21
1570.1068461290131
 31
0.0
  0
LINE
  5
14719
  8
HIDE
 10
2082.6498076798948
 20
1570.1068461290131
 30
0.0
 11
2090.6498076798948
 21
1570.1068461290131
 31
0.0
  0
LINE
  5
1471A
  8
HIDE
 10
2082.6498076798948
 20
1578.1068461290131
 30
0.0
 11
2090.6498076798948
 21
1578.1068461290131
 31
0.0
  0
ARC
  5
1471B
  8
0
 10
2086.6498076799171
 20
1548.0676156444761
 30
0.0
 40
31.5
 50
82.471995182696546
 51
97.528004817303454
  0
ARC
  5
1471C
  8
0
 10
2086.6498076799171
 20
1548.0676156444761
 30
0.0
 40
31.5
 50
172.4719951827889
 51
187.52800481721101
  0
ARC
  5
1471D
  8
0
 10
2086.6498076799171
 20
1548.0676156444761
 30
0.0
 40
31.5
 50
262.4719951826965
 51
277.52800481730338
  0
ARC
  5
1471E
  8
0
 10
2086.6498076799171
 20
1548.0676156444761
 30
0.0
 40
31.5
 50
352.47199518278887
 51
7.5280048172110741
  0
CIRCLE
  5
1471F
  8
0
 10
2086.6498076799171
 20
1548.0676156444761
 30
0.0
 40
24.5
  0
LINE
  5
14720
  8
HIDE
 10
2082.6498076798662
 20
1516.8226160445649
 30
0.0
 11
2082.649807679873
 21
1531.802238304889
 31
0.0
  0
LINE
  5
14721
  8
HIDE
 10
2090.6498076798662
 20
1516.8226160445511
 30
0.0
 11
2090.6498076798812
 21
1531.8022383048731
 31
0.0
  0
LINE
  5
14722
  8
HIDE
 10
2083.2498076798711
 20
1516.7516452779259
 30
0.0
 11
2083.2498076798788
 21
1531.666319963972
 31
0.0
  0
LINE
  5
14723
  8
HIDE
 10
2090.0498076798531
 20
1516.7516452779139
 30
0.0
 11
2090.0498076798958
 21
1531.666319963965
 31
0.0
  0
LINE
  5
14724
  8
HIDE
 10
2083.2498076798788
 20
1527.0676156444961
 30
0.0
 11
2090.0498076798822
 21
1527.067615644489
 31
0.0
  0
LINE
  5
14725
  8
HIDE
 10
2083.2498076798788
 20
1527.0676156444961
 30
0.0
 11
2082.649807679873
 21
1526.02838515996
 31
0.0
  0
LINE
  5
14726
  8
HIDE
 10
2090.0498076798822
 20
1527.067615644489
 30
0.0
 11
2090.649807679873
 21
1526.0283851599511
 31
0.0
  0
LINE
  5
14727
  8
HIDE
 10
2082.649807679873
 20
1526.02838515996
 30
0.0
 11
2090.649807679873
 21
1526.0283851599511
 31
0.0
  0
LINE
  5
14728
  8
HIDE
 10
2082.6498076798662
 20
1518.02838515996
 30
0.0
 11
2090.6498076798662
 21
1518.0283851599511
 31
0.0
  0
ARC
  5
14729
  8
HIDE
 10
2086.6498076799171
 20
1548.0676156444761
 30
0.0
 40
20.0
 50
270.0
 51
180.0
  0
CIRCLE
  5
1472A
  8
0
 10
2086.6498076799171
 20
1548.0676156444781
 30
0.0
 40
19.25
  0
ENDSEC
  0
EOF
