  0
SECTION
  2
HEADER
  9
$ACADVER
  1
AC1009
  9
$INSBASE
 10
0.0
 20
0.0
 30
0.0
  9
$EXTMIN
 10
1903.0405749290021
 20
1433.173578249188
 30
0.0
  9
$EXTMAX
 10
2348.540574929003
 20
1748.173578249188
 30
0.0
  9
$LIMMIN
 10
0.0
 20
0.0
  9
$LIMMAX
 10
12.0
 20
9.0
  9
$ORTHOMODE
 70
     0
  9
$REGENMODE
 70
     1
  9
$FILLMODE
 70
     1
  9
$QTEXTMODE
 70
     0
  9
$MIRRTEXT
 70
     0
  9
$DRAGMODE
 70
     2
  9
$LTSCALE
 40
5.0
  9
$OSMODE
 70
  2477
  9
$ATTMODE
 70
     1
  9
$TEXTSIZE
 40
2.5
  9
$TRACEWID
 40
0.05
  9
$TEXTSTYLE
  7
BIG
  9
$CLAYER
  8
0
  9
$CELTYPE
  6
BYLAYER
  9
$CECOLOR
 62
   256
  9
$DIMSCALE
 40
1.0
  9
$DIMASZ
 40
3.0
  9
$DIMEXO
 40
1.0
  9
$DIMDLI
 40
0.0
  9
$DIMRND
 40
0.0
  9
$DIMDLE
 40
0.0
  9
$DIMEXE
 40
1.0
  9
$DIMTP
 40
0.0
  9
$DIMTM
 40
0.0
  9
$DIMTXT
 40
3.0
  9
$DIMCEN
 40
0.0
  9
$DIMTSZ
 40
0.0
  9
$DIMTOL
 70
     0
  9
$DIMLIM
 70
     0
  9
$DIMTIH
 70
     0
  9
$DIMTOH
 70
     0
  9
$DIMSE1
 70
     0
  9
$DIMSE2
 70
     0
  9
$DIMTAD
 70
     1
  9
$DIMZIN
 70
     8
  9
$DIMBLK
  1

  9
$DIMASO
 70
     1
  9
$DIMSHO
 70
     1
  9
$DIMPOST
  1

  9
$DIMAPOST
  1

  9
$DIMALT
 70
     0
  9
$DIMALTD
 70
     2
  9
$DIMALTF
 40
25.399999999999999
  9
$DIMLFAC
 40
1.0
  9
$DIMTOFL
 70
     1
  9
$DIMTVP
 40
0.0
  9
$DIMTIX
 70
     1
  9
$DIMSOXD
 70
     0
  9
$DIMSAH
 70
     0
  9
$DIMBLK1
  1

  9
$DIMBLK2
  1

  9
$DIMSTYLE
  2
DUKITEC
  9
$DIMCLRD
 70
     5
  9
$DIMCLRE
 70
     5
  9
$DIMCLRT
 70
     0
  9
$DIMTFAC
 40
1.0
  9
$DIMGAP
 40
1.0
  9
$LUNITS
 70
     2
  9
$LUPREC
 70
     4
  9
$SKETCHINC
 40
0.1
  9
$FILLETRAD
 40
0.2
  9
$AUNITS
 70
     0
  9
$AUPREC
 70
     0
  9
$MENU
  1
.
  9
$ELEVATION
 40
0.0
  9
$PELEVATION
 40
0.0
  9
$THICKNESS
 40
0.0
  9
$LIMCHECK
 70
     0
  9
$BLIPMODE
 70
     0
  9
$CHAMFERA
 40
0.5
  9
$CHAMFERB
 40
0.5
  9
$SKPOLY
 70
     0
  9
$TDCREATE
 40
2454396.7079342012
  9
$TDUPDATE
 40
2454396.7080524769
  9
$TDINDWG
 40
0.000119537
  9
$TDUSRTIMER
 40
0.000119537
  9
$USRTIMER
 70
     1
  9
$ANGBASE
 50
0.0
  9
$ANGDIR
 70
     0
  9
$PDMODE
 70
     0
  9
$PDSIZE
 40
0.0
  9
$PLINEWID
 40
0.0
  9
$COORDS
 70
     1
  9
$SPLFRAME
 70
     0
  9
$SPLINETYPE
 70
     6
  9
$SPLINESEGS
 70
     8
  9
$ATTDIA
 70
     0
  9
$ATTREQ
 70
     1
  9
$HANDLING
 70
     1
  9
$HANDSEED
  5
13FC4
  9
$SURFTAB1
 70
     6
  9
$SURFTAB2
 70
     6
  9
$SURFTYPE
 70
     6
  9
$SURFU
 70
     6
  9
$SURFV
 70
     6
  9
$UCSNAME
  2

  9
$UCSORG
 10
0.0
 20
0.0
 30
0.0
  9
$UCSXDIR
 10
1.0
 20
0.0
 30
0.0
  9
$UCSYDIR
 10
0.0
 20
1.0
 30
0.0
  9
$PUCSNAME
  2

  9
$PUCSORG
 10
0.0
 20
0.0
 30
0.0
  9
$PUCSXDIR
 10
1.0
 20
0.0
 30
0.0
  9
$PUCSYDIR
 10
0.0
 20
1.0
 30
0.0
  9
$USERI1
 70
     0
  9
$USERI2
 70
     0
  9
$USERI3
 70
     0
  9
$USERI4
 70
     0
  9
$USERI5
 70
     0
  9
$USERR1
 40
0.0
  9
$USERR2
 40
0.0
  9
$USERR3
 40
0.0
  9
$USERR4
 40
0.0
  9
$USERR5
 40
0.0
  9
$WORLDVIEW
 70
     1
  9
$SHADEDGE
 70
     3
  9
$SHADEDIF
 70
    70
  9
$TILEMODE
 70
     1
  9
$MAXACTVP
 70
    64
  9
$PLIMCHECK
 70
     0
  9
$PEXTMIN
 10
0.0
 20
0.0
 30
0.0
  9
$PEXTMAX
 10
0.0
 20
0.0
 30
0.0
  9
$PLIMMIN
 10
0.0
 20
0.0
  9
$PLIMMAX
 10
12.0
 20
9.0
  9
$UNITMODE
 70
     0
  9
$VISRETAIN
 70
     1
  9
$PLINEGEN
 70
     0
  9
$PSLTSCALE
 70
     1
  0
ENDSEC
  0
SECTION
  2
TABLES
  0
TABLE
  2
VPORT
 70
     1
  0
VPORT
  2
*ACTIVE
 70
     0
 10
0.0
 20
0.0
 11
1.0
 21
1.0
 12
2172.8366620366151
 22
1534.862326570496
 13
0.0
 23
0.0
 14
0.5
 24
0.5
 15
0.5
 25
0.5
 16
0.0
 26
0.0
 36
1.0
 17
0.0
 27
0.0
 37
0.0
 40
509.99308931703263
 41
1.685233160621761
 42
50.0
 43
0.0
 44
0.0
 50
0.0
 51
0.0
 71
     0
 72
  2000
 73
     1
 74
     3
 75
     0
 76
     0
 77
     0
 78
     0
  0
ENDTAB
  0
TABLE
  2
LTYPE
 70
     3
  0
LTYPE
  2
CONTINUOUS
 70
     0
  3
Solid line
 72
    65
 73
     0
 40
0.0
  0
LTYPE
  2
CENTER
 70
     0
  3
___ _ ___ _ ___ _ ___ _ ___ _ ___ _ ___ _ ___ _
 72
    65
 73
     4
 40
0.95
 49
0.625
 49
-0.125
 49
0.075
 49
-0.125
  0
LTYPE
  2
DASHED2
 70
     0
  3
Dashed (.5x) _ _ _ _ _ _ _ _ _ _ _ _ _ _ _ _ _
 72
    65
 73
     2
 40
0.375
 49
0.25
 49
-0.125
  0
ENDTAB
  0
TABLE
  2
LAYER
 70
     4
  0
LAYER
  2
0
 70
     0
 62
     7
  6
CONTINUOUS
  0
LAYER
  2
DEFPOINTS
 70
     0
 62
     7
  6
CONTINUOUS
  0
LAYER
  2
HIDE
 70
     0
 62
     1
  6
DASHED2
  0
LAYER
  2
CENTER
 70
     0
 62
     3
  6
CENTER
  0
ENDTAB
  0
TABLE
  2
STYLE
 70
     2
  0
STYLE
  2
STANDARD
 70
     0
 40
5.0
 41
1.0
 50
0.0
 71
     0
 42
5.0
  3
txt.shx
  4
whgtxt.shx
  0
STYLE
  2
BIG
 70
     0
 40
20.0
 41
1.0
 50
0.0
 71
     0
 42
2.5
  3
txt
  4

  0
ENDTAB
  0
TABLE
  2
VIEW
 70
     0
  0
ENDTAB
  0
TABLE
  2
UCS
 70
     0
  0
ENDTAB
  0
TABLE
  2
APPID
 70
     7
  0
APPID
  2
ACAD
 70
     0
  0
APPID
  2
ACAD_EXEMPT_FROM_CAD_STANDARDS
 70
     0
  0
APPID
  2
ACAD_DSTYLE_DIMJOGGED_JOGA
 70
     0
  0
APPID
  2
ACAD_PSEXT
 70
     0
  0
APPID
  2
ACAECLAYERSTANDARD
 70
     0
  0
APPID
  2
DCO15
 70
     0
  0
APPID
  2
CONTENTBLOCKICON
 70
     0
  0
ENDTAB
  0
TABLE
  2
DIMSTYLE
 70
     2
  0
DIMSTYLE
  2
DUKITEC
 70
     0
  3

  4

  5

  6

  7

 40
1.0
 41
3.0
 42
1.0
 43
0.0
 44
1.0
 45
0.0
 46
0.0
 47
0.0
 48
0.0
140
3.0
141
0.0
142
0.0
143
25.399999999999999
144
1.0
145
0.0
146
1.0
147
1.0
 71
     0
 72
     0
 73
     0
 74
     0
 75
     0
 76
     0
 77
     1
 78
     8
170
     0
171
     2
172
     1
173
     0
174
     1
175
     0
176
     5
177
     5
178
     0
  0
DIMSTYLE
  2
STANDARD
 70
     0
  3

  4

  5

  6

  7

 40
1.0
 41
0.18
 42
0.0625
 43
0.38
 44
0.18
 45
0.0
 46
0.0
 47
0.0
 48
0.0
140
0.18
141
0.09
142
0.0
143
25.399999999999999
144
1.0
145
0.0
146
1.0
147
0.09
 71
     0
 72
     0
 73
     1
 74
     1
 75
     0
 76
     0
 77
     0
 78
     0
170
     0
171
     2
172
     0
173
     0
174
     0
175
     0
176
     0
177
     0
178
     0
  0
ENDTAB
  0
ENDSEC
  0
SECTION
  2
BLOCKS
  0
BLOCK
  8
0
  2
$MODEL_SPACE
 70
     0
 10
0.0
 20
0.0
 30
0.0
  3
$MODEL_SPACE
  1

  0
ENDBLK
  5
21
  8
0
  0
BLOCK
 67
     1
  8
0
  2
$PAPER_SPACE
 70
     0
 10
0.0
 20
0.0
 30
0.0
  3
$PAPER_SPACE
  1

  0
ENDBLK
  5
5B
 67
     1
  8
0
  0
BLOCK
  8
0
  2
EF8F
 70
     0
 10
0.0
 20
0.0
 30
0.0
  3
EF8F
  1

  0
CIRCLE
  5
13F24
  8
0
 10
0.0
 20
0.0
 30
0.0
 40
3.000014999999999
  0
LINE
  5
13F25
  8
0
 10
-26.000002000000219
 20
-17.0
 30
0.0
 11
26.0
 21
-17.0
 31
0.0
  0
LINE
  5
13F26
  8
0
 10
26.0
 20
-17.0
 30
0.0
 11
26.0
 21
8.9999980000002324
 31
0.0
  0
LINE
  5
13F27
  8
0
 10
-26.000002000000219
 20
-17.0
 30
0.0
 11
-26.000002000000219
 21
8.9999980000002324
 31
0.0
  0
LINE
  5
13F28
  8
0
 10
-26.000002000000219
 20
8.9999980000002324
 30
0.0
 11
-12.500002000000221
 21
8.9999980000002324
 31
0.0
  0
LINE
  5
13F29
  8
HIDE
 10
-24.50000131249999
 20
-3.0000019999997671
 30
0.0
 11
-13.50000131249999
 21
-3.0000019999988581
 31
0.0
  0
LINE
  5
13F2A
  8
0
 10
-11.500002000000221
 20
14.999998000000231
 30
0.0
 11
11.49999899999966
 21
14.999998000000231
 31
0.0
  0
LINE
  5
13F2B
  8
0
 10
12.49999899999966
 20
8.9999980000002324
 30
0.0
 11
26.0
 21
8.9999980000002324
 31
0.0
  0
LINE
  5
13F2C
  8
0
 10
11.5
 20
14.99999899999966
 30
0.0
 11
12.50000099999988
 21
13.999998000000231
 31
0.0
  0
LINE
  5
13F2D
  8
CENTER
 10
0.0
 20
-19.0
 30
0.0
 11
0.0
 21
16.30791299999964
 31
0.0
  0
LINE
  5
13F2E
  8
CENTER
 10
-27.000002000000219
 20
0.0
 30
0.0
 11
27.0
 21
0.0
 31
0.0
  0
LINE
  5
13F2F
  8
CENTER
 10
19.0
 20
-18.2193299999999
 30
0.0
 11
19.0
 21
10.07340000000022
 31
0.0
  0
LINE
  5
13F30
  8
0
 10
12.49999899999966
 20
8.9999980000002324
 30
0.0
 11
12.49999899999966
 21
13.999998000000231
 31
0.0
  0
LINE
  5
13F31
  8
0
 10
-12.500002000000221
 20
8.9999980000002324
 30
0.0
 11
-12.500002000000221
 21
13.999998000000231
 31
0.0
  0
LINE
  5
13F32
  8
0
 10
-11.50000100000034
 20
14.999998000000231
 30
0.0
 11
-12.500002000000221
 21
13.99999699999989
 31
0.0
  0
LINE
  5
13F33
  8
CENTER
 10
-18.99999988568743
 20
-18.21933178125073
 30
0.0
 11
-19.00000253813187
 21
10.073398218749389
 31
0.0
  0
LINE
  5
13F34
  8
HIDE
 10
-13.50000131249999
 20
-3.0000020000006771
 30
0.0
 11
-13.50000243750037
 21
8.9999979999993212
 31
0.0
  0
LINE
  5
13F35
  8
HIDE
 10
-24.50000131249999
 20
-3.0000020000006771
 30
0.0
 11
-24.500002437500822
 21
8.9999979999993212
 31
0.0
  0
LINE
  5
13F36
  8
HIDE
 10
-15.69999999999936
 20
-17.000000000000909
 30
0.0
 11
-15.700001312499809
 21
-3.0000019999997671
 31
0.0
  0
LINE
  5
13F37
  8
HIDE
 10
-22.300000000000178
 20
-17.000000000000909
 30
0.0
 11
-22.300001312500171
 21
-3.0000019999997671
 31
0.0
  0
LINE
  5
13F38
  8
HIDE
 10
24.499999999999549
 20
-2.9999997031236481
 30
0.0
 11
13.49999999999954
 21
-3.000000734373315
 31
0.0
  0
LINE
  5
13F39
  8
HIDE
 10
13.49999999999954
 20
-3.000000734375134
 30
0.0
 11
13.499999999999091
 21
8.9999992656248651
 31
0.0
  0
LINE
  5
13F3A
  8
HIDE
 10
24.499999999999549
 20
-2.999999703124558
 30
0.0
 11
24.499999999999549
 21
9.0000002968754416
 31
0.0
  0
LINE
  5
13F3B
  8
HIDE
 10
15.69999999999891
 20
-16.999998528125609
 30
0.0
 11
15.69999999999936
 21
-3.000000528124473
 31
0.0
  0
LINE
  5
13F3C
  8
HIDE
 10
22.299999999999731
 20
-16.999997909375448
 30
0.0
 11
22.299999999999731
 21
-2.999999909374309
 31
0.0
  0
CIRCLE
  5
13F3D
  8
0
 10
0.0
 20
0.0
 30
0.0
 40
8.5
  0
ENDBLK
  5
13F3E
  8
0
  0
BLOCK
  8
0
  2
EF8S
 70
     0
 10
0.0
 20
0.0
 30
0.0
  3
EF8S
  1

  0
LINE
  5
13F41
  8
0
 10
0.0
 20
-17.0
 30
0.0
 11
14.0
 21
-17.0
 31
0.0
  0
LINE
  5
13F42
  8
0
 10
0.0
 20
14.999998000000231
 30
0.0
 11
14.0
 21
14.999998000000231
 31
0.0
  0
LINE
  5
13F43
  8
0
 10
14.0
 20
-17.0
 30
0.0
 11
14.0
 21
14.999998000000231
 31
0.0
  0
LINE
  5
13F44
  8
0
 10
0.0
 20
-17.0
 30
0.0
 11
0.0
 21
14.999998000000231
 31
0.0
  0
LINE
  5
13F45
  8
CENTER
 10
-2.2587890000004331
 20
0.0
 30
0.0
 11
16.422247999999851
 21
0.0
 31
0.0
  0
LINE
  5
13F46
  8
0
 10
0.0
 20
8.9999980000002324
 30
0.0
 11
14.0
 21
8.9999980000002324
 31
0.0
  0
LINE
  5
13F47
  8
0
 10
0.0
 20
13.999998000000231
 30
0.0
 11
14.0
 21
13.999998000000231
 31
0.0
  0
LINE
  5
13F48
  8
CENTER
 10
7.0
 20
-22.191050233264829
 30
0.0
 11
7.0
 21
-11.03052554604437
 31
0.0
  0
LINE
  5
13F49
  8
HIDE
 10
1.750229999999646
 20
6.875
 30
0.0
 11
0.437539999999899
 21
6.875
 31
0.0
  0
LINE
  5
13F4A
  8
HIDE
 10
0.437539999999899
 20
6.875
 30
0.0
 11
0.437539999999899
 21
7.3999899999998879
 31
0.0
  0
LINE
  5
13F4B
  8
HIDE
 10
0.3375499999997373
 20
7.3999899999998879
 30
0.0
 11
-0.0000200000004043
 21
7.3999899999998879
 31
0.0
  0
LINE
  5
13F4C
  8
HIDE
 10
-0.0000200000004043
 20
4.0999999999994543
 30
0.0
 11
0.3375499999997373
 21
4.0999999999994543
 31
0.0
  0
LINE
  5
13F4D
  8
HIDE
 10
1.716859999999542
 20
4.4600000000000364
 30
0.0
 11
0.437539999999899
 21
4.4600000000000364
 31
0.0
  0
LINE
  5
13F4E
  8
HIDE
 10
0.0
 20
3.9600000000000359
 30
0.0
 11
0.0
 21
-3.9600000000000359
 31
0.0
  0
ARC
  5
13F4F
  8
HIDE
 10
5.7999899999999789
 20
3.199979999999413
 30
0.0
 40
0.19999969
 50
270.000020000002
 51
0.0
  0
ARC
  5
13F50
  8
HIDE
 10
5.7999899999999789
 20
-3.2000299999999688
 30
0.0
 40
0.19999683
 50
0.0
 51
89.999981999987753
  0
LINE
  5
13F51
  8
HIDE
 10
0.0
 20
2.9999799999995949
 30
0.0
 11
5.7999899999999789
 21
2.9999799999995949
 31
0.0
  0
LINE
  5
13F52
  8
HIDE
 10
0.0
 20
-3.0000200000004038
 30
0.0
 11
5.7999899999999789
 21
-3.0000200000004038
 31
0.0
  0
LINE
  5
13F53
  8
HIDE
 10
5.9999800000000496
 20
3.9999799999995949
 30
0.0
 11
5.9999800000000496
 21
-4.0000200000004043
 31
0.0
  0
ARC
  5
13F54
  8
HIDE
 10
0.9107399999998052
 20
7.589239999999335
 30
0.0
 40
0.9990968699999999
 50
114.2756799999956
 51
155.72438000000989
  0
LINE
  5
13F55
  8
HIDE
 10
-0.0000200000004043
 20
8.0
 30
0.0
 11
-0.0000200000004043
 21
6.875
 31
0.0
  0
LINE
  5
13F56
  8
HIDE
 10
4.2497399999997461
 20
6.875
 30
0.0
 11
5.5624199999997472
 21
6.875
 31
0.0
  0
LINE
  5
13F57
  8
HIDE
 10
5.5624199999997472
 20
6.875
 30
0.0
 11
5.5624199999997472
 21
7.3999899999998879
 31
0.0
  0
LINE
  5
13F58
  8
HIDE
 10
5.6624199999996563
 20
7.3999899999998879
 30
0.0
 11
5.9999800000000496
 21
7.3999899999998879
 31
0.0
  0
LINE
  5
13F59
  8
HIDE
 10
5.9999800000000496
 20
7.3999899999998879
 30
0.0
 11
5.9999800000000496
 21
7.9999899999993431
 31
0.0
  0
ARC
  5
13F5A
  8
HIDE
 10
5.0892300000000432
 20
7.589239999999335
 30
0.0
 40
0.9990968699999999
 50
24.27561599999477
 51
65.724342000039243
  0
LINE
  5
13F5B
  8
HIDE
 10
5.4999800000000496
 20
8.5
 30
0.0
 11
0.4999799999995958
 21
8.5
 31
0.0
  0
LINE
  5
13F5C
  8
HIDE
 10
5.9999800000000496
 20
3.5
 30
0.0
 11
5.9999800000000496
 21
4.0999999999994543
 31
0.0
  0
LINE
  5
13F5D
  8
HIDE
 10
5.9999800000000496
 20
4.0999999999994543
 30
0.0
 11
5.6624199999996563
 21
4.0999999999994543
 31
0.0
  0
LINE
  5
13F5E
  8
HIDE
 10
5.5707699999998113
 20
4.0999999999994543
 30
0.0
 11
5.5707699999998113
 21
4.4600000000000364
 31
0.0
  0
LINE
  5
13F5F
  8
HIDE
 10
4.2831099999998514
 20
4.4600000000000364
 30
0.0
 11
5.5707699999998113
 21
4.4600000000000364
 31
0.0
  0
LINE
  5
13F60
  8
HIDE
 10
-0.0000200000004043
 20
4.4600000000000364
 30
0.0
 11
-0.0000200000004043
 21
3.5
 31
0.0
  0
LINE
  5
13F61
  8
HIDE
 10
0.4999799999995958
 20
3.0
 30
0.0
 11
5.4999800000000496
 21
3.0
 31
0.0
  0
CIRCLE
  5
13F62
  8
HIDE
 10
2.9999799999995949
 20
5.6499899999998879
 30
0.0
 40
1.75
  0
ARC
  5
13F63
  8
HIDE
 10
5.0892300000000432
 20
-7.5892499999999918
 30
0.0
 40
0.9990968699999999
 50
294.27566000002457
 51
335.72438000001
  0
LINE
  5
13F64
  8
HIDE
 10
5.9999800000000496
 20
-8.0
 30
0.0
 11
5.9999800000000496
 21
-3.5
 31
0.0
  0
LINE
  5
13F65
  8
HIDE
 10
5.4999800000000496
 20
-3.0
 30
0.0
 11
0.4999799999995958
 21
-3.0
 31
0.0
  0
LINE
  5
13F66
  8
HIDE
 10
-0.0000200000004043
 20
-3.5
 30
0.0
 11
-0.0000200000004043
 21
-8.0
 31
0.0
  0
ARC
  5
13F67
  8
HIDE
 10
0.9107399999998052
 20
-7.5892499999999918
 30
0.0
 40
0.9990968699999999
 50
204.27561999999
 51
245.72432000000441
  0
LINE
  5
13F68
  8
HIDE
 10
0.4999799999995958
 20
-8.5
 30
0.0
 11
5.4999800000000496
 21
-8.5
 31
0.0
  0
LINE
  5
13F69
  8
HIDE
 10
5.9999800000000496
 20
3.5
 30
0.0
 11
5.9999800000000496
 21
8.0
 31
0.0
  0
LINE
  5
13F6A
  8
HIDE
 10
-0.0000200000004043
 20
8.0
 30
0.0
 11
-0.0000200000004043
 21
3.5
 31
0.0
  0
LINE
  5
13F6B
  8
HIDE
 10
5.5624199999997472
 20
7.6749999999992724
 30
0.0
 11
5.5624199999997472
 21
3.8249999999998181
 31
0.0
  0
LINE
  5
13F6C
  8
HIDE
 10
5.6624199999996563
 20
7.6749999999992724
 30
0.0
 11
5.6624199999996563
 21
3.8249999999998181
 31
0.0
  0
LINE
  5
13F6D
  8
HIDE
 10
1.750229999999646
 20
-6.875
 30
0.0
 11
-0.0000200000004043
 21
-6.875
 31
0.0
  0
LINE
  5
13F6E
  8
HIDE
 10
5.5624199999997472
 20
-6.875
 30
0.0
 11
4.2497399999997461
 21
-6.875
 31
0.0
  0
LINE
  5
13F6F
  8
HIDE
 10
5.5624199999997472
 20
-7.3999900000007983
 30
0.0
 11
5.5624199999997472
 21
-6.875
 31
0.0
  0
LINE
  5
13F70
  8
HIDE
 10
5.9999800000000496
 20
-7.3999900000007983
 30
0.0
 11
5.5624199999997472
 21
-7.3999900000007983
 31
0.0
  0
LINE
  5
13F71
  8
HIDE
 10
5.5707699999998113
 20
-4.1000000000003629
 30
0.0
 11
5.9999800000000496
 21
-4.1000000000003629
 31
0.0
  0
LINE
  5
13F72
  8
HIDE
 10
5.5707699999998113
 20
-4.4600000000000364
 30
0.0
 11
5.5707699999998113
 21
-4.1000000000003629
 31
0.0
  0
LINE
  5
13F73
  8
HIDE
 10
5.5707699999998113
 20
-4.4600000000000364
 30
0.0
 11
4.2831099999998514
 21
-4.4600000000000364
 31
0.0
  0
LINE
  5
13F74
  8
HIDE
 10
-0.0000100000002021
 20
-4.4600000000000364
 30
0.0
 11
1.716859999999542
 21
-4.4600000000000364
 31
0.0
  0
CIRCLE
  5
13F75
  8
HIDE
 10
2.9999799999995949
 20
-5.6499900000007983
 30
0.0
 40
1.75
  0
LINE
  5
13F76
  8
HIDE
 10
5.5624199999997472
 20
-3.8250000000007272
 30
0.0
 11
5.5624199999997472
 21
-7.675000000000181
 31
0.0
  0
LINE
  5
13F77
  8
HIDE
 10
5.6624199999996563
 20
-3.8250000000007272
 30
0.0
 11
5.6624199999996563
 21
-7.675000000000181
 31
0.0
  0
LINE
  5
13F78
  8
HIDE
 10
0.437539999999899
 20
3.8249999999998181
 30
0.0
 11
0.437539999999899
 21
7.6749999999992724
 31
0.0
  0
LINE
  5
13F79
  8
HIDE
 10
0.3375499999997373
 20
3.8249999999998181
 30
0.0
 11
0.3375499999997373
 21
7.6749999999992724
 31
0.0
  0
LINE
  5
13F7A
  8
HIDE
 10
0.437539999999899
 20
-7.675000000000181
 30
0.0
 11
0.437539999999899
 21
-3.8250000000007272
 31
0.0
  0
LINE
  5
13F7B
  8
HIDE
 10
0.3375499999997373
 20
-7.675000000000181
 30
0.0
 11
0.3375499999997373
 21
-3.8250000000007272
 31
0.0
  0
LINE
  5
13F7C
  8
HIDE
 10
14.0
 20
-8.5
 30
0.0
 11
0.0
 21
-8.5
 31
0.0
  0
LINE
  5
13F7D
  8
HIDE
 10
14.0
 20
8.4999945942672621
 30
0.0
 11
0.0
 21
8.4999945942672621
 31
0.0
  0
ENDBLK
  5
13F7E
  8
0
  0
BLOCK
  8
0
  2
EF8U
 70
     0
 10
0.0
 20
0.0
 30
0.0
  3
EF8U
  1

  0
CIRCLE
  5
13F81
  8
0
 10
19.0
 20
7.0
 30
0.0
 40
3.299999999999998
  0
CIRCLE
  5
13F82
  8
0
 10
19.0
 20
7.0
 30
0.0
 40
5.5
  0
CIRCLE
  5
13F83
  8
0
 10
-19.000002000000219
 20
7.0
 30
0.0
 40
3.299999999999998
  0
CIRCLE
  5
13F84
  8
0
 10
-19.000002000000219
 20
7.0
 30
0.0
 40
5.5
  0
LINE
  5
13F85
  8
0
 10
-26.000002000000219
 20
0.0
 30
0.0
 11
-26.000002000000219
 21
14.0
 31
0.0
  0
LINE
  5
13F86
  8
0
 10
26.0
 20
0.0
 30
0.0
 11
26.0
 21
14.0
 31
0.0
  0
LINE
  5
13F87
  8
0
 10
11.49999899999966
 20
0.0
 30
0.0
 11
11.49999899999966
 21
14.0
 31
0.0
  0
LINE
  5
13F88
  8
0
 10
12.49999899999966
 20
0.0
 30
0.0
 11
12.49999899999966
 21
14.0
 31
0.0
  0
LINE
  5
13F89
  8
0
 10
-26.000002000000219
 20
0.0
 30
0.0
 11
26.0
 21
0.0
 31
0.0
  0
LINE
  5
13F8A
  8
0
 10
-26.000002000000219
 20
14.0
 30
0.0
 11
26.0
 21
14.0
 31
0.0
  0
LINE
  5
13F8B
  8
CENTER
 10
0.0
 20
-1.848833000000013
 30
0.0
 11
0.0
 21
15.52515399999993
 31
0.0
  0
LINE
  5
13F8C
  8
CENTER
 10
11.72999499999969
 20
7.0
 30
0.0
 11
26.269996999999879
 21
7.0
 31
0.0
  0
LINE
  5
13F8D
  8
CENTER
 10
-19.000002000000219
 20
14.26999700000033
 30
0.0
 11
-19.000002000000219
 21
-0.2699970000003304
 31
0.0
  0
LINE
  5
13F8E
  8
CENTER
 10
19.0
 20
14.26999700000033
 30
0.0
 11
19.0
 21
-0.2699970000003304
 31
0.0
  0
LINE
  5
13F8F
  8
CENTER
 10
-26.270006000000201
 20
7.0
 30
0.0
 11
-11.729998000000251
 21
7.0
 31
0.0
  0
LINE
  5
13F90
  8
0
 10
-11.500002000000221
 20
0.0
 30
0.0
 11
-11.500002000000221
 21
14.0
 31
0.0
  0
LINE
  5
13F91
  8
0
 10
-12.500002000000221
 20
0.0
 30
0.0
 11
-12.500002000000221
 21
14.0
 31
0.0
  0
ENDBLK
  5
13F92
  8
0
  0
ENDSEC
  0
SECTION
  2
ENTITIES
  0
POLYLINE
  5
13E1C
  8
0
 66
     1
 10
0.0
 20
0.0
 30
0.0
 70
     1
  0
VERTEX
  5
13FBB
  8
0
 10
1903.0405749290021
 20
1433.173578249188
 30
0.0
  0
VERTEX
  5
13FBC
  8
0
 10
1903.0405749290021
 20
1748.173578249188
 30
0.0
  0
VERTEX
  5
13FBD
  8
0
 10
2348.540574929003
 20
1748.173578249188
 30
0.0
  0
VERTEX
  5
13FBE
  8
0
 10
2348.540574929003
 20
1433.173578249188
 30
0.0
  0
VERTEX
  5
13FBF
  8
0
 10
1903.0405749290021
 20
1433.173578249188
 30
0.0
  0
SEQEND
  5
13FC0
  8
0
  0
TEXT
  5
13FA1
  8
0
 10
2093.1969939705591
 20
1471.419571146215
 30
0.0
 40
20.0
  1
EF 8
  7
BIG
  0
INSERT
  5
13FA2
  8
0
  2
EF8F
 10
2107.0918628573741
 20
1540.2300616646071
 30
0.0
  0
INSERT
  5
13FA3
  8
0
  2
EF8S
 10
2155.1834388573739
 20
1540.2300616646071
 30
0.0
  0
INSERT
  5
13FA4
  8
0
  2
EF8U
 10
2107.0918628573741
 20
1573.9604006646071
 30
0.0
  0
ENDSEC
  0
EOF
