  0
SECTION
  2
HEADER
  9
$ACADVER
  1
AC1009
  9
$INSBASE
 10
0.0
 20
0.0
 30
0.0
  9
$EXTMIN
 10
1903.0405749290021
 20
1433.173578249188
 30
0.0
  9
$EXTMAX
 10
2348.540574929003
 20
1748.173578249188
 30
0.0
  9
$LIMMIN
 10
0.0
 20
0.0
  9
$LIMMAX
 10
12.0
 20
9.0
  9
$ORTHOMODE
 70
     1
  9
$REGENMODE
 70
     1
  9
$FILLMODE
 70
     1
  9
$QTEXTMODE
 70
     0
  9
$MIRRTEXT
 70
     0
  9
$DRAGMODE
 70
     2
  9
$LTSCALE
 40
5.0
  9
$OSMODE
 70
  2239
  9
$ATTMODE
 70
     1
  9
$TEXTSIZE
 40
2.5
  9
$TRACEWID
 40
0.05
  9
$TEXTSTYLE
  7
BIG
  9
$CLAYER
  8
0
  9
$CELTYPE
  6
BYLAYER
  9
$CECOLOR
 62
   256
  9
$DIMSCALE
 40
1.0
  9
$DIMASZ
 40
3.0
  9
$DIMEXO
 40
1.0
  9
$DIMDLI
 40
0.0
  9
$DIMRND
 40
0.0
  9
$DIMDLE
 40
0.0
  9
$DIMEXE
 40
1.0
  9
$DIMTP
 40
0.0
  9
$DIMTM
 40
0.0
  9
$DIMTXT
 40
3.0
  9
$DIMCEN
 40
0.0
  9
$DIMTSZ
 40
0.0
  9
$DIMTOL
 70
     0
  9
$DIMLIM
 70
     0
  9
$DIMTIH
 70
     0
  9
$DIMTOH
 70
     0
  9
$DIMSE1
 70
     0
  9
$DIMSE2
 70
     0
  9
$DIMTAD
 70
     1
  9
$DIMZIN
 70
     8
  9
$DIMBLK
  1

  9
$DIMASO
 70
     1
  9
$DIMSHO
 70
     1
  9
$DIMPOST
  1

  9
$DIMAPOST
  1

  9
$DIMALT
 70
     0
  9
$DIMALTD
 70
     2
  9
$DIMALTF
 40
25.399999999999999
  9
$DIMLFAC
 40
1.0
  9
$DIMTOFL
 70
     1
  9
$DIMTVP
 40
0.0
  9
$DIMTIX
 70
     1
  9
$DIMSOXD
 70
     0
  9
$DIMSAH
 70
     0
  9
$DIMBLK1
  1

  9
$DIMBLK2
  1

  9
$DIMSTYLE
  2
DUKITEC
  9
$DIMCLRD
 70
     5
  9
$DIMCLRE
 70
     5
  9
$DIMCLRT
 70
     0
  9
$DIMTFAC
 40
1.0
  9
$DIMGAP
 40
1.0
  9
$LUNITS
 70
     2
  9
$LUPREC
 70
     4
  9
$SKETCHINC
 40
0.1
  9
$FILLETRAD
 40
0.2
  9
$AUNITS
 70
     0
  9
$AUPREC
 70
     0
  9
$MENU
  1
.
  9
$ELEVATION
 40
0.0
  9
$PELEVATION
 40
0.0
  9
$THICKNESS
 40
0.0
  9
$LIMCHECK
 70
     0
  9
$BLIPMODE
 70
     0
  9
$CHAMFERA
 40
0.5
  9
$CHAMFERB
 40
0.5
  9
$SKPOLY
 70
     0
  9
$TDCREATE
 40
2454396.7050508112
  9
$TDUPDATE
 40
2456630.6218407638
  9
$TDINDWG
 40
0.0033735185
  9
$TDUSRTIMER
 40
0.0033734028
  9
$USRTIMER
 70
     1
  9
$ANGBASE
 50
0.0
  9
$ANGDIR
 70
     0
  9
$PDMODE
 70
     0
  9
$PDSIZE
 40
0.0
  9
$PLINEWID
 40
0.0
  9
$COORDS
 70
     1
  9
$SPLFRAME
 70
     0
  9
$SPLINETYPE
 70
     6
  9
$SPLINESEGS
 70
     8
  9
$ATTDIA
 70
     0
  9
$ATTREQ
 70
     1
  9
$HANDLING
 70
     1
  9
$HANDSEED
  5
143C0
  9
$SURFTAB1
 70
     6
  9
$SURFTAB2
 70
     6
  9
$SURFTYPE
 70
     6
  9
$SURFU
 70
     6
  9
$SURFV
 70
     6
  9
$UCSNAME
  2

  9
$UCSORG
 10
0.0
 20
0.0
 30
0.0
  9
$UCSXDIR
 10
1.0
 20
0.0
 30
0.0
  9
$UCSYDIR
 10
0.0
 20
1.0
 30
0.0
  9
$PUCSNAME
  2

  9
$PUCSORG
 10
0.0
 20
0.0
 30
0.0
  9
$PUCSXDIR
 10
1.0
 20
0.0
 30
0.0
  9
$PUCSYDIR
 10
0.0
 20
1.0
 30
0.0
  9
$USERI1
 70
     0
  9
$USERI2
 70
     0
  9
$USERI3
 70
     0
  9
$USERI4
 70
     0
  9
$USERI5
 70
     0
  9
$USERR1
 40
0.0
  9
$USERR2
 40
0.0
  9
$USERR3
 40
0.0
  9
$USERR4
 40
0.0
  9
$USERR5
 40
0.0
  9
$WORLDVIEW
 70
     1
  9
$SHADEDGE
 70
     3
  9
$SHADEDIF
 70
    70
  9
$TILEMODE
 70
     1
  9
$MAXACTVP
 70
    64
  9
$PLIMCHECK
 70
     0
  9
$PEXTMIN
 10
0.0
 20
0.0
 30
0.0
  9
$PEXTMAX
 10
0.0
 20
0.0
 30
0.0
  9
$PLIMMIN
 10
0.0
 20
0.0
  9
$PLIMMAX
 10
12.0
 20
9.0
  9
$UNITMODE
 70
     0
  9
$VISRETAIN
 70
     1
  9
$PLINEGEN
 70
     0
  9
$PSLTSCALE
 70
     1
  0
ENDSEC
  0
SECTION
  2
TABLES
  0
TABLE
  2
VPORT
 70
     1
  0
VPORT
  2
*ACTIVE
 70
     0
 10
0.0
 20
0.0
 11
1.0
 21
1.0
 12
2108.8817786289451
 22
1561.8068317900349
 13
0.0
 23
0.0
 14
0.5
 24
0.5
 15
0.5
 25
0.5
 16
0.0
 26
0.0
 36
1.0
 17
0.0
 27
0.0
 37
0.0
 40
198.9183683378173
 41
2.1408934707903771
 42
50.0
 43
0.0
 44
0.0
 50
0.0
 51
0.0
 71
     0
 72
  2000
 73
     1
 74
     3
 75
     0
 76
     0
 77
     0
 78
     0
  0
ENDTAB
  0
TABLE
  2
LTYPE
 70
     5
  0
LTYPE
  2
CONTINUOUS
 70
     0
  3
Solid line
 72
    65
 73
     0
 40
0.0
  0
LTYPE
  2
PHANTOM2
 70
     0
  3
Phantom (.5x) ___ _ _ ___ _ _ ___ _ _ ___ _ _
 72
    65
 73
     6
 40
1.25
 49
0.625
 49
-0.125
 49
0.125
 49
-0.125
 49
0.125
 49
-0.125
  0
LTYPE
  2
CENTER
 70
     0
  3
___ _ ___ _ ___ _ ___ _ ___ _ ___ _ ___ _ ___ _
 72
    65
 73
     4
 40
0.95
 49
0.625
 49
-0.125
 49
0.075
 49
-0.125
  0
LTYPE
  2
DASHED2
 70
     0
  3
Dashed (.5x) _ _ _ _ _ _ _ _ _ _ _ _ _ _ _ _ _
 72
    65
 73
     2
 40
0.375
 49
0.25
 49
-0.125
  0
ENDTAB
  0
TABLE
  2
LAYER
 70
     4
  0
LAYER
  2
0
 70
     0
 62
     7
  6
CONTINUOUS
  0
LAYER
  2
HIDE
 70
     0
 62
     1
  6
DASHED2
  0
LAYER
  2
CENTER
 70
     0
 62
     3
  6
CENTER
  0
ENDTAB
  0
TABLE
  2
STYLE
 70
     3
  0
STYLE
  2
STANDARD
 70
     0
 40
5.0
 41
1.0
 50
0.0
 71
     0
 42
5.0
  3
txt.shx
  4
whgtxt.shx
  0
STYLE
  2
BIG
 70
     0
 40
20.0
 41
1.0
 50
0.0
 71
     0
 42
2.5
  3
txt
  4

  0
ENDTAB
  0
TABLE
  2
VIEW
 70
     0
  0
ENDTAB
  0
TABLE
  2
UCS
 70
     0
  0
ENDTAB
  0
TABLE
  2
APPID
 70
    11
  0
APPID
  2
ACAD
 70
     0
  0
APPID
  2
ACADANNOTATIVE
 70
     0
  0
APPID
  2
ACAD_EXEMPT_FROM_CAD_STANDARDS
 70
     0
  0
APPID
  2
ACAD_DSTYLE_DIMJOGGED_JOGA
 70
     0
  0
APPID
  2
ACAD_PSEXT
 70
     0
  0
APPID
  2
ACAECLAYERSTANDARD
 70
     0
  0
APPID
  2
DCO15
 70
     0
  0
APPID
  2
CONTENTBLOCKICON
 70
     0
  0
APPID
  2
ACAD_NAV_VCDISPLAY
 70
     0
  0
APPID
  2
ACAD_DSTYLE_DIMRADIAL_EXTENSION
 70
     0
  0
APPID
  2
ACAD_MLEADERVER
 70
     0
  0
ENDTAB
  0
TABLE
  2
DIMSTYLE
 70
     4
  0
DIMSTYLE
  2
DUKITEC
 70
     0
  3

  4

  5

  6

  7

 40
1.0
 41
3.0
 42
1.0
 43
0.0
 44
1.0
 45
0.0
 46
0.0
 47
0.0
 48
0.0
140
3.0
141
0.0
142
0.0
143
25.399999999999999
144
1.0
145
0.0
146
1.0
147
1.0
 71
     0
 72
     0
 73
     0
 74
     0
 75
     0
 76
     0
 77
     1
 78
     8
170
     0
171
     2
172
     1
173
     0
174
     1
175
     0
176
     5
177
     5
178
     0
  0
ENDTAB
  0
ENDSEC
  0
SECTION
  2
BLOCKS
  0
BLOCK
  8
0
  2
$MODEL_SPACE
 70
     0
 10
0.0
 20
0.0
 30
0.0
  3
$MODEL_SPACE
  1

  0
ENDBLK
  5
140B3
  8
0
  0
BLOCK
 67
     1
  8
0
  2
$PAPER_SPACE
 70
     0
 10
0.0
 20
0.0
 30
0.0
  3
$PAPER_SPACE
  1

  0
ENDBLK
  5
140AF
 67
     1
  8
0
  0
ENDSEC
  0
SECTION
  2
ENTITIES
  0
POLYLINE
  5
13E1C
  8
0
 66
     1
 10
0.0
 20
0.0
 30
0.0
 70
     1
  0
VERTEX
  5
14363
  8
0
 10
1937.572141192112
 20
1464.529191834152
 30
0.0
  0
VERTEX
  5
14364
  8
0
 10
1937.572141192112
 20
1685.029191834152
 30
0.0
  0
VERTEX
  5
14365
  8
0
 10
2249.422141192113
 20
1685.029191834152
 30
0.0
  0
VERTEX
  5
14366
  8
0
 10
2249.422141192113
 20
1464.529191834152
 30
0.0
  0
VERTEX
  5
14367
  8
0
 10
1937.572141192112
 20
1464.529191834152
 30
0.0
  0
SEQEND
  5
14368
  8
0
  0
TEXT
  5
14013
  8
0
 10
2055.821244937129
 20
1479.202634448641
 30
0.0
 40
20.0
  1
EK 10
  7
BIG
  0
LINE
  5
140D1
  8
HIDE
 10
2027.981438289833
 20
1561.7759821524021
 30
0.0
 11
2027.981438289833
 21
1537.7759821524021
 31
0.0
  0
LINE
  5
140D2
  8
HIDE
 10
2036.981438289833
 20
1561.7759821524021
 30
0.0
 11
2036.981438289833
 21
1537.7759821524021
 31
0.0
  0
LINE
  5
140D3
  8
HIDE
 10
2079.981438289833
 20
1561.7759821524021
 30
0.0
 11
2079.981438289833
 21
1537.7759821524021
 31
0.0
  0
LINE
  5
140D4
  8
HIDE
 10
2088.981438289833
 20
1561.7759821524021
 30
0.0
 11
2088.981438289833
 21
1537.7759821524021
 31
0.0
  0
ARC
  5
140D8
  8
0
 10
2058.481438289833
 20
1562.7759821524021
 30
0.0
 40
24.0
 50
41.40962399998616
 51
48.590378999999253
  0
ARC
  5
140D9
  8
0
 10
2058.481438289833
 20
1562.7759821524021
 30
0.0
 40
24.0
 50
131.40962000000539
 51
138.59037999999441
  0
LINE
  5
140E2
  8
0
 10
2023.481438289833
 20
1537.7759821524021
 30
0.0
 11
2093.481438289833
 21
1537.7759821524021
 31
0.0
  0
LINE
  5
140E3
  8
0
 10
2023.481438289833
 20
1561.7759821524021
 30
0.0
 11
2040.481438289833
 21
1561.7759821524021
 31
0.0
  0
LINE
  5
140E4
  8
0
 10
2093.481438289833
 20
1537.7759821524021
 30
0.0
 11
2093.481438289833
 21
1561.7759821524021
 31
0.0
  0
LINE
  5
140E5
  8
0
 10
2023.481438289833
 20
1537.7759821524021
 30
0.0
 11
2023.481438289833
 21
1561.7759821524021
 31
0.0
  0
LINE
  5
140E6
  8
0
 10
2076.481438289833
 20
1561.7759821524021
 30
0.0
 11
2076.481438289833
 21
1578.650490152402
 31
0.0
  0
LINE
  5
140E7
  8
0
 10
2040.481438289833
 20
1561.7759821524021
 30
0.0
 11
2040.481438289833
 21
1578.650490152402
 31
0.0
  0
LINE
  5
140E8
  8
0
 10
2042.6069262898329
 20
1580.775978152401
 30
0.0
 11
2074.3559502898329
 21
1580.775978152401
 31
0.0
  0
LINE
  5
140EA
  8
CENTER
 10
2058.481438289833
 20
1534.465437152402
 30
0.0
 11
2058.481438289833
 21
1582.734275478384
 31
0.0
  0
LINE
  5
140EB
  8
CENTER
 10
2038.481438289833
 20
1562.7759800412909
 30
0.0
 11
2078.481438289833
 21
1562.775982263513
 31
0.0
  0
LINE
  5
140EC
  8
0
 10
2076.481438289833
 20
1561.7759821524021
 30
0.0
 11
2093.481438289833
 21
1561.7759821524021
 31
0.0
  0
LINE
  5
140ED
  8
CENTER
 10
2032.481438289833
 20
1536.3718531524021
 30
0.0
 11
2032.481438289833
 21
1563.1343801524019
 31
0.0
  0
LINE
  5
140EE
  8
CENTER
 10
2084.481438289833
 20
1536.3718531524021
 30
0.0
 11
2084.481438289833
 21
1563.1343801524019
 31
0.0
  0
LINE
  5
14124
  8
HIDE
 10
2053.481438289833
 20
1609.5641359726801
 30
0.0
 11
2053.481438289833
 21
1645.5641359726801
 31
0.0
  0
LINE
  5
14125
  8
HIDE
 10
2063.481438289833
 20
1609.5641359726801
 30
0.0
 11
2063.481438289833
 21
1645.5641359726801
 31
0.0
  0
LINE
  5
14126
  8
0
 10
2048.981438289833
 20
1609.5641359726801
 30
0.0
 11
2048.981438289833
 21
1614.56408997268
 31
0.0
  0
LINE
  5
14127
  8
0
 10
2067.9814082898329
 20
1609.5641359726801
 30
0.0
 11
2067.9814082898329
 21
1614.56408997268
 31
0.0
  0
LINE
  5
14128
  8
0
 10
2051.481438289833
 20
1644.5641359726801
 30
0.0
 11
2051.481438289833
 21
1645.5641359726801
 31
0.0
  0
LINE
  5
14129
  8
0
 10
2065.481438289833
 20
1644.5641359726801
 30
0.0
 11
2065.481438289833
 21
1645.5641359726801
 31
0.0
  0
LINE
  5
1412A
  8
0
 10
2051.481438289833
 20
1645.5641359726801
 30
0.0
 11
2065.481438289833
 21
1645.5641359726801
 31
0.0
  0
CIRCLE
  5
1412B
  8
0
 10
2058.481438289833
 20
1613.06408597268
 30
0.0
 40
1.25
  0
CIRCLE
  5
1412C
  8
0
 10
2058.481438289833
 20
1613.06408597268
 30
0.0
 40
1.5
  0
CIRCLE
  5
1412D
  8
0
 10
2084.481438289833
 20
1632.56412097268
 30
0.0
 40
4.5
  0
CIRCLE
  5
1412E
  8
0
 10
2032.481438289833
 20
1632.56412097268
 30
0.0
 40
4.5
  0
LINE
  5
1412F
  8
0
 10
2057.067131289833
 20
1612.5643503328149
 30
0.0
 11
2057.067131289833
 21
1609.5641359726801
 31
0.0
  0
LINE
  5
14130
  8
0
 10
2059.895714289833
 20
1612.564262608056
 30
0.0
 11
2059.895714289833
 21
1609.5641359726801
 31
0.0
  0
LINE
  5
14131
  8
0
 10
2059.2314362898328
 20
1612.63107197268
 30
0.0
 11
2058.481438289833
 21
1612.1980619726801
 31
0.0
  0
LINE
  5
14132
  8
0
 10
2058.4814362898328
 20
1613.9301099726799
 30
0.0
 11
2057.731438289833
 21
1613.4970999726791
 31
0.0
  0
LINE
  5
14133
  8
0
 10
2058.481438289833
 20
1612.1980619726801
 30
0.0
 11
2057.7314402898328
 21
1612.63107197268
 31
0.0
  0
LINE
  5
14134
  8
0
 10
2059.231438289833
 20
1613.4970999726791
 30
0.0
 11
2058.4814402898328
 21
1613.9301099726799
 31
0.0
  0
LINE
  5
14135
  8
0
 10
2057.731438289833
 20
1612.63107197268
 30
0.0
 11
2057.731438289833
 21
1613.4970999726791
 31
0.0
  0
LINE
  5
14136
  8
0
 10
2059.231438289833
 20
1612.63107197268
 30
0.0
 11
2059.231438289833
 21
1613.4970999726791
 31
0.0
  0
LINE
  5
14137
  8
CENTER
 10
2055.981438289833
 20
1613.06408597268
 30
0.0
 11
2060.981438289833
 21
1613.06408597268
 31
0.0
  0
LINE
  5
14138
  8
CENTER
 10
2058.481438289833
 20
1605.874030442149
 30
0.0
 11
2058.481438289833
 21
1650.316171348187
 31
0.0
  0
LINE
  5
14139
  8
0
 10
2040.481438289833
 20
1620.56412097268
 30
0.0
 11
2040.481438289833
 21
1644.5641359726801
 31
0.0
  0
LINE
  5
1413A
  8
0
 10
2076.481438289833
 20
1620.56412097268
 30
0.0
 11
2076.481438289833
 21
1644.5641359726801
 31
0.0
  0
LINE
  5
1413B
  8
0
 10
2023.481438289833
 20
1620.56412097268
 30
0.0
 11
2023.481438289833
 21
1644.5641359726801
 31
0.0
  0
LINE
  5
1413C
  8
0
 10
2093.481438289833
 20
1620.56412097268
 30
0.0
 11
2093.481438289833
 21
1644.5641359726801
 31
0.0
  0
LINE
  5
1413D
  8
0
 10
2023.481438289833
 20
1620.56412097268
 30
0.0
 11
2093.481438289833
 21
1620.56412097268
 31
0.0
  0
LINE
  5
1413E
  8
0
 10
2023.481438289833
 20
1644.5641359726801
 30
0.0
 11
2093.481438289833
 21
1644.5641359726801
 31
0.0
  0
LINE
  5
1413F
  8
0
 10
2057.067131289833
 20
1614.56408997268
 30
0.0
 11
2057.067131289833
 21
1613.5638229726801
 31
0.0
  0
LINE
  5
14140
  8
0
 10
2059.895714289833
 20
1614.56408997268
 30
0.0
 11
2059.895714289833
 21
1613.5639109726801
 31
0.0
  0
LINE
  5
14141
  8
CENTER
 10
2026.981438289833
 20
1632.56412097268
 30
0.0
 11
2037.981438289833
 21
1632.56412097268
 31
0.0
  0
LINE
  5
14142
  8
CENTER
 10
2032.481438289833
 20
1627.06412097268
 30
0.0
 11
2032.481438289833
 21
1638.0641359726801
 31
0.0
  0
LINE
  5
14143
  8
CENTER
 10
2089.981438289833
 20
1632.56412097268
 30
0.0
 11
2078.981438289833
 21
1632.56412097268
 31
0.0
  0
LINE
  5
14144
  8
CENTER
 10
2084.481438289833
 20
1627.06412097268
 30
0.0
 11
2084.481438289833
 21
1638.0641359726801
 31
0.0
  0
LINE
  5
14145
  8
0
 10
2042.6069262898329
 20
1620.56412097268
 30
0.0
 11
2042.6069262898329
 21
1644.5641359726801
 31
0.0
  0
LINE
  5
14146
  8
0
 10
2074.3559502898329
 20
1620.56412097268
 30
0.0
 11
2074.3559502898329
 21
1644.5641359726801
 31
0.0
  0
LINE
  5
14147
  8
0
 10
2041.981438289833
 20
1614.56408997268
 30
0.0
 11
2074.981438289833
 21
1614.5640899726791
 31
0.0
  0
LINE
  5
14148
  8
0
 10
2048.981438289833
 20
1609.5641359726801
 30
0.0
 11
2067.9814082898329
 21
1609.5641359726801
 31
0.0
  0
LINE
  5
14149
  8
HIDE
 10
2125.6742821268372
 20
1557.7759821524021
 30
0.0
 11
2130.6742821268358
 21
1557.7759821524021
 31
0.0
  0
LINE
  5
1414A
  8
HIDE
 10
2146.6742821268358
 20
1557.7759821524021
 30
0.0
 11
2153.6742821268358
 21
1557.7759821524021
 31
0.0
  0
LINE
  5
1414B
  8
HIDE
 10
2125.6742821268372
 20
1567.775982152401
 30
0.0
 11
2130.6742821268358
 21
1567.775982152401
 31
0.0
  0
LINE
  5
1414C
  8
HIDE
 10
2146.6742821268358
 20
1567.775982152401
 30
0.0
 11
2153.6742821268358
 21
1567.7759821524021
 31
0.0
  0
LINE
  5
1414D
  8
0
 10
2122.674280126836
 20
1544.775981568002
 30
0.0
 11
2128.674280126836
 21
1544.775981568002
 31
0.0
  0
LINE
  5
1414F
  8
0
 10
2152.6742821268358
 20
1555.7759821524021
 30
0.0
 11
2153.6742821268358
 21
1555.7759821524021
 31
0.0
  0
LINE
  5
14150
  8
0
 10
2152.6742821268358
 20
1569.7759821524021
 30
0.0
 11
2153.6742821268358
 21
1569.7759821524021
 31
0.0
  0
LINE
  5
14151
  8
0
 10
2153.6742821268358
 20
1569.7759821524021
 30
0.0
 11
2153.6742821268358
 21
1555.7759821524021
 31
0.0
  0
LINE
  5
14152
  8
0
 10
2128.674280126836
 20
1578.7759781524021
 30
0.0
 11
2152.6742821268358
 21
1578.7759781524021
 31
0.0
  0
LINE
  5
14153
  8
0
 10
2128.674280126836
 20
1561.7759821524021
 30
0.0
 11
2152.6742821268358
 21
1561.7759821524021
 31
0.0
  0
LINE
  5
14154
  8
0
 10
2152.6742821268358
 20
1537.7759821524021
 30
0.0
 11
2152.6742821268358
 21
1580.775982459739
 31
0.0
  0
LINE
  5
14155
  8
0
 10
2128.674280126836
 20
1537.7759821524021
 30
0.0
 11
2128.674280126836
 21
1580.775982459739
 31
0.0
  0
LINE
  5
14156
  8
0
 10
2122.674280126836
 20
1544.775981568002
 30
0.0
 11
2122.674280126836
 21
1579.275977152402
 31
0.0
  0
LINE
  5
14157
  8
0
 10
2128.674280126836
 20
1537.7759821524021
 30
0.0
 11
2152.6742821268358
 21
1537.7759821524021
 31
0.0
  0
LINE
  5
14158
  8
0
 10
2128.674280126836
 20
1580.775978152401
 30
0.0
 11
2152.6742821268358
 21
1580.775978152401
 31
0.0
  0
LINE
  5
14159
  8
CENTER
 10
2115.1433378147012
 20
1562.7759821524021
 30
0.0
 11
2158.2369960508108
 21
1562.7759821524021
 31
0.0
  0
LINE
  5
1415A
  8
HIDE
 10
2125.6742821268358
 20
1555.7759821524021
 30
0.0
 11
2130.6742821268358
 21
1555.7759821524021
 31
0.0
  0
LINE
  5
1415B
  8
HIDE
 10
2146.6742821268358
 20
1555.7759821524021
 30
0.0
 11
2152.6742821268358
 21
1555.7759821524021
 31
0.0
  0
LINE
  5
1415C
  8
HIDE
 10
2125.6742821268358
 20
1569.7759821524021
 30
0.0
 11
2130.6742821268358
 21
1569.775982152403
 31
0.0
  0
LINE
  5
1415D
  8
HIDE
 10
2146.6742821268358
 20
1569.775982152403
 30
0.0
 11
2152.6742821268358
 21
1569.775982152403
 31
0.0
  0
CIRCLE
  5
1415E
  8
HIDE
 10
2142.6742821268358
 20
1553.7759821524021
 30
0.0
 40
2.399999999999999
  0
CIRCLE
  5
1415F
  8
HIDE
 10
2142.6742821268358
 20
1571.7759821524021
 30
0.0
 40
2.399999999999999
  0
CIRCLE
  5
14160
  8
HIDE
 10
2134.6742821268358
 20
1553.7759821524021
 30
0.0
 40
2.399999999999999
  0
CIRCLE
  5
14161
  8
HIDE
 10
2134.6742821268358
 20
1571.7759821524021
 30
0.0
 40
2.399999999999999
  0
ARC
  5
14162
  8
HIDE
 10
2138.5242821268362
 20
1575.625982152402
 30
0.0
 40
0.1500000000000003
 50
0.0
 51
90.0
  0
ARC
  5
14163
  8
HIDE
 10
2130.974282126836
 20
1575.4759821524019
 30
0.0
 40
0.3000000000000007
 50
90.0
 51
180.0
  0
ARC
  5
14164
  8
HIDE
 10
2138.3742821268361
 20
1568.075982152402
 30
0.0
 40
0.2999999999999998
 50
270.0
 51
0.0
  0
ARC
  5
14165
  8
HIDE
 10
2138.3742821268361
 20
1557.4759821524019
 30
0.0
 40
0.3000000000000007
 50
0.0
 51
90.0
  0
ARC
  5
14166
  8
HIDE
 10
2130.8242821268359
 20
1567.925982152402
 30
0.0
 40
0.1500000000000003
 50
180.0
 51
270.0
  0
ARC
  5
14167
  8
HIDE
 10
2130.8242821268359
 20
1557.625982152402
 30
0.0
 40
0.1500000000000003
 50
90.0
 51
180.0
  0
ARC
  5
14168
  8
HIDE
 10
2138.5242821268362
 20
1549.925982152402
 30
0.0
 40
0.1500000000000003
 50
270.0
 51
0.0
  0
ARC
  5
14169
  8
HIDE
 10
2130.974282126836
 20
1550.075982152402
 30
0.0
 40
0.2999999999999989
 50
180.0
 51
270.0
  0
LINE
  5
1416A
  8
HIDE
 10
2130.6742821268358
 20
1573.075982152402
 30
0.0
 11
2132.656858026653
 21
1573.075982152402
 31
0.0
  0
LINE
  5
1416B
  8
HIDE
 10
2130.974282126836
 20
1575.7759821524021
 30
0.0
 11
2138.5242821268362
 21
1575.7759821524021
 31
0.0
  0
LINE
  5
1416C
  8
HIDE
 10
2138.6742821268358
 20
1570.4759821524019
 30
0.0
 11
2136.691706227019
 21
1570.4759821524019
 31
0.0
  0
LINE
  5
1416D
  8
HIDE
 10
2135.527557616927
 20
1574.019176512686
 30
0.0
 11
2138.6742821268358
 21
1574.325982152402
 31
0.0
  0
LINE
  5
1416E
  8
HIDE
 10
2130.6742821268358
 20
1570.4759821524019
 30
0.0
 11
2132.656858026653
 21
1570.4759821524019
 31
0.0
  0
LINE
  5
1416F
  8
HIDE
 10
2130.6742821268358
 20
1555.075982152402
 30
0.0
 11
2132.656858026653
 21
1555.075982152402
 31
0.0
  0
LINE
  5
14170
  8
HIDE
 10
2130.8242821268359
 20
1567.7759821524021
 30
0.0
 11
2138.3742821268361
 21
1567.7759821524021
 31
0.0
  0
LINE
  5
14171
  8
HIDE
 10
2130.8242821268359
 20
1557.7759821524021
 30
0.0
 11
2138.3742821268361
 21
1557.7759821524021
 31
0.0
  0
LINE
  5
14172
  8
HIDE
 10
2138.6742821268358
 20
1555.075982152402
 30
0.0
 11
2136.691706227019
 21
1555.075982152402
 31
0.0
  0
LINE
  5
14173
  8
HIDE
 10
2130.6742821268358
 20
1552.4759821524019
 30
0.0
 11
2132.656858026653
 21
1552.4759821524019
 31
0.0
  0
LINE
  5
14174
  8
HIDE
 10
2138.5242821268362
 20
1549.7759821524021
 30
0.0
 11
2130.974282126836
 21
1549.7759821524021
 31
0.0
  0
LINE
  5
14175
  8
HIDE
 10
2135.527557616927
 20
1551.5327877921179
 30
0.0
 11
2138.6742821268358
 21
1551.2259821524019
 31
0.0
  0
LINE
  5
14176
  8
HIDE
 10
2130.6742821268358
 20
1550.075982152402
 30
0.0
 11
2130.6742821268358
 21
1575.4759821524019
 31
0.0
  0
LINE
  5
14177
  8
HIDE
 10
2138.6742821268358
 20
1575.625982152402
 30
0.0
 11
2138.6742821268358
 21
1549.925982152402
 31
0.0
  0
ARC
  5
14178
  8
HIDE
 10
2138.8242821268359
 20
1549.925982152402
 30
0.0
 40
0.1500000000000003
 50
180.0
 51
270.0
  0
ARC
  5
14179
  8
HIDE
 10
2146.3742821268361
 20
1550.075982152402
 30
0.0
 40
0.3000000000000007
 50
270.0
 51
0.0
  0
ARC
  5
1417A
  8
HIDE
 10
2138.974282126836
 20
1557.4759821524019
 30
0.0
 40
0.2999999999999998
 50
90.0
 51
180.0
  0
ARC
  5
1417B
  8
HIDE
 10
2138.974282126836
 20
1568.075982152402
 30
0.0
 40
0.2999999999999998
 50
180.0
 51
270.0
  0
ARC
  5
1417C
  8
HIDE
 10
2146.5242821268362
 20
1557.625982152402
 30
0.0
 40
0.15
 50
0.0
 51
90.0
  0
ARC
  5
1417D
  8
HIDE
 10
2146.5242821268362
 20
1567.925982152402
 30
0.0
 40
0.1500000000000003
 50
270.0
 51
0.0
  0
ARC
  5
1417E
  8
HIDE
 10
2138.8242821268359
 20
1575.625982152402
 30
0.0
 40
0.1500000000000003
 50
90.0
 51
180.0
  0
ARC
  5
1417F
  8
HIDE
 10
2146.3742821268361
 20
1575.4759821524019
 30
0.0
 40
0.3
 50
0.0
 51
90.0
  0
LINE
  5
14180
  8
HIDE
 10
2146.6742821268358
 20
1552.4759821524019
 30
0.0
 11
2144.691706227019
 21
1552.4759821524019
 31
0.0
  0
LINE
  5
14181
  8
HIDE
 10
2146.3742821268361
 20
1549.7759821524021
 30
0.0
 11
2138.8242821268359
 21
1549.7759821524021
 31
0.0
  0
LINE
  5
14182
  8
HIDE
 10
2138.6742821268358
 20
1555.075982152402
 30
0.0
 11
2140.656858026653
 21
1555.075982152402
 31
0.0
  0
LINE
  5
14183
  8
HIDE
 10
2141.8210066367451
 20
1551.5327877921179
 30
0.0
 11
2138.6742821268358
 21
1551.2259821524019
 31
0.0
  0
LINE
  5
14184
  8
HIDE
 10
2146.6742821268358
 20
1555.075982152402
 30
0.0
 11
2144.691706227019
 21
1555.075982152402
 31
0.0
  0
LINE
  5
14185
  8
HIDE
 10
2146.6742821268358
 20
1570.4759821524019
 30
0.0
 11
2144.691706227019
 21
1570.4759821524019
 31
0.0
  0
LINE
  5
14186
  8
HIDE
 10
2146.5242821268362
 20
1557.7759821524021
 30
0.0
 11
2138.974282126836
 21
1557.7759821524021
 31
0.0
  0
LINE
  5
14187
  8
HIDE
 10
2146.5242821268362
 20
1567.7759821524021
 30
0.0
 11
2138.974282126836
 21
1567.7759821524021
 31
0.0
  0
LINE
  5
14188
  8
HIDE
 10
2138.6742821268358
 20
1570.4759821524019
 30
0.0
 11
2140.656858026653
 21
1570.4759821524019
 31
0.0
  0
LINE
  5
14189
  8
HIDE
 10
2146.6742821268358
 20
1573.075982152402
 30
0.0
 11
2144.691706227019
 21
1573.075982152402
 31
0.0
  0
LINE
  5
1418A
  8
HIDE
 10
2138.8242821268359
 20
1575.7759821524021
 30
0.0
 11
2146.3742821268361
 21
1575.7759821524021
 31
0.0
  0
LINE
  5
1418B
  8
HIDE
 10
2141.8210066367451
 20
1574.019176512686
 30
0.0
 11
2138.6742821268358
 21
1574.325982152402
 31
0.0
  0
LINE
  5
1418C
  8
HIDE
 10
2146.6742821268358
 20
1575.4759821524019
 30
0.0
 11
2146.6742821268358
 21
1550.075982152402
 31
0.0
  0
LINE
  5
1418D
  8
CENTER
 10
2127.7585329169319
 20
1562.7759821524021
 30
0.0
 11
2116.7740295006311
 21
1562.7759821524021
 31
0.0
  0
LINE
  5
1418E
  8
0
 10
2122.674280126836
 20
1572.7759821524021
 30
0.0
 11
2117.6742821268381
 21
1572.7759821524021
 31
0.0
  0
LINE
  5
1418F
  8
HIDE
 10
2125.1742821268358
 20
1572.7759821524021
 30
0.0
 11
2125.1742821268358
 21
1562.7759821524021
 31
0.0
  0
LINE
  5
14190
  8
HIDE
 10
2125.6742821268358
 20
1570.2759821524021
 30
0.0
 11
2125.6742821268358
 21
1562.7759821524021
 31
0.0
  0
LINE
  5
14191
  8
CENTER
 10
2121.1742821268358
 20
1573.3731738295
 30
0.0
 11
2121.1742821268358
 21
1566.5826524467629
 31
0.0
  0
LINE
  5
14192
  8
0
 10
2117.6742821268358
 20
1572.7759821524021
 30
0.0
 11
2117.6742821268358
 21
1562.7759821524021
 31
0.0
  0
LINE
  5
14193
  8
HIDE
 10
2125.674282126834
 20
1570.275982152403
 30
0.0
 11
2125.174282126834
 21
1570.5646572869989
 31
0.0
  0
LINE
  5
14194
  8
0
 10
2122.674280126836
 20
1564.190195714777
 30
0.0
 11
2117.6742821268358
 21
1564.1901957147779
 31
0.0
  0
LINE
  5
14195
  8
HIDE
 10
2125.6742821268358
 20
1567.275982152403
 30
0.0
 11
2117.6742821268358
 21
1567.2759821524021
 31
0.0
  0
LINE
  5
14196
  8
HIDE
 10
2125.6742821268358
 20
1567.7759821524021
 30
0.0
 11
2117.6742821268358
 21
1567.7759821524021
 31
0.0
  0
LINE
  5
14197
  8
HIDE
 10
2119.6742821268358
 20
1572.7759821524021
 30
0.0
 11
2119.674282126834
 21
1567.2759821524021
 31
0.0
  0
LINE
  5
14198
  8
HIDE
 10
2119.9242821268358
 20
1572.7759821524021
 30
0.0
 11
2119.9242821268358
 21
1567.2759821524021
 31
0.0
  0
LINE
  5
14199
  8
HIDE
 10
2122.674282126834
 20
1572.7759821524021
 30
0.0
 11
2122.6742821268322
 21
1567.2759821524021
 31
0.0
  0
LINE
  5
1419A
  8
HIDE
 10
2122.4242821268358
 20
1572.7759821524021
 30
0.0
 11
2122.4242821268358
 21
1567.2759821524021
 31
0.0
  0
LINE
  5
1419B
  8
HIDE
 10
2122.6742821268322
 20
1569.249007286239
 30
0.0
 11
2119.6742821268322
 21
1569.249007286239
 31
0.0
  0
LINE
  5
1419C
  8
HIDE
 10
2122.6742821268322
 20
1572.249007286239
 30
0.0
 11
2119.6742821268322
 21
1572.249007286239
 31
0.0
  0
LINE
  5
1419D
  8
HIDE
 10
2122.6742821268322
 20
1569.249007286237
 30
0.0
 11
2122.4242821268358
 21
1569.104669718942
 31
0.0
  0
LINE
  5
1419E
  8
HIDE
 10
2119.6742821268358
 20
1569.2490072862381
 30
0.0
 11
2119.9242821268358
 21
1569.1046697189411
 31
0.0
  0
LINE
  5
1419F
  8
HIDE
 10
2122.4242821268358
 20
1569.104669718942
 30
0.0
 11
2119.9242821268358
 21
1569.1046697189411
 31
0.0
  0
LINE
  5
141A0
  8
0
 10
2122.674280126836
 20
1552.7759821524021
 30
0.0
 11
2117.6742821268381
 21
1552.7759821524021
 31
0.0
  0
LINE
  5
141A1
  8
HIDE
 10
2125.1742821268358
 20
1552.7759821524021
 30
0.0
 11
2125.1742821268358
 21
1562.7759821524021
 31
0.0
  0
LINE
  5
141A2
  8
HIDE
 10
2125.6742821268358
 20
1555.2759821524021
 30
0.0
 11
2125.6742821268358
 21
1562.7759821524021
 31
0.0
  0
LINE
  5
141A3
  8
0
 10
2117.6742821268358
 20
1552.7759821524021
 30
0.0
 11
2117.6742821268358
 21
1562.7759821524021
 31
0.0
  0
LINE
  5
141A4
  8
HIDE
 10
2125.674282126834
 20
1555.275982152401
 30
0.0
 11
2125.174282126834
 21
1554.9873070178051
 31
0.0
  0
LINE
  5
141A5
  8
0
 10
2122.674280126836
 20
1561.3617685900249
 30
0.0
 11
2117.6742821268358
 21
1561.361768590026
 31
0.0
  0
LINE
  5
141A6
  8
HIDE
 10
2125.6742821268358
 20
1558.275982152401
 30
0.0
 11
2117.6742821268358
 21
1558.2759821524021
 31
0.0
  0
LINE
  5
141A7
  8
HIDE
 10
2125.6742821268358
 20
1557.7759821524021
 30
0.0
 11
2117.6742821268358
 21
1557.7759821524021
 31
0.0
  0
LINE
  5
141A8
  8
HIDE
 10
2122.674280126836
 20
1564.190195714777
 30
0.0
 11
2125.1742821268358
 21
1564.190195714777
 31
0.0
  0
LINE
  5
141A9
  8
HIDE
 10
2122.674280126836
 20
1561.3617685900249
 30
0.0
 11
2125.1742821268358
 21
1561.3617685900249
 31
0.0
  0
LINE
  5
141AA
  8
HIDE
 10
2122.674280126836
 20
1552.7759821524021
 30
0.0
 11
2125.1742821268358
 21
1552.7759821524021
 31
0.0
  0
LINE
  5
141AB
  8
HIDE
 10
2122.674280126836
 20
1572.7759821524021
 30
0.0
 11
2125.1742821268358
 21
1572.7759821524021
 31
0.0
  0
LINE
  5
141AC
  8
CENTER
 10
2140.6742811268368
 20
1531.2109089363851
 30
0.0
 11
2140.6742811268368
 21
1543.1634736718349
 31
0.0
  0
ARC
  5
141F4
  8
CENTER
 10
2058.481438289833
 20
1562.775981152402
 30
0.0
 40
16.0
 50
118.12257009414201
 51
152.40997700455259
  0
ARC
  5
141F5
  8
CENTER
 10
2058.481438289833
 20
1562.775981152402
 30
0.0
 40
16.0
 50
27.32330016572579
 51
62.329954784831337
  0
ARC
  5
141F6
  8
CENTER
 10
2058.481438289833
 20
1562.775981152402
 30
0.0
 40
16.0
 50
299.21386204179998
 51
331.99845584127081
  0
CIRCLE
  5
141F7
  8
0
 10
2058.481438289833
 20
1562.775981152402
 30
0.0
 40
11.0
  0
ARC
  5
141F8
  8
CENTER
 10
2058.481438289833
 20
1562.775981152402
 30
0.0
 40
16.0
 50
209.32223899682199
 51
242.15484192175541
  0
CIRCLE
  5
141F9
  8
0
 10
2069.795159289833
 20
1574.0894461524019
 30
0.0
 40
3.5
  0
CIRCLE
  5
141FA
  8
0
 10
2047.1679612898331
 20
1574.089690152402
 30
0.0
 40
3.5
  0
CIRCLE
  5
141FB
  8
0
 10
2047.1679612898331
 20
1551.4625041524021
 30
0.0
 40
3.5
  0
CIRCLE
  5
141FC
  8
0
 10
2069.7949152898332
 20
1551.462489152402
 30
0.0
 40
3.5
  0
ARC
  5
141FD
  8
0
 10
2058.481438289833
 20
1562.775981152402
 30
0.0
 40
21.0
 50
38.213207999986018
 51
51.786787999993003
  0
ARC
  5
141FE
  8
0
 10
2058.481438289833
 20
1562.775981152402
 30
0.0
 40
21.0
 50
218.21324999998069
 51
231.78680000001989
  0
ARC
  5
141FF
  8
0
 10
2058.481438289833
 20
1562.775981152402
 30
0.0
 40
21.0
 50
308.21320999998869
 51
321.78679000001131
  0
ARC
  5
14200
  8
0
 10
2058.481438289833
 20
1562.775981152402
 30
0.0
 40
21.0
 50
128.21319999998011
 51
141.78675000001931
  0
LINE
  5
14201
  8
0
 10
2048.323787289833
 20
1549.4642311524019
 30
0.0
 11
2049.4784502898328
 21
1551.464166152402
 31
0.0
  0
LINE
  5
14202
  8
CENTER
 10
2073.0629926841698
 20
1577.3570055467389
 30
0.0
 11
2066.7278909064748
 21
1571.021903769044
 31
0.0
  0
LINE
  5
14203
  8
0
 10
2070.9499442898332
 20
1576.089690152402
 30
0.0
 11
2068.6406182898331
 21
1576.089690152402
 31
0.0
  0
LINE
  5
14204
  8
0
 10
2070.9499442898332
 20
1572.089690152402
 30
0.0
 11
2068.6406182898331
 21
1572.089690152402
 31
0.0
  0
LINE
  5
14205
  8
0
 10
2070.9490402898332
 20
1576.088792152402
 30
0.0
 11
2072.103703289833
 21
1574.0888571524019
 31
0.0
  0
LINE
  5
14206
  8
0
 10
2067.4849382898328
 20
1574.088792152402
 30
0.0
 11
2068.6396012898331
 21
1572.0888571524019
 31
0.0
  0
LINE
  5
14207
  8
0
 10
2072.103582289833
 20
1574.0875941524021
 30
0.0
 11
2070.9489192898332
 21
1572.087659152402
 31
0.0
  0
LINE
  5
14208
  8
0
 10
2046.0139732898331
 20
1549.4630181524019
 30
0.0
 11
2044.859310289833
 21
1551.4629541524021
 31
0.0
  0
LINE
  5
14209
  8
0
 10
2068.639480289833
 20
1576.0875941524021
 30
0.0
 11
2067.4848182898331
 21
1574.087659152402
 31
0.0
  0
LINE
  5
1420A
  8
0
 10
2049.4780742898329
 20
1551.4630181524019
 30
0.0
 11
2048.3234112898331
 21
1553.4629541524021
 31
0.0
  0
LINE
  5
1420B
  8
0
 10
2044.8596852898329
 20
1551.4642311524019
 30
0.0
 11
2046.0143482898329
 21
1553.464166152402
 31
0.0
  0
LINE
  5
1420C
  8
CENTER
 10
2044.0886904555371
 20
1577.168768079704
 30
0.0
 11
2050.1659933424912
 21
1571.091466008495
 31
0.0
  0
LINE
  5
1420D
  8
CENTER
 10
2072.9283906716382
 20
1548.3291766847831
 30
0.0
 11
2066.6668840515899
 21
1554.5906824643621
 31
0.0
  0
LINE
  5
1420E
  8
0
 10
2071.795159289833
 20
1550.307704152402
 30
0.0
 11
2071.795159289833
 21
1552.6170301524021
 31
0.0
  0
LINE
  5
1420F
  8
0
 10
2045.1679612898331
 20
1575.244353152402
 30
0.0
 11
2045.1679612898331
 21
1572.9349471524019
 31
0.0
  0
LINE
  5
14210
  8
0
 10
2049.1679612898329
 20
1575.244353152402
 30
0.0
 11
2049.1679612898329
 21
1572.9349471524019
 31
0.0
  0
LINE
  5
14211
  8
0
 10
2045.168494289833
 20
1575.2434721524021
 30
0.0
 11
2047.168482289833
 21
1576.3981661524019
 31
0.0
  0
LINE
  5
14212
  8
0
 10
2047.168494289833
 20
1571.7793711524021
 30
0.0
 11
2049.1684822898328
 21
1572.9340651524019
 31
0.0
  0
LINE
  5
14213
  8
0
 10
2047.169975289833
 20
1576.3979001524019
 30
0.0
 11
2049.1699102898328
 21
1575.2432371524019
 31
0.0
  0
LINE
  5
14214
  8
0
 10
2045.169975289833
 20
1572.933798152402
 30
0.0
 11
2047.1699102898331
 21
1571.779135152402
 31
0.0
  0
LINE
  5
14215
  8
CENTER
 10
2044.1129106054429
 20
1548.406923371763
 30
0.0
 11
2050.3007360050228
 21
1554.5947479407621
 31
0.0
  0
LINE
  5
14216
  8
0
 10
2046.0131762898329
 20
1549.462489152402
 30
0.0
 11
2048.3225022898332
 21
1549.462489152402
 31
0.0
  0
LINE
  5
14217
  8
0
 10
2045.4912042898329
 20
1579.275977152402
 30
0.0
 11
2071.4719172898331
 21
1579.275977152402
 31
0.0
  0
LINE
  5
14218
  8
0
 10
2067.795159289833
 20
1550.307704152402
 30
0.0
 11
2067.795159289833
 21
1552.6170301524021
 31
0.0
  0
LINE
  5
14219
  8
0
 10
2045.4912042898329
 20
1546.275981152402
 30
0.0
 11
2071.4719172898331
 21
1546.275981152402
 31
0.0
  0
LINE
  5
1421A
  8
0
 10
2046.0131762898329
 20
1553.462489152402
 30
0.0
 11
2048.3225022898332
 21
1553.462489152402
 31
0.0
  0
LINE
  5
1421B
  8
0
 10
2071.7944342898331
 20
1550.308484152403
 30
0.0
 11
2069.7944992898329
 21
1549.1538211524021
 31
0.0
  0
LINE
  5
1421C
  8
0
 10
2069.7944342898331
 20
1553.772586152402
 30
0.0
 11
2067.7944992898329
 21
1552.617923152402
 31
0.0
  0
LINE
  5
1421D
  8
0
 10
2069.793315289834
 20
1549.153963152402
 30
0.0
 11
2067.7933802898328
 21
1550.308626152402
 31
0.0
  0
LINE
  5
1421E
  8
0
 10
2071.7933152898331
 20
1552.6180651524021
 30
0.0
 11
2069.7933802898328
 21
1553.7727281524019
 31
0.0
  0
LINE
  5
1421F
  8
0
 10
2041.981438289833
 20
1575.766349152402
 30
0.0
 11
2041.981438289833
 21
1549.7855941524019
 31
0.0
  0
LINE
  5
14220
  8
0
 10
2074.981438289833
 20
1575.766349152402
 30
0.0
 11
2074.981438289833
 21
1549.7855941524019
 31
0.0
  0
ARC
  5
14221
  8
0
 10
2058.481438289833
 20
1562.775981152402
 30
0.0
 40
10.0
 50
81.869897645832935
 51
98.130102354167065
  0
ARC
  5
14222
  8
0
 10
2058.481438289833
 20
1562.775981152402
 30
0.0
 40
10.0
 50
171.86989764583299
 51
188.13010235416701
  0
ARC
  5
14223
  8
0
 10
2058.481438289833
 20
1562.775981152402
 30
0.0
 40
10.0
 50
261.86989764583291
 51
278.13010235416709
  0
ARC
  5
14224
  8
0
 10
2058.481438289833
 20
1562.775981152402
 30
0.0
 40
10.0
 50
351.86989764583302
 51
8.1301023541670059
  0
POLYLINE
  5
14225
  8
0
 66
     1
 10
0.0
 20
0.0
 30
0.0
  0
VERTEX
  5
143B1
  8
0
 10
2068.3809332264441
 20
1564.190194714776
 30
0.0
  0
VERTEX
  5
143B2
  8
0
 10
2059.8956518522059
 20
1572.675476089013
 30
0.0
  0
SEQEND
  5
143B3
  8
0
  0
POLYLINE
  5
14226
  8
0
 66
     1
 10
0.0
 20
0.0
 30
0.0
  0
VERTEX
  5
143B4
  8
0
 10
2057.0672247274601
 20
1572.6754760890151
 30
0.0
  0
VERTEX
  5
143B5
  8
0
 10
2048.581943353221
 20
1564.190194714776
 30
0.0
  0
SEQEND
  5
143B6
  8
0
  0
POLYLINE
  5
14227
  8
0
 66
     1
 10
0.0
 20
0.0
 30
0.0
  0
VERTEX
  5
143B7
  8
0
 10
2048.581943353221
 20
1561.3617675900291
 30
0.0
  0
VERTEX
  5
143B8
  8
0
 10
2057.0672247274601
 20
1552.87648621579
 30
0.0
  0
SEQEND
  5
143B9
  8
0
  0
POLYLINE
  5
14228
  8
0
 66
     1
 10
0.0
 20
0.0
 30
0.0
  0
VERTEX
  5
143BA
  8
0
 10
2059.8956518522059
 20
1552.87648621579
 30
0.0
  0
VERTEX
  5
143BB
  8
0
 10
2068.3809332264441
 20
1561.3617675900291
 30
0.0
  0
SEQEND
  5
143BC
  8
0
  0
ARC
  5
14229
  8
HIDE
 10
2058.481438289833
 20
1562.775981152402
 30
0.0
 40
5.0
 50
270.0
 51
180.0
  0
CIRCLE
  5
1422A
  8
0
 10
2058.481438289833
 20
1562.775981152402
 30
0.0
 40
4.5
  0
LINE
  5
1422B
  8
HIDE
 10
2059.981438289833
 20
1572.5896896513871
 30
0.0
 11
2059.981438289833
 21
1567.0186218395211
 31
0.0
  0
LINE
  5
1422C
  8
HIDE
 10
2059.731438289833
 20
1572.6975485688949
 30
0.0
 11
2059.731438289833
 21
1567.0988852688499
 31
0.0
  0
LINE
  5
1422D
  8
HIDE
 10
2056.9814382898348
 20
1572.5896896513909
 30
0.0
 11
2056.9814382898371
 21
1567.0186218395229
 31
0.0
  0
LINE
  5
1422E
  8
HIDE
 10
2057.231438289833
 20
1572.6975485688949
 30
0.0
 11
2057.2314382898312
 21
1567.0988852688499
 31
0.0
  0
LINE
  5
1422F
  8
HIDE
 10
2056.9814382898371
 20
1569.2490062862389
 30
0.0
 11
2059.9814382898362
 21
1569.2490062862389
 31
0.0
  0
LINE
  5
14230
  8
HIDE
 10
2056.9814382898371
 20
1572.2490062862389
 30
0.0
 11
2059.9814382898362
 21
1572.2490062862389
 31
0.0
  0
LINE
  5
14231
  8
HIDE
 10
2056.9814382898371
 20
1569.2490062862371
 30
0.0
 11
2057.231438289833
 21
1569.1046687189421
 31
0.0
  0
LINE
  5
14232
  8
HIDE
 10
2059.981438289833
 20
1569.249006286238
 30
0.0
 11
2059.731438289833
 21
1569.104668718941
 31
0.0
  0
LINE
  5
14233
  8
HIDE
 10
2057.231438289833
 20
1569.1046687189421
 30
0.0
 11
2059.731438289833
 21
1569.104668718941
 31
0.0
  0
LINE
  5
1423A
  8
0
 10
2122.674280126836
 20
1579.275977152402
 30
0.0
 11
2128.674280126836
 21
1579.275977152402
 31
0.0
  0
LINE
  5
1423B
  8
0
 10
2041.981438289833
 20
1614.56408997268
 30
0.0
 11
2041.981438289833
 21
1620.56412097268
 31
0.0
  0
LINE
  5
1423C
  8
0
 10
2074.981438289833
 20
1614.56408997268
 30
0.0
 11
2074.981438289833
 21
1620.56412097268
 31
0.0
  0
ENDSEC
  0
EOF
