  0
SECTION
  2
HEADER
  9
$ACADVER
  1
AC1009
  9
$INSBASE
 10
0.0
 20
0.0
 30
0.0
  9
$EXTMIN
 10
2027.9246257712559
 20
1462.494798306092
 30
0.0
  9
$EXTMAX
 10
2220.2001439316341
 20
1687.5710419662839
 30
0.0
  9
$LIMMIN
 10
0.0
 20
0.0
  9
$LIMMAX
 10
12.0
 20
9.0
  9
$ORTHOMODE
 70
     1
  9
$REGENMODE
 70
     1
  9
$FILLMODE
 70
     1
  9
$QTEXTMODE
 70
     0
  9
$MIRRTEXT
 70
     0
  9
$DRAGMODE
 70
     2
  9
$LTSCALE
 40
5.0
  9
$OSMODE
 70
  2239
  9
$ATTMODE
 70
     1
  9
$TEXTSIZE
 40
2.5
  9
$TRACEWID
 40
0.05
  9
$TEXTSTYLE
  7
BIG
  9
$CLAYER
  8
0
  9
$CELTYPE
  6
BYLAYER
  9
$CECOLOR
 62
   256
  9
$DIMSCALE
 40
1.0
  9
$DIMASZ
 40
3.0
  9
$DIMEXO
 40
1.0
  9
$DIMDLI
 40
0.0
  9
$DIMRND
 40
0.0
  9
$DIMDLE
 40
0.0
  9
$DIMEXE
 40
1.0
  9
$DIMTP
 40
0.0
  9
$DIMTM
 40
0.0
  9
$DIMTXT
 40
3.0
  9
$DIMCEN
 40
0.0
  9
$DIMTSZ
 40
0.0
  9
$DIMTOL
 70
     0
  9
$DIMLIM
 70
     0
  9
$DIMTIH
 70
     0
  9
$DIMTOH
 70
     0
  9
$DIMSE1
 70
     0
  9
$DIMSE2
 70
     0
  9
$DIMTAD
 70
     1
  9
$DIMZIN
 70
     8
  9
$DIMBLK
  1

  9
$DIMASO
 70
     1
  9
$DIMSHO
 70
     1
  9
$DIMPOST
  1

  9
$DIMAPOST
  1

  9
$DIMALT
 70
     0
  9
$DIMALTD
 70
     2
  9
$DIMALTF
 40
25.399999999999999
  9
$DIMLFAC
 40
1.0
  9
$DIMTOFL
 70
     1
  9
$DIMTVP
 40
0.0
  9
$DIMTIX
 70
     1
  9
$DIMSOXD
 70
     0
  9
$DIMSAH
 70
     0
  9
$DIMBLK1
  1

  9
$DIMBLK2
  1

  9
$DIMSTYLE
  2
DUKITEC
  9
$DIMCLRD
 70
     5
  9
$DIMCLRE
 70
     5
  9
$DIMCLRT
 70
     0
  9
$DIMTFAC
 40
1.0
  9
$DIMGAP
 40
1.0
  9
$LUNITS
 70
     2
  9
$LUPREC
 70
     4
  9
$SKETCHINC
 40
0.1
  9
$FILLETRAD
 40
0.2
  9
$AUNITS
 70
     0
  9
$AUPREC
 70
     0
  9
$MENU
  1
.
  9
$ELEVATION
 40
0.0
  9
$PELEVATION
 40
0.0
  9
$THICKNESS
 40
0.0
  9
$LIMCHECK
 70
     0
  9
$BLIPMODE
 70
     0
  9
$CHAMFERA
 40
0.5
  9
$CHAMFERB
 40
0.5
  9
$SKPOLY
 70
     0
  9
$TDCREATE
 40
2454396.7058799891
  9
$TDUPDATE
 40
2456630.6954229628
  9
$TDINDWG
 40
0.0107134838
  9
$TDUSRTIMER
 40
0.0107133681
  9
$USRTIMER
 70
     1
  9
$ANGBASE
 50
0.0
  9
$ANGDIR
 70
     0
  9
$PDMODE
 70
     0
  9
$PDSIZE
 40
0.0
  9
$PLINEWID
 40
0.0
  9
$COORDS
 70
     1
  9
$SPLFRAME
 70
     0
  9
$SPLINETYPE
 70
     6
  9
$SPLINESEGS
 70
     8
  9
$ATTDIA
 70
     0
  9
$ATTREQ
 70
     1
  9
$HANDLING
 70
     1
  9
$HANDSEED
  5
1452C
  9
$SURFTAB1
 70
     6
  9
$SURFTAB2
 70
     6
  9
$SURFTYPE
 70
     6
  9
$SURFU
 70
     6
  9
$SURFV
 70
     6
  9
$UCSNAME
  2

  9
$UCSORG
 10
0.0
 20
0.0
 30
0.0
  9
$UCSXDIR
 10
1.0
 20
0.0
 30
0.0
  9
$UCSYDIR
 10
0.0
 20
1.0
 30
0.0
  9
$PUCSNAME
  2

  9
$PUCSORG
 10
0.0
 20
0.0
 30
0.0
  9
$PUCSXDIR
 10
1.0
 20
0.0
 30
0.0
  9
$PUCSYDIR
 10
0.0
 20
1.0
 30
0.0
  9
$USERI1
 70
     0
  9
$USERI2
 70
     0
  9
$USERI3
 70
     0
  9
$USERI4
 70
     0
  9
$USERI5
 70
     0
  9
$USERR1
 40
0.0
  9
$USERR2
 40
0.0
  9
$USERR3
 40
0.0
  9
$USERR4
 40
0.0
  9
$USERR5
 40
0.0
  9
$WORLDVIEW
 70
     1
  9
$SHADEDGE
 70
     3
  9
$SHADEDIF
 70
    70
  9
$TILEMODE
 70
     1
  9
$MAXACTVP
 70
    64
  9
$PLIMCHECK
 70
     0
  9
$PEXTMIN
 10
0.0
 20
0.0
 30
0.0
  9
$PEXTMAX
 10
0.0
 20
0.0
 30
0.0
  9
$PLIMMIN
 10
0.0
 20
0.0
  9
$PLIMMAX
 10
12.0
 20
9.0
  9
$UNITMODE
 70
     0
  9
$VISRETAIN
 70
     1
  9
$PLINEGEN
 70
     0
  9
$PSLTSCALE
 70
     1
  0
ENDSEC
  0
SECTION
  2
TABLES
  0
TABLE
  2
VPORT
 70
     1
  0
VPORT
  2
*ACTIVE
 70
     0
 10
0.0
 20
0.0
 11
1.0
 21
1.0
 12
2129.9824468599109
 22
1590.822865455485
 13
0.0
 23
0.0
 14
0.5
 24
0.5
 15
0.5
 25
0.5
 16
0.0
 26
0.0
 36
1.0
 17
0.0
 27
0.0
 37
0.0
 40
329.63311648302971
 41
2.2309552599758158
 42
50.0
 43
0.0
 44
0.0
 50
0.0
 51
0.0
 71
     0
 72
  2000
 73
     1
 74
     3
 75
     0
 76
     0
 77
     0
 78
     0
  0
ENDTAB
  0
TABLE
  2
LTYPE
 70
     5
  0
LTYPE
  2
CONTINUOUS
 70
     0
  3
Solid line
 72
    65
 73
     0
 40
0.0
  0
LTYPE
  2
PHANTOM2
 70
     0
  3
Phantom (.5x) ___ _ _ ___ _ _ ___ _ _ ___ _ _
 72
    65
 73
     6
 40
1.25
 49
0.625
 49
-0.125
 49
0.125
 49
-0.125
 49
0.125
 49
-0.125
  0
LTYPE
  2
CENTER
 70
     0
  3
___ _ ___ _ ___ _ ___ _ ___ _ ___ _ ___ _ ___ _
 72
    65
 73
     4
 40
0.95
 49
0.625
 49
-0.125
 49
0.075
 49
-0.125
  0
LTYPE
  2
DASHED2
 70
     0
  3
Dashed (.5x) _ _ _ _ _ _ _ _ _ _ _ _ _ _ _ _ _
 72
    65
 73
     2
 40
0.375
 49
0.25
 49
-0.125
  0
ENDTAB
  0
TABLE
  2
LAYER
 70
     3
  0
LAYER
  2
0
 70
     0
 62
     7
  6
CONTINUOUS
  0
LAYER
  2
HIDE
 70
     0
 62
     1
  6
DASHED2
  0
LAYER
  2
CENTER
 70
     0
 62
     3
  6
CENTER
  0
ENDTAB
  0
TABLE
  2
STYLE
 70
     3
  0
STYLE
  2
STANDARD
 70
     0
 40
5.0
 41
1.0
 50
0.0
 71
     0
 42
5.0
  3
txt.shx
  4
whgtxt.shx
  0
STYLE
  2
BIG
 70
     0
 40
20.0
 41
1.0
 50
0.0
 71
     0
 42
2.5
  3
txt
  4

  0
ENDTAB
  0
TABLE
  2
VIEW
 70
     0
  0
ENDTAB
  0
TABLE
  2
UCS
 70
     0
  0
ENDTAB
  0
TABLE
  2
APPID
 70
    14
  0
APPID
  2
ACAD
 70
     0
  0
APPID
  2
ACADANNOTATIVE
 70
     0
  0
APPID
  2
ACAD_EXEMPT_FROM_CAD_STANDARDS
 70
     0
  0
APPID
  2
ACAD_DSTYLE_DIMJOGGED_JOGA
 70
     0
  0
APPID
  2
ACAD_PSEXT
 70
     0
  0
APPID
  2
ACAECLAYERSTANDARD
 70
     0
  0
APPID
  2
DCO15
 70
     0
  0
APPID
  2
CONTENTBLOCKICON
 70
     0
  0
APPID
  2
ACAD_NAV_VCDISPLAY
 70
     0
  0
APPID
  2
ACAD_DSTYLE_DIMJAG
 70
     0
  0
APPID
  2
ACAD_DSTYLE_DIMBREAK
 70
     0
  0
APPID
  2
ACAD_DSTYLE_DIMTALN
 70
     0
  0
APPID
  2
ACAD_DSTYLE_DIMTEXT_FILL
 70
     0
  0
APPID
  2
ACAD_MLEADERVER
 70
     0
  0
ENDTAB
  0
TABLE
  2
DIMSTYLE
 70
     4
  0
DIMSTYLE
  2
DUKITEC
 70
     0
  3

  4

  5

  6

  7

 40
1.0
 41
3.0
 42
1.0
 43
0.0
 44
1.0
 45
0.0
 46
0.0
 47
0.0
 48
0.0
140
3.0
141
0.0
142
0.0
143
25.399999999999999
144
1.0
145
0.0
146
1.0
147
1.0
 71
     0
 72
     0
 73
     0
 74
     0
 75
     0
 76
     0
 77
     1
 78
     8
170
     0
171
     2
172
     1
173
     0
174
     1
175
     0
176
     5
177
     5
178
     0
  0
ENDTAB
  0
ENDSEC
  0
SECTION
  2
BLOCKS
  0
BLOCK
  8
0
  2
$MODEL_SPACE
 70
     0
 10
0.0
 20
0.0
 30
0.0
  3
$MODEL_SPACE
  1

  0
ENDBLK
  5
14454
  8
0
  0
BLOCK
 67
     1
  8
0
  2
$PAPER_SPACE
 70
     0
 10
0.0
 20
0.0
 30
0.0
  3
$PAPER_SPACE
  1

  0
ENDBLK
  5
14450
 67
     1
  8
0
  0
ENDSEC
  0
SECTION
  2
ENTITIES
  0
TEXT
  5
1401C
  8
0
 10
2080.572792682296
 20
1462.494798306092
 30
0.0
 40
20.0
  1
EK 20
  7
BIG
  0
LINE
  5
140E1
  8
HIDE
 10
2085.4246257712562
 20
1624.9950935912059
 30
0.0
 11
2085.4246257712562
 21
1683.9950665912061
 31
0.0
  0
LINE
  5
140E2
  8
HIDE
 10
2065.4246257712562
 20
1624.9950935912059
 30
0.0
 11
2065.4246257712562
 21
1683.9950665912061
 31
0.0
  0
LINE
  5
140E3
  8
0
 10
2048.4246257712562
 20
1630.995093591205
 30
0.0
 11
2048.4246257712562
 21
1640.9950925912051
 31
0.0
  0
LINE
  5
140E4
  8
0
 10
2102.4246337712561
 20
1630.995093591205
 30
0.0
 11
2102.4246337712561
 21
1640.9950925912051
 31
0.0
  0
LINE
  5
140E5
  8
0
 10
2059.4246257712562
 20
1623.995093591205
 30
0.0
 11
2059.4246257712562
 21
1630.995093591205
 31
0.0
  0
LINE
  5
140E6
  8
0
 10
2091.4246257712562
 20
1623.995093591205
 30
0.0
 11
2091.4246257712562
 21
1630.995093591205
 31
0.0
  0
LINE
  5
140E7
  8
0
 10
2027.9246257712559
 20
1682.9950625912061
 30
0.0
 11
2027.9246257712559
 21
1640.9950925912051
 31
0.0
  0
CIRCLE
  5
140E8
  8
0
 10
2112.9246337712561
 20
1661.9950925912051
 30
0.0
 40
5.5
  0
CIRCLE
  5
140E9
  8
0
 10
2037.9246257712559
 20
1661.9950925912051
 30
0.0
 40
5.5
  0
LINE
  5
140EA
  8
CENTER
 10
2075.4246257712562
 20
1687.5710419662839
 30
0.0
 11
2075.4246257712562
 21
1620.720853572107
 31
0.0
  0
LINE
  5
140EB
  8
0
 10
2091.4246257712562
 20
1623.995093591205
 30
0.0
 11
2059.4246257712562
 21
1623.995093591205
 31
0.0
  0
LINE
  5
140EC
  8
0
 10
2079.657459771257
 20
1630.995093591205
 30
0.0
 11
2079.657459771257
 21
1623.995093591205
 31
0.0
  0
LINE
  5
140ED
  8
0
 10
2071.1918067712559
 20
1630.995093591205
 30
0.0
 11
2071.1918067712559
 21
1623.995093591205
 31
0.0
  0
LINE
  5
140EE
  8
0
 10
2027.9246257712559
 20
1640.9950925912051
 30
0.0
 11
2122.924633771257
 21
1640.9950925912051
 31
0.0
  0
LINE
  5
140EF
  8
0
 10
2101.4246337712561
 20
1640.9950925912051
 30
0.0
 11
2101.4246337712561
 21
1682.9950625912061
 31
0.0
  0
LINE
  5
140F0
  8
0
 10
2049.4246257712562
 20
1640.9950925912051
 30
0.0
 11
2049.4246257712562
 21
1682.9950625912061
 31
0.0
  0
LINE
  5
140F1
  8
0
 10
2047.4246257712559
 20
1640.9950925912051
 30
0.0
 11
2047.4246257712559
 21
1682.9950625912061
 31
0.0
  0
LINE
  5
140F2
  8
0
 10
2103.4246337712561
 20
1640.9950925912051
 30
0.0
 11
2103.4246337712561
 21
1682.9950625912061
 31
0.0
  0
LINE
  5
140F3
  8
0
 10
2122.924633771257
 20
1640.9950925912051
 30
0.0
 11
2122.924633771257
 21
1682.9950625912049
 31
0.0
  0
LINE
  5
140F4
  8
0
 10
2027.9246257712559
 20
1682.9950625912061
 30
0.0
 11
2122.924633771257
 21
1682.9950625912061
 31
0.0
  0
LINE
  5
140F5
  8
0
 10
2048.4246257712562
 20
1630.995093591205
 30
0.0
 11
2102.4246337712561
 21
1630.995093591205
 31
0.0
  0
LINE
  5
140F6
  8
CENTER
 10
2029.7558170218931
 20
1661.9950925912051
 30
0.0
 11
2046.0934345206199
 21
1661.9950925912051
 31
0.0
  0
LINE
  5
140F7
  8
CENTER
 10
2037.9246257712559
 20
1653.8262838418409
 30
0.0
 11
2037.9246257712559
 21
1670.1639013405691
 31
0.0
  0
LINE
  5
140F8
  8
CENTER
 10
2104.7558250218922
 20
1661.9950925912051
 30
0.0
 11
2121.0934425206201
 21
1661.9950925912051
 31
0.0
  0
LINE
  5
140F9
  8
CENTER
 10
2112.9246337712561
 20
1653.8262838418409
 30
0.0
 11
2112.9246337712561
 21
1670.1639013405691
 31
0.0
  0
ARC
  5
140FA
  8
0
 10
2075.4246257712562
 20
1628.995093591205
 30
0.0
 40
2.099999999998543
 50
107.75279016496739
 51
72.24720983503245
  0
ARC
  5
140FB
  8
0
 10
2075.4246257712562
 20
1628.995093591205
 30
0.0
 40
2.500000000002728
 50
126.86989764584401
 51
53.130102354155973
  0
POLYLINE
  5
140FC
  8
0
 66
     1
 10
0.0
 20
0.0
 30
0.0
  0
VERTEX
  5
144D3
  8
0
 10
2074.5901132591812
 20
1630.4405116616731
 30
0.0
  0
VERTEX
  5
144D4
  8
0
 10
2073.7556007471048
 20
1628.995093591205
 30
0.0
  0
VERTEX
  5
144D5
  8
0
 10
2074.5901132591798
 20
1627.5496755207389
 30
0.0
  0
VERTEX
  5
144D6
  8
0
 10
2076.259138283332
 20
1627.5496755207389
 30
0.0
  0
VERTEX
  5
144D7
  8
0
 10
2077.0936507954079
 20
1628.995093591205
 30
0.0
  0
VERTEX
  5
144D8
  8
0
 10
2076.259138283332
 20
1630.4405116616731
 30
0.0
  0
SEQEND
  5
144D9
  8
0
  0
LINE
  5
140FF
  8
HIDE
 10
2167.0725994247109
 20
1558.4435299535189
 30
0.0
 11
2178.0725994247109
 21
1558.4435299535189
 31
0.0
  0
LINE
  5
14100
  8
HIDE
 10
2206.0725994247109
 20
1558.4435299535189
 30
0.0
 11
2217.07259942471
 21
1558.4435299535189
 31
0.0
  0
LINE
  5
14101
  8
HIDE
 10
2167.0725994247109
 20
1578.4435299535189
 30
0.0
 11
2178.0725994247109
 21
1578.4435299535189
 31
0.0
  0
LINE
  5
14102
  8
HIDE
 10
2206.0725994247109
 20
1578.4435299535189
 30
0.0
 11
2217.07259942471
 21
1578.4435299535189
 31
0.0
  0
LINE
  5
14103
  8
0
 10
2164.0726094247111
 20
1595.443529953518
 30
0.0
 11
2174.0725994247109
 21
1595.443529953518
 31
0.0
  0
LINE
  5
14104
  8
0
 10
2164.0726094247111
 20
1541.4435310411
 30
0.0
 11
2174.0725994247109
 21
1541.4435310411
 31
0.0
  0
LINE
  5
14105
  8
0
 10
2174.0725994247109
 20
1563.443529953518
 30
0.0
 11
2216.0725994247109
 21
1563.443529953518
 31
0.0
  0
LINE
  5
14106
  8
0
 10
2174.0725994247109
 20
1594.4435299535189
 30
0.0
 11
2216.0725994247109
 21
1594.4435299535189
 31
0.0
  0
LINE
  5
14107
  8
0
 10
2174.0725994247109
 20
1596.4435299535189
 30
0.0
 11
2174.0725994247109
 21
1538.4435299535189
 31
0.0
  0
LINE
  5
14108
  8
0
 10
2216.0725994247109
 20
1538.4435299535189
 30
0.0
 11
2174.0725994247109
 21
1538.4435299535189
 31
0.0
  0
LINE
  5
14109
  8
0
 10
2216.0725994247109
 20
1596.4435299535189
 30
0.0
 11
2174.0725994247109
 21
1596.4435299535189
 31
0.0
  0
LINE
  5
1410A
  8
CENTER
 10
2220.2001439316341
 20
1568.443529953518
 30
0.0
 11
2154.0715865325019
 21
1568.443529953518
 31
0.0
  0
LINE
  5
1410B
  8
HIDE
 10
2216.0725994247109
 20
1555.6935299535189
 30
0.0
 11
2206.0725994247109
 21
1555.6935299535189
 31
0.0
  0
LINE
  5
1410C
  8
HIDE
 10
2178.0725994247109
 20
1555.6935299535189
 30
0.0
 11
2167.0725994247109
 21
1555.6935299535189
 31
0.0
  0
LINE
  5
1410D
  8
HIDE
 10
2216.0725994247109
 20
1581.1935299535189
 30
0.0
 11
2206.0725994247109
 21
1581.1935299535189
 31
0.0
  0
LINE
  5
1410E
  8
HIDE
 10
2178.0725994247109
 20
1581.1935299535189
 30
0.0
 11
2167.0725994247109
 21
1581.193529953518
 31
0.0
  0
LINE
  5
1410F
  8
0
 10
2164.0726094247111
 20
1595.443529953518
 30
0.0
 11
2164.0726094247111
 21
1541.4435310411
 31
0.0
  0
LINE
  5
14110
  8
0
 10
2216.0725994247109
 20
1596.4435299535189
 30
0.0
 11
2216.0725994247109
 21
1538.4435299535189
 31
0.0
  0
CIRCLE
  5
14111
  8
HIDE
 10
2199.0725994247109
 20
1551.6935299535189
 30
0.0
 40
4.049999999999998
  0
CIRCLE
  5
14112
  8
HIDE
 10
2199.0725994247109
 20
1585.193529953518
 30
0.0
 40
4.049999999999998
  0
CIRCLE
  5
14113
  8
HIDE
 10
2185.0725994247109
 20
1551.6935299535189
 30
0.0
 40
4.049999999999998
  0
CIRCLE
  5
14114
  8
HIDE
 10
2185.0725994247109
 20
1585.193529953518
 30
0.0
 40
4.049999999999998
  0
ARC
  5
14115
  8
HIDE
 10
2191.472599424711
 20
1591.3435299535181
 30
0.0
 40
0.5999999999999996
 50
0.0
 51
90.0
  0
ARC
  5
14116
  8
HIDE
 10
2179.0725994247109
 20
1590.9435299535189
 30
0.0
 40
1.0
 50
90.0
 51
180.0
  0
ARC
  5
14117
  8
HIDE
 10
2191.0725994247109
 20
1579.443529953518
 30
0.0
 40
1.0
 50
270.0
 51
0.0
  0
ARC
  5
14118
  8
HIDE
 10
2191.0725994247109
 20
1557.443529953518
 30
0.0
 40
1.0
 50
0.0
 51
90.0
  0
ARC
  5
14119
  8
HIDE
 10
2178.6725994247099
 20
1579.0435299535191
 30
0.0
 40
0.6000000000000015
 50
180.0
 51
270.0
  0
ARC
  5
1411A
  8
HIDE
 10
2178.6725994247099
 20
1557.8435299535181
 30
0.0
 40
0.5999999999999996
 50
90.0
 51
180.0
  0
ARC
  5
1411B
  8
HIDE
 10
2191.472599424711
 20
1545.5435299535191
 30
0.0
 40
0.6000000000000015
 50
270.0
 51
0.0
  0
ARC
  5
1411C
  8
HIDE
 10
2179.0725994247109
 20
1545.943529953518
 30
0.0
 40
1.0
 50
180.0
 51
270.0
  0
LINE
  5
1411D
  8
HIDE
 10
2178.0725994247109
 20
1586.8935299535181
 30
0.0
 11
2181.3966641695679
 21
1586.8935299535181
 31
0.0
  0
LINE
  5
1411E
  8
HIDE
 10
2179.0725994247109
 20
1591.9435299535189
 30
0.0
 11
2191.472599424711
 21
1591.9435299535189
 31
0.0
  0
LINE
  5
1411F
  8
HIDE
 10
2192.0725994247109
 20
1583.3935299535181
 30
0.0
 11
2188.7006154114451
 21
1583.3935299535181
 31
0.0
  0
LINE
  5
14120
  8
HIDE
 10
2186.5462812302821
 20
1588.9658981667139
 30
0.0
 11
2192.0725994247109
 21
1589.4435299535189
 31
0.0
  0
LINE
  5
14121
  8
HIDE
 10
2178.0725994247109
 20
1583.3935299535181
 30
0.0
 11
2181.4445834379758
 21
1583.3935299535181
 31
0.0
  0
LINE
  5
14122
  8
HIDE
 10
2178.0725994247109
 20
1553.4935299535191
 30
0.0
 11
2181.4445834379758
 21
1553.4935299535191
 31
0.0
  0
LINE
  5
14123
  8
HIDE
 10
2178.6725994247099
 20
1578.4435299535189
 30
0.0
 11
2191.0725994247109
 21
1578.4435299535189
 31
0.0
  0
LINE
  5
14124
  8
HIDE
 10
2178.6725994247099
 20
1558.4435299535189
 30
0.0
 11
2191.0725994247109
 21
1558.4435299535189
 31
0.0
  0
LINE
  5
14125
  8
HIDE
 10
2192.0725994247109
 20
1553.4935299535191
 30
0.0
 11
2188.7006154114451
 21
1553.4935299535191
 31
0.0
  0
LINE
  5
14126
  8
HIDE
 10
2178.0725994247109
 20
1549.9935299535191
 30
0.0
 11
2181.3966641695679
 21
1549.9935299535191
 31
0.0
  0
LINE
  5
14127
  8
HIDE
 10
2191.472599424711
 20
1544.9435299535189
 30
0.0
 11
2179.0725994247109
 21
1544.9435299535189
 31
0.0
  0
LINE
  5
14128
  8
HIDE
 10
2186.5462812302821
 20
1547.921161740323
 30
0.0
 11
2192.0725994247109
 21
1547.443529953518
 31
0.0
  0
LINE
  5
14129
  8
HIDE
 10
2178.0725994247109
 20
1545.943529953518
 30
0.0
 11
2178.0725994247109
 21
1590.9435299535189
 31
0.0
  0
LINE
  5
1412A
  8
HIDE
 10
2192.0725994247109
 20
1591.3435299535181
 30
0.0
 11
2192.0725994247109
 21
1545.5435299535191
 31
0.0
  0
LINE
  5
1412B
  8
HIDE
 10
2192.0203569691562
 20
1589.4390147127169
 30
0.0
 11
2192.0725994247109
 21
1589.491257168271
 31
0.0
  0
ARC
  5
1412C
  8
HIDE
 10
2192.6725994247099
 20
1545.5435299535191
 30
0.0
 40
0.5999999999999996
 50
180.0
 51
270.0
  0
ARC
  5
1412D
  8
HIDE
 10
2205.07259942471
 20
1545.943529953518
 30
0.0
 40
1.0
 50
270.0
 51
0.0
  0
ARC
  5
1412E
  8
HIDE
 10
2193.0725994247109
 20
1557.443529953518
 30
0.0
 40
1.0
 50
90.0
 51
180.0
  0
ARC
  5
1412F
  8
HIDE
 10
2193.0725994247109
 20
1579.443529953518
 30
0.0
 40
1.0
 50
180.0
 51
270.0
  0
ARC
  5
14130
  8
HIDE
 10
2205.472599424711
 20
1557.8435299535181
 30
0.0
 40
0.6
 50
0.0
 51
90.0
  0
ARC
  5
14131
  8
HIDE
 10
2205.472599424711
 20
1579.0435299535191
 30
0.0
 40
0.5999999999999996
 50
270.0
 51
0.0
  0
ARC
  5
14132
  8
HIDE
 10
2192.6725994247099
 20
1591.343529953519
 30
0.0
 40
0.6000000000000015
 50
90.0
 51
180.0
  0
ARC
  5
14133
  8
HIDE
 10
2205.0725994247109
 20
1590.9435299535189
 30
0.0
 40
1.0
 50
0.0
 51
90.0
  0
LINE
  5
14134
  8
HIDE
 10
2206.0725994247109
 20
1549.9935299535191
 30
0.0
 11
2202.748534679853
 21
1549.9935299535191
 31
0.0
  0
LINE
  5
14135
  8
HIDE
 10
2205.07259942471
 20
1544.9435299535189
 30
0.0
 11
2192.6725994247099
 21
1544.9435299535189
 31
0.0
  0
LINE
  5
14136
  8
HIDE
 10
2192.07259942471
 20
1553.4935299535191
 30
0.0
 11
2195.4445834379758
 21
1553.4935299535191
 31
0.0
  0
LINE
  5
14137
  8
HIDE
 10
2197.5989176191388
 20
1547.921161740323
 30
0.0
 11
2192.07259942471
 21
1547.443529953518
 31
0.0
  0
LINE
  5
14138
  8
HIDE
 10
2206.0725994247109
 20
1553.4935299535191
 30
0.0
 11
2202.7006154114451
 21
1553.4935299535191
 31
0.0
  0
LINE
  5
14139
  8
HIDE
 10
2206.0725994247109
 20
1583.3935299535181
 30
0.0
 11
2202.7006154114451
 21
1583.3935299535181
 31
0.0
  0
LINE
  5
1413A
  8
HIDE
 10
2205.472599424711
 20
1558.4435299535189
 30
0.0
 11
2193.0725994247109
 21
1558.4435299535189
 31
0.0
  0
LINE
  5
1413B
  8
HIDE
 10
2205.472599424711
 20
1578.4435299535189
 30
0.0
 11
2193.0725994247109
 21
1578.4435299535189
 31
0.0
  0
LINE
  5
1413C
  8
HIDE
 10
2192.0725994247109
 20
1583.3935299535181
 30
0.0
 11
2195.4445834379758
 21
1583.3935299535181
 31
0.0
  0
LINE
  5
1413D
  8
HIDE
 10
2206.0725994247109
 20
1586.8935299535181
 30
0.0
 11
2202.7485346798521
 21
1586.8935299535181
 31
0.0
  0
LINE
  5
1413E
  8
HIDE
 10
2192.6725994247099
 20
1591.9435299535189
 30
0.0
 11
2205.0725994247109
 21
1591.9435299535189
 31
0.0
  0
LINE
  5
1413F
  8
HIDE
 10
2197.5989176191401
 20
1588.9658981667139
 30
0.0
 11
2192.0725994247109
 21
1589.4435299535189
 31
0.0
  0
LINE
  5
14140
  8
HIDE
 10
2206.0725994247109
 20
1590.9435299535189
 30
0.0
 11
2206.0725994247109
 21
1545.943529953518
 31
0.0
  0
LINE
  5
14141
  8
HIDE
 10
2192.0725994247109
 20
1589.491257168271
 30
0.0
 11
2192.1248418802652
 21
1589.4390147127169
 31
0.0
  0
LINE
  5
14142
  8
HIDE
 10
2167.0725994247109
 20
1581.441045598245
 30
0.0
 11
2167.0725994247109
 21
1555.446014308792
 31
0.0
  0
LINE
  5
14143
  8
CENTER
 10
2162.0725994247109
 20
1585.490812696426
 30
0.0
 11
2162.0725994247109
 21
1577.300623107313
 31
0.0
  0
LINE
  5
14144
  8
HIDE
 10
2166.5725994247109
 20
1584.443529953518
 30
0.0
 11
2166.5725994247109
 21
1552.443529953518
 31
0.0
  0
LINE
  5
14145
  8
0
 10
2157.0725994247109
 20
1584.443529953518
 30
0.0
 11
2157.0725994247109
 21
1552.443529953518
 31
0.0
  0
LINE
  5
14146
  8
0
 10
2164.0726094247111
 20
1584.443529953518
 30
0.0
 11
2157.0725994247109
 21
1584.443529953518
 31
0.0
  0
LINE
  5
14147
  8
HIDE
 10
2167.0725994247109
 20
1581.441045598245
 30
0.0
 11
2166.5725994247109
 21
1581.729720732839
 31
0.0
  0
LINE
  5
14148
  8
HIDE
 10
2167.0725994247091
 20
1577.943529953518
 30
0.0
 11
2157.0725994247109
 21
1577.943529953518
 31
0.0
  0
LINE
  5
14149
  8
HIDE
 10
2167.0725994247091
 20
1578.4435299535189
 30
0.0
 11
2157.0725994247109
 21
1578.4435299535189
 31
0.0
  0
LINE
  5
1414A
  8
0
 10
2164.0726094247111
 20
1572.865799315078
 30
0.0
 11
2157.0725994247109
 21
1572.865799315078
 31
0.0
  0
LINE
  5
1414B
  8
HIDE
 10
2159.5725994247091
 20
1584.443529953518
 30
0.0
 11
2159.5725994247068
 21
1578.4435299535189
 31
0.0
  0
LINE
  5
1414C
  8
HIDE
 10
2159.9725994247092
 20
1584.443529953518
 30
0.0
 11
2159.9725994247092
 21
1578.4435299535189
 31
0.0
  0
LINE
  5
1414D
  8
HIDE
 10
2164.5725994247091
 20
1584.443529953518
 30
0.0
 11
2164.5725994247068
 21
1578.4435299535189
 31
0.0
  0
LINE
  5
1414E
  8
HIDE
 10
2164.1725994247099
 20
1584.443529953518
 30
0.0
 11
2164.1725994247099
 21
1578.4435299535189
 31
0.0
  0
LINE
  5
1414F
  8
HIDE
 10
2164.5725994247091
 20
1584.1580208888599
 30
0.0
 11
2159.5725994247091
 21
1584.1580208888611
 31
0.0
  0
LINE
  5
14150
  8
HIDE
 10
2164.5725994247068
 20
1580.158020888859
 30
0.0
 11
2159.5725994247068
 21
1580.1580208888611
 31
0.0
  0
LINE
  5
14151
  8
HIDE
 10
2164.5725994247068
 20
1580.158020888859
 30
0.0
 11
2164.1725994247099
 21
1579.9270807811849
 31
0.0
  0
LINE
  5
14152
  8
HIDE
 10
2159.5725994247159
 20
1580.158020888867
 30
0.0
 11
2159.9725994247119
 21
1579.9270807811911
 31
0.0
  0
LINE
  5
14153
  8
HIDE
 10
2164.1725994247099
 20
1579.9270807811849
 30
0.0
 11
2159.9725994247092
 21
1579.9270807811849
 31
0.0
  0
LINE
  5
14154
  8
CENTER
 10
2169.249302412667
 20
1568.443529953518
 30
0.0
 11
2154.5319390566578
 21
1568.443529953518
 31
0.0
  0
LINE
  5
14155
  8
CENTER
 10
2162.0725994247109
 20
1551.39624721061
 30
0.0
 11
2162.0725994247109
 21
1559.586436799724
 31
0.0
  0
LINE
  5
14156
  8
0
 10
2164.0726094247111
 20
1552.443529953518
 30
0.0
 11
2157.0725994247109
 21
1552.443529953518
 31
0.0
  0
LINE
  5
14157
  8
HIDE
 10
2167.0725994247109
 20
1555.446014308792
 30
0.0
 11
2166.5725994247109
 21
1555.1573391741979
 31
0.0
  0
LINE
  5
14158
  8
HIDE
 10
2167.0725994247091
 20
1558.9435299535189
 30
0.0
 11
2157.0725994247109
 21
1558.9435299535189
 31
0.0
  0
LINE
  5
14159
  8
HIDE
 10
2167.0725994247091
 20
1558.4435299535189
 30
0.0
 11
2157.0725994247109
 21
1558.4435299535189
 31
0.0
  0
LINE
  5
1415A
  8
0
 10
2164.0726094247111
 20
1564.0212605919589
 30
0.0
 11
2157.0725994247109
 21
1564.0212605919589
 31
0.0
  0
LINE
  5
1415B
  8
HIDE
 10
2159.5725994247091
 20
1552.443529953518
 30
0.0
 11
2159.5725994247068
 21
1558.4435299535189
 31
0.0
  0
LINE
  5
1415C
  8
HIDE
 10
2159.9725994247092
 20
1552.443529953518
 30
0.0
 11
2159.9725994247092
 21
1558.4435299535189
 31
0.0
  0
LINE
  5
1415D
  8
HIDE
 10
2164.5725994247091
 20
1552.443529953518
 30
0.0
 11
2164.5725994247068
 21
1558.4435299535189
 31
0.0
  0
LINE
  5
1415E
  8
HIDE
 10
2164.1725994247099
 20
1552.443529953518
 30
0.0
 11
2164.1725994247099
 21
1558.4435299535189
 31
0.0
  0
LINE
  5
1415F
  8
HIDE
 10
2164.5725994247091
 20
1552.7290390181779
 30
0.0
 11
2159.5725994247091
 21
1552.7290390181761
 31
0.0
  0
LINE
  5
14160
  8
HIDE
 10
2164.5725994247068
 20
1556.7290390181779
 30
0.0
 11
2159.5725994247068
 21
1556.7290390181761
 31
0.0
  0
LINE
  5
14161
  8
HIDE
 10
2164.5725994247068
 20
1556.7290390181779
 30
0.0
 11
2164.1725994247099
 21
1556.959979125852
 31
0.0
  0
LINE
  5
14162
  8
HIDE
 10
2159.5725994247159
 20
1556.7290390181699
 30
0.0
 11
2159.9725994247119
 21
1556.9599791258461
 31
0.0
  0
LINE
  5
14163
  8
HIDE
 10
2164.1725994247099
 20
1556.959979125852
 30
0.0
 11
2159.9725994247092
 21
1556.959979125852
 31
0.0
  0
LINE
  5
14164
  8
CENTER
 10
2195.0725994247109
 20
1543.7495009892821
 30
0.0
 11
2195.0725994247109
 21
1526.1666917859341
 31
0.0
  0
LINE
  5
14165
  8
HIDE
 10
2164.0726094247111
 20
1552.443529953518
 30
0.0
 11
2166.5725994247109
 21
1552.443529953518
 31
0.0
  0
LINE
  5
14166
  8
HIDE
 10
2164.0726094247111
 20
1564.0212605919589
 30
0.0
 11
2166.5725994247109
 21
1564.0212605919589
 31
0.0
  0
LINE
  5
14167
  8
HIDE
 10
2164.0726094247111
 20
1572.865799315078
 30
0.0
 11
2166.5725994247109
 21
1572.865799315078
 31
0.0
  0
LINE
  5
14168
  8
HIDE
 10
2164.0726094247111
 20
1584.443529953518
 30
0.0
 11
2166.5725994247109
 21
1584.443529953518
 31
0.0
  0
LINE
  5
14169
  8
HIDE
 10
2032.4246257712571
 20
1563.443529953518
 30
0.0
 11
2032.4246257712571
 21
1538.4435299535189
 31
0.0
  0
LINE
  5
1416A
  8
HIDE
 10
2043.4246257712559
 20
1563.443529953518
 30
0.0
 11
2043.4246257712559
 21
1538.4435299535189
 31
0.0
  0
LINE
  5
1416B
  8
HIDE
 10
2118.4246337712561
 20
1563.443529953518
 30
0.0
 11
2118.4246337712561
 21
1538.4435299535189
 31
0.0
  0
LINE
  5
1416C
  8
HIDE
 10
2107.424633771257
 20
1563.443529953518
 30
0.0
 11
2107.424633771257
 21
1538.4435299535189
 31
0.0
  0
LINE
  5
1416D
  8
0
 10
2027.9246257712571
 20
1538.4435299535189
 30
0.0
 11
2027.9246257712571
 21
1563.443529953518
 31
0.0
  0
LINE
  5
1417B
  8
0
 10
2058.1256805706871
 20
1550.0880192788341
 30
0.0
 11
2055.625708570687
 21
1551.5313782788339
 31
0.0
  0
LINE
  5
1417C
  8
0
 10
2055.6256845706871
 20
1545.7578992788351
 30
0.0
 11
2053.1257125706861
 21
1547.201258278835
 31
0.0
  0
LINE
  5
1417D
  8
0
 10
2055.6256685706871
 20
1551.5313002788339
 30
0.0
 11
2053.125697570687
 21
1550.087941278834
 31
0.0
  0
LINE
  5
1417E
  8
0
 10
2058.125661570687
 20
1547.2011862788349
 30
0.0
 11
2055.625689570687
 21
1545.757826278834
 31
0.0
  0
LINE
  5
1417F
  8
0
 10
2058.1256495706871
 20
1547.201171278834
 30
0.0
 11
2058.1256495706871
 21
1550.0879202788351
 31
0.0
  0
LINE
  5
14180
  8
0
 10
2053.1256495706871
 20
1547.201171278834
 30
0.0
 11
2053.1256495706871
 21
1550.0879052788339
 31
0.0
  0
LINE
  5
14181
  8
CENTER
 10
2060.078473570687
 20
1553.0973752788341
 30
0.0
 11
2051.3238865706871
 21
1544.3427852788341
 31
0.0
  0
LINE
  5
1419B
  8
CENTER
 10
2037.9246257712571
 20
1566.157045953518
 30
0.0
 11
2037.9246257712571
 21
1535.004656953518
 31
0.0
  0
LINE
  5
1419C
  8
CENTER
 10
2112.924633771257
 20
1566.157045953518
 30
0.0
 11
2112.924633771257
 21
1535.004656953518
 31
0.0
  0
LINE
  5
1419D
  8
0
 10
2103.424633771257
 20
1563.443529953518
 30
0.0
 11
2122.924633771257
 21
1563.443529953518
 31
0.0
  0
LINE
  5
1419E
  8
0
 10
2101.4246257712571
 20
1596.4435219535189
 30
0.0
 11
2103.4246297712571
 21
1594.443519953518
 31
0.0
  0
LINE
  5
1419F
  8
0
 10
2049.4246317712568
 20
1596.4435169535191
 30
0.0
 11
2047.424633771257
 21
1594.4434249535179
 31
0.0
  0
LINE
  5
141A0
  8
0
 10
2027.9246257712571
 20
1563.443529953518
 30
0.0
 11
2047.4246257712559
 21
1563.443529953518
 31
0.0
  0
LINE
  5
141A1
  8
0
 10
2047.4246257712559
 20
1594.443437953518
 30
0.0
 11
2047.4246257712559
 21
1563.443529953518
 31
0.0
  0
LINE
  5
141A2
  8
0
 10
2103.424633771257
 20
1594.4435299535189
 30
0.0
 11
2103.424633771257
 21
1563.443529953518
 31
0.0
  0
LINE
  5
141A3
  8
0
 10
2049.4246257712571
 20
1596.4435299535189
 30
0.0
 11
2101.424633771257
 21
1596.4435299535189
 31
0.0
  0
LINE
  5
141A4
  8
0
 10
2027.9246257712571
 20
1538.4435299535189
 30
0.0
 11
2122.924633771257
 21
1538.4435299535189
 31
0.0
  0
LINE
  5
141A5
  8
0
 10
2122.924633771257
 20
1563.443529953518
 30
0.0
 11
2122.924633771257
 21
1538.4435299535189
 31
0.0
  0
LINE
  5
141A6
  8
CENTER
 10
2044.4246257712571
 20
1568.443529953518
 30
0.0
 11
2106.424633771257
 21
1568.443529953518
 31
0.0
  0
LINE
  5
141A7
  8
CENTER
 10
2075.4246257712562
 20
1601.2671379535179
 30
0.0
 11
2075.4246257712562
 21
1530.3775049535179
 31
0.0
  0
ARC
  5
141EF
  8
0
 10
2075.4246297712571
 20
1568.443529953518
 30
0.0
 40
35.0
 50
128.2132107016526
 51
141.78678929834641
  0
ARC
  5
141F0
  8
0
 10
2075.4246297712571
 20
1568.443529953518
 30
0.0
 40
35.0
 50
218.2132107017089
 51
231.78678929823531
  0
ARC
  5
141F1
  8
0
 10
2075.4246297712571
 20
1568.443529953518
 30
0.0
 40
35.0
 50
308.21321070165283
 51
321.78678929834649
  0
ARC
  5
141F2
  8
0
 10
2075.4246297712571
 20
1568.443529953518
 30
0.0
 40
35.0
 50
38.213210701708931
 51
51.78678929828969
  0
LINE
  5
141F3
  8
0
 10
2047.924629771255
 20
1546.7928948589119
 30
0.0
 11
2047.924629771255
 21
1590.094165048127
 31
0.0
  0
LINE
  5
141F4
  8
0
 10
2053.7739946766478
 20
1595.9435299535201
 30
0.0
 11
2097.075264865869
 21
1595.9435299535151
 31
0.0
  0
LINE
  5
141F5
  8
0
 10
2102.9246297712561
 20
1590.0941650481279
 30
0.0
 11
2102.924629771258
 21
1546.792894858909
 31
0.0
  0
LINE
  5
141F6
  8
0
 10
2097.0752648658649
 20
1540.9435299535171
 30
0.0
 11
2053.773994676646
 21
1540.9435299535201
 31
0.0
  0
CIRCLE
  5
141F7
  8
0
 10
2075.4246297712571
 20
1568.443529953518
 30
0.0
 40
21.0
  0
ARC
  5
141F9
  8
CENTER
 10
2075.4246297712571
 20
1568.443529953518
 30
0.0
 40
28.0
 50
120.61255216029841
 51
149.38744791489711
  0
CIRCLE
  5
141FA
  8
0
 10
2055.6256398980331
 20
1588.242519826742
 30
0.0
 40
5.5
  0
CIRCLE
  5
141FC
  8
0
 10
2055.625639898034
 20
1548.644540080295
 30
0.0
 40
5.5
  0
CIRCLE
  5
141FE
  8
0
 10
2095.2236196444801
 20
1588.242519826742
 30
0.0
 40
5.5
  0
CIRCLE
  5
14200
  8
0
 10
2095.2236196444801
 20
1548.644540080295
 30
0.0
 40
5.5
  0
LINE
  5
14204
  8
0
 10
2092.723578971827
 20
1550.0880192788341
 30
0.0
 11
2095.2235509718271
 21
1551.5313782788339
 31
0.0
  0
LINE
  5
14205
  8
0
 10
2095.2235749718252
 20
1545.7578992788351
 30
0.0
 11
2097.723546971828
 21
1547.201258278835
 31
0.0
  0
LINE
  5
14206
  8
0
 10
2095.2235909718261
 20
1551.5313002788339
 30
0.0
 11
2097.7235619718272
 21
1550.087941278834
 31
0.0
  0
LINE
  5
14207
  8
0
 10
2092.7235979718271
 20
1547.2011862788349
 30
0.0
 11
2095.2235699718258
 21
1545.757826278834
 31
0.0
  0
LINE
  5
14208
  8
0
 10
2092.7236099718261
 20
1547.201171278834
 30
0.0
 11
2092.7236099718261
 21
1550.0879202788351
 31
0.0
  0
LINE
  5
14209
  8
0
 10
2097.7236099718261
 20
1547.201171278834
 30
0.0
 11
2097.7236099718261
 21
1550.0879052788339
 31
0.0
  0
LINE
  5
1420A
  8
CENTER
 10
2090.7707859718271
 20
1553.0973752788341
 30
0.0
 11
2099.525372971827
 21
1544.3427852788341
 31
0.0
  0
LINE
  5
1420B
  8
0
 10
2058.1256805706871
 20
1586.7990406282031
 30
0.0
 11
2055.625708570687
 21
1585.355681628203
 31
0.0
  0
LINE
  5
1420C
  8
0
 10
2055.6256845706871
 20
1591.129160628202
 30
0.0
 11
2053.1257125706861
 21
1589.6858016282019
 31
0.0
  0
LINE
  5
1420D
  8
0
 10
2055.6256685706871
 20
1585.355759628203
 30
0.0
 11
2053.125697570687
 21
1586.7991186282029
 31
0.0
  0
LINE
  5
1420E
  8
0
 10
2058.125661570687
 20
1589.685873628202
 30
0.0
 11
2055.625689570687
 21
1591.1292336282031
 31
0.0
  0
LINE
  5
1420F
  8
0
 10
2058.1256495706871
 20
1589.685888628203
 30
0.0
 11
2058.1256495706871
 21
1586.799139628203
 31
0.0
  0
LINE
  5
14210
  8
0
 10
2053.1256495706871
 20
1589.685888628203
 30
0.0
 11
2053.1256495706871
 21
1586.799154628203
 31
0.0
  0
LINE
  5
14211
  8
CENTER
 10
2060.078473570687
 20
1583.7896846282031
 30
0.0
 11
2051.3238865706871
 21
1592.5442746282031
 31
0.0
  0
LINE
  5
14212
  8
0
 10
2092.723578971827
 20
1586.7990406282031
 30
0.0
 11
2095.2235509718271
 21
1585.355681628203
 31
0.0
  0
LINE
  5
14213
  8
0
 10
2095.2235749718252
 20
1591.129160628202
 30
0.0
 11
2097.723546971828
 21
1589.6858016282019
 31
0.0
  0
LINE
  5
14214
  8
0
 10
2095.2235909718261
 20
1585.355759628203
 30
0.0
 11
2097.7235619718272
 21
1586.7991186282029
 31
0.0
  0
LINE
  5
14215
  8
0
 10
2092.7235979718271
 20
1589.685873628202
 30
0.0
 11
2095.2235699718258
 21
1591.1292336282031
 31
0.0
  0
LINE
  5
14216
  8
0
 10
2092.7236099718261
 20
1589.685888628203
 30
0.0
 11
2092.7236099718261
 21
1586.799139628203
 31
0.0
  0
LINE
  5
14217
  8
0
 10
2097.7236099718261
 20
1589.685888628203
 30
0.0
 11
2097.7236099718261
 21
1586.799154628203
 31
0.0
  0
LINE
  5
14218
  8
CENTER
 10
2090.7707859718271
 20
1583.7896846282031
 30
0.0
 11
2099.525372971827
 21
1592.5442746282031
 31
0.0
  0
ARC
  5
1423B
  8
0
 10
2075.4246257712562
 20
1568.443529953518
 30
0.0
 40
16.0
 50
163.95502437186261
 51
196.04497562813719
  0
ARC
  5
1423C
  8
0
 10
2075.4246257712562
 20
1568.443529953518
 30
0.0
 40
16.0
 50
253.95502437186249
 51
286.04497562813748
  0
ARC
  5
1423D
  8
0
 10
2075.4246257712562
 20
1568.443529953518
 30
0.0
 40
16.0
 50
343.95502437186258
 51
16.044975628137362
  0
ARC
  5
1423E
  8
0
 10
2075.4246257712562
 20
1568.443529953518
 30
0.0
 40
16.0
 50
73.955024371862493
 51
106.04497562813749
  0
POLYLINE
  5
1423F
  8
0
 66
     1
 10
0.0
 20
0.0
 30
0.0
  0
VERTEX
  5
144DA
  8
0
 10
2071.0023564096991
 20
1583.820250465182
 30
0.0
  0
VERTEX
  5
144DB
  8
0
 10
2060.0479052595929
 20
1572.865799315078
 30
0.0
  0
SEQEND
  5
144DC
  8
0
  0
POLYLINE
  5
14240
  8
0
 66
     1
 10
0.0
 20
0.0
 30
0.0
  0
VERTEX
  5
144DD
  8
0
 10
2060.0479052595929
 20
1564.0212605919569
 30
0.0
  0
VERTEX
  5
144DE
  8
0
 10
2071.0023564096991
 20
1553.066809441855
 30
0.0
  0
SEQEND
  5
144DF
  8
0
  0
POLYLINE
  5
14241
  8
0
 66
     1
 10
0.0
 20
0.0
 30
0.0
  0
VERTEX
  5
144E0
  8
0
 10
2079.8468951328159
 20
1553.066809441855
 30
0.0
  0
VERTEX
  5
144E1
  8
0
 10
2090.8013462829199
 20
1564.0212605919589
 30
0.0
  0
SEQEND
  5
144E2
  8
0
  0
POLYLINE
  5
14242
  8
0
 66
     1
 10
0.0
 20
0.0
 30
0.0
  0
VERTEX
  5
144E3
  8
0
 10
2090.8013462829199
 20
1572.865799315078
 30
0.0
  0
VERTEX
  5
144E4
  8
0
 10
2079.8468951328159
 20
1583.820250465182
 30
0.0
  0
SEQEND
  5
144E5
  8
0
  0
ARC
  5
14243
  8
HIDE
 10
2075.4246257712562
 20
1568.443529953518
 30
0.0
 40
10.0
 50
270.0
 51
180.0
  0
CIRCLE
  5
14244
  8
0
 10
2075.4246257712562
 20
1568.443529953518
 30
0.0
 40
9.5
  0
LINE
  5
14245
  8
HIDE
 10
2077.9246257712571
 20
1584.247010582797
 30
0.0
 11
2077.9246257712598
 21
1577.608681343429
 31
0.0
  0
LINE
  5
14246
  8
HIDE
 10
2077.524625771257
 20
1584.3051187768369
 30
0.0
 11
2077.5246257712588
 21
1577.708517811039
 31
0.0
  0
LINE
  5
14247
  8
HIDE
 10
2072.9246257712571
 20
1584.247010582797
 30
0.0
 11
2072.9246257712612
 21
1577.608681343431
 31
0.0
  0
LINE
  5
14248
  8
HIDE
 10
2073.3246257712558
 20
1584.3051187768369
 30
0.0
 11
2073.3246257712581
 21
1577.7085178110401
 31
0.0
  0
LINE
  5
14249
  8
HIDE
 10
2072.9246257712589
 20
1584.1580208888599
 30
0.0
 11
2077.9246257712589
 21
1584.1580208888611
 31
0.0
  0
LINE
  5
1424A
  8
HIDE
 10
2072.9246257712612
 20
1580.158020888859
 30
0.0
 11
2077.9246257712598
 21
1580.1580208888611
 31
0.0
  0
LINE
  5
1424B
  8
HIDE
 10
2072.9246257712612
 20
1580.158020888859
 30
0.0
 11
2073.3246257712581
 21
1579.9270807811849
 31
0.0
  0
LINE
  5
1424C
  8
HIDE
 10
2077.9246257712512
 20
1580.158020888867
 30
0.0
 11
2077.5246257712552
 21
1579.9270807811911
 31
0.0
  0
LINE
  5
1424D
  8
HIDE
 10
2073.3246257712581
 20
1579.9270807811849
 30
0.0
 11
2077.5246257712588
 21
1579.9270807811849
 31
0.0
  0
LINE
  5
1424E
  8
HIDE
 10
2077.9246257712571
 20
1552.64004932424
 30
0.0
 11
2077.9246257712598
 21
1559.2783785636079
 31
0.0
  0
LINE
  5
1424F
  8
HIDE
 10
2077.524625771257
 20
1552.5819411302009
 30
0.0
 11
2077.5246257712588
 21
1559.178542095998
 31
0.0
  0
LINE
  5
14250
  8
HIDE
 10
2072.9246257712571
 20
1552.64004932424
 30
0.0
 11
2072.9246257712612
 21
1559.2783785636061
 31
0.0
  0
LINE
  5
14251
  8
HIDE
 10
2073.3246257712558
 20
1552.5819411302009
 30
0.0
 11
2073.3246257712581
 21
1559.178542095997
 31
0.0
  0
LINE
  5
14252
  8
HIDE
 10
2072.9246257712589
 20
1552.7290390181779
 30
0.0
 11
2077.9246257712589
 21
1552.7290390181761
 31
0.0
  0
LINE
  5
14253
  8
HIDE
 10
2072.9246257712612
 20
1556.7290390181779
 30
0.0
 11
2077.9246257712598
 21
1556.7290390181761
 31
0.0
  0
LINE
  5
14254
  8
HIDE
 10
2072.9246257712612
 20
1556.7290390181779
 30
0.0
 11
2073.3246257712581
 21
1556.959979125852
 31
0.0
  0
LINE
  5
14255
  8
HIDE
 10
2077.9246257712512
 20
1556.7290390181699
 30
0.0
 11
2077.5246257712552
 21
1556.9599791258461
 31
0.0
  0
LINE
  5
14256
  8
HIDE
 10
2073.3246257712581
 20
1556.959979125852
 30
0.0
 11
2077.5246257712588
 21
1556.959979125852
 31
0.0
  0
ARC
  5
1425E
  8
CENTER
 10
2075.4246217712571
 20
1568.443529953518
 30
0.0
 40
28.0
 50
30.612552085099491
 51
59.387447839680121
  0
ARC
  5
1425F
  8
CENTER
 10
2075.4246297712571
 20
1568.443529953518
 30
0.0
 40
28.0
 50
210.61255208509741
 51
239.3874478397004
  0
ARC
  5
14260
  8
CENTER
 10
2075.4246217712571
 20
1568.443529953518
 30
0.0
 40
28.0
 50
300.6125521603156
 51
329.38744791490348
  0
LINE
  5
142AF
  8
0
 10
2217.0725994247109
 20
1581.193529953518
 30
0.0
 11
2217.0725994247109
 21
1555.693529953518
 31
0.0
  0
LINE
  5
142B0
  8
0
 10
2216.0725994247109
 20
1555.6935299535189
 30
0.0
 11
2217.0725994247109
 21
1555.6935299535189
 31
0.0
  0
LINE
  5
142B1
  8
0
 10
2216.0725994247109
 20
1581.1935299535189
 30
0.0
 11
2217.0725994247109
 21
1581.1935299535189
 31
0.0
  0
LINE
  5
142F6
  8
0
 10
2062.6746257712562
 20
1683.9950665912061
 30
0.0
 11
2088.1746257712562
 21
1683.9950665912061
 31
0.0
  0
LINE
  5
142F7
  8
0
 10
2088.1746257712562
 20
1682.9950665912061
 30
0.0
 11
2088.1746257712562
 21
1683.9950665912061
 31
0.0
  0
LINE
  5
142F8
  8
0
 10
2062.6746257712562
 20
1682.9950665912061
 30
0.0
 11
2062.6746257712562
 21
1683.9950665912061
 31
0.0
  0
POLYLINE
  5
142F9
  8
0
 66
     1
 10
0.0
 20
0.0
 30
0.0
  0
VERTEX
  5
144E6
  8
0
 10
2074.5901132591812
 20
1627.5496755207389
 30
0.0
  0
VERTEX
  5
144E7
  8
0
 10
2073.7556007471048
 20
1628.995093591205
 30
0.0
  0
VERTEX
  5
144E8
  8
0
 10
2074.5901132591798
 20
1630.4405116616731
 30
0.0
  0
VERTEX
  5
144E9
  8
0
 10
2076.259138283332
 20
1630.4405116616731
 30
0.0
  0
VERTEX
  5
144EA
  8
0
 10
2077.0936507954079
 20
1628.995093591205
 30
0.0
  0
VERTEX
  5
144EB
  8
0
 10
2076.259138283332
 20
1627.5496755207389
 30
0.0
  0
SEQEND
  5
144EC
  8
0
  0
ENDSEC
  0
EOF
