  0
SECTION
  2
HEADER
  9
$ACADVER
  1
AC1009
  9
$INSBASE
 10
0.0
 20
0.0
 30
0.0
  9
$EXTMIN
 10
45.299847346815099
 20
21.368381882301389
 30
0.0
  9
$EXTMAX
 10
144.29011880099731
 20
108.4081559921012
 30
0.0
  9
$LIMMIN
 10
0.0
 20
0.0
  9
$LIMMAX
 10
12.0
 20
9.0
  9
$ORTHOMODE
 70
     1
  9
$REGENMODE
 70
     1
  9
$FILLMODE
 70
     1
  9
$QTEXTMODE
 70
     0
  9
$MIRRTEXT
 70
     0
  9
$DRAGMODE
 70
     2
  9
$LTSCALE
 40
4.0
  9
$OSMODE
 70
  2239
  9
$ATTMODE
 70
     1
  9
$TEXTSIZE
 40
1.1999999999999991
  9
$TRACEWID
 40
0.05
  9
$TEXTSTYLE
  7
DUKI
  9
$CLAYER
  8
0
  9
$CELTYPE
  6
BYLAYER
  9
$CECOLOR
 62
   256
  9
$DIMSCALE
 40
1.0
  9
$DIMASZ
 40
1.5
  9
$DIMEXO
 40
0.5
  9
$DIMDLI
 40
1.0
  9
$DIMRND
 40
0.0
  9
$DIMDLE
 40
0.0
  9
$DIMEXE
 40
0.5
  9
$DIMTP
 40
0.0
  9
$DIMTM
 40
0.000000001
  9
$DIMTXT
 40
2.0
  9
$DIMCEN
 40
1.0
  9
$DIMTSZ
 40
0.0
  9
$DIMTOL
 70
     0
  9
$DIMLIM
 70
     0
  9
$DIMTIH
 70
     0
  9
$DIMTOH
 70
     0
  9
$DIMSE1
 70
     0
  9
$DIMSE2
 70
     0
  9
$DIMTAD
 70
     1
  9
$DIMZIN
 70
     8
  9
$DIMBLK
  1

  9
$DIMASO
 70
     1
  9
$DIMSHO
 70
     1
  9
$DIMPOST
  1

  9
$DIMAPOST
  1

  9
$DIMALT
 70
     0
  9
$DIMALTD
 70
     2
  9
$DIMALTF
 40
25.399999999999999
  9
$DIMLFAC
 40
1.0
  9
$DIMTOFL
 70
     1
  9
$DIMTVP
 40
0.0
  9
$DIMTIX
 70
     0
  9
$DIMSOXD
 70
     0
  9
$DIMSAH
 70
     0
  9
$DIMBLK1
  1

  9
$DIMBLK2
  1

  9
$DIMSTYLE
  2
DUKI1
  9
$DIMCLRD
 70
     5
  9
$DIMCLRE
 70
     5
  9
$DIMCLRT
 70
     2
  9
$DIMTFAC
 40
0.5
  9
$DIMGAP
 40
0.7
  9
$LUNITS
 70
     2
  9
$LUPREC
 70
     4
  9
$SKETCHINC
 40
0.1
  9
$FILLETRAD
 40
0.2
  9
$AUNITS
 70
     0
  9
$AUPREC
 70
     0
  9
$MENU
  1
.
  9
$ELEVATION
 40
0.0
  9
$PELEVATION
 40
0.0
  9
$THICKNESS
 40
0.0
  9
$LIMCHECK
 70
     0
  9
$BLIPMODE
 70
     0
  9
$CHAMFERA
 40
1.0
  9
$CHAMFERB
 40
1.0
  9
$SKPOLY
 70
     0
  9
$TDCREATE
 40
2455131.552896806
  9
$TDUPDATE
 40
2456630.6077384842
  9
$TDINDWG
 40
0.0601702894
  9
$TDUSRTIMER
 40
0.0601702083
  9
$USRTIMER
 70
     1
  9
$ANGBASE
 50
0.0
  9
$ANGDIR
 70
     0
  9
$PDMODE
 70
     0
  9
$PDSIZE
 40
0.0
  9
$PLINEWID
 40
0.0
  9
$COORDS
 70
     1
  9
$SPLFRAME
 70
     0
  9
$SPLINETYPE
 70
     6
  9
$SPLINESEGS
 70
     8
  9
$ATTDIA
 70
     0
  9
$ATTREQ
 70
     1
  9
$HANDLING
 70
     1
  9
$HANDSEED
  5
1CB3D
  9
$SURFTAB1
 70
     6
  9
$SURFTAB2
 70
     6
  9
$SURFTYPE
 70
     6
  9
$SURFU
 70
     6
  9
$SURFV
 70
     6
  9
$UCSNAME
  2

  9
$UCSORG
 10
0.0
 20
0.0
 30
0.0
  9
$UCSXDIR
 10
1.0
 20
0.0
 30
0.0
  9
$UCSYDIR
 10
0.0
 20
1.0
 30
0.0
  9
$PUCSNAME
  2

  9
$PUCSORG
 10
0.0
 20
0.0
 30
0.0
  9
$PUCSXDIR
 10
1.0
 20
0.0
 30
0.0
  9
$PUCSYDIR
 10
0.0
 20
1.0
 30
0.0
  9
$USERI1
 70
     0
  9
$USERI2
 70
     0
  9
$USERI3
 70
     0
  9
$USERI4
 70
     0
  9
$USERI5
 70
     0
  9
$USERR1
 40
0.0
  9
$USERR2
 40
0.0
  9
$USERR3
 40
0.0
  9
$USERR4
 40
0.0
  9
$USERR5
 40
0.0
  9
$WORLDVIEW
 70
     1
  9
$SHADEDGE
 70
     3
  9
$SHADEDIF
 70
    70
  9
$TILEMODE
 70
     1
  9
$MAXACTVP
 70
    48
  9
$PLIMCHECK
 70
     0
  9
$PEXTMIN
 10
0.0
 20
0.0
 30
0.0
  9
$PEXTMAX
 10
0.0
 20
0.0
 30
0.0
  9
$PLIMMIN
 10
0.0
 20
0.0
  9
$PLIMMAX
 10
12.0
 20
9.0
  9
$UNITMODE
 70
     0
  9
$VISRETAIN
 70
     1
  9
$PLINEGEN
 70
     0
  9
$PSLTSCALE
 70
     1
  0
ENDSEC
  0
SECTION
  2
TABLES
  0
TABLE
  2
VPORT
 70
     1
  0
VPORT
  2
*ACTIVE
 70
     0
 10
0.0
 20
0.0
 11
1.0
 21
1.0
 12
87.143101714083258
 22
62.819827986650473
 13
0.0
 23
0.0
 14
0.5
 24
0.5
 15
0.5
 25
0.5
 16
0.0
 26
0.0
 36
1.0
 17
0.0
 27
0.0
 37
0.0
 40
101.47808076743721
 41
2.1408934707903771
 42
50.0
 43
0.0
 44
0.0
 50
0.0
 51
0.0
 71
     0
 72
  2000
 73
     1
 74
     3
 75
     0
 76
     0
 77
     0
 78
     0
  0
ENDTAB
  0
TABLE
  2
LTYPE
 70
     3
  0
LTYPE
  2
CONTINUOUS
 70
     0
  3
Solid line
 72
    65
 73
     0
 40
0.0
  0
LTYPE
  2
PHANTOM2
 70
     0
  3
Phantom (.5x) ___ _ _ ___ _ _ ___ _ _ ___ _ _
 72
    65
 73
     6
 40
1.25
 49
0.625
 49
-0.125
 49
0.125
 49
-0.125
 49
0.125
 49
-0.125
  0
LTYPE
  2
CENTER
 70
     0
  3
____ _ ____ _ ____ _ ____ _ ____ _ ____ _ ____ 
 72
    65
 73
     4
 40
2.0
 49
1.25
 49
-0.25
 49
0.25
 49
-0.25
  0
ENDTAB
  0
TABLE
  2
LAYER
 70
     3
  0
LAYER
  2
0
 70
     0
 62
     7
  6
CONTINUOUS
  0
LAYER
  2
CENTER
 70
     0
 62
     3
  6
CENTER
  0
LAYER
  2
HIDE1
 70
     0
 62
     1
  6
CONTINUOUS
  0
ENDTAB
  0
TABLE
  2
STYLE
 70
     5
  0
STYLE
  2
STANDARD
 70
     0
 40
5.0
 41
1.0
 50
0.0
 71
     0
 42
5.0
  3
txt.shx
  4
whgtxt.shx
  0
STYLE
  2
ANNOTATIVE
 70
     0
 40
0.0
 41
1.0
 50
0.0
 71
     0
 42
0.2
  3
txt
  4

  0
STYLE
  2
DUKI
 70
     0
 40
1.1999999999999991
 41
1.0
 50
0.0
 71
     0
 42
1.1999999999999991
  3
txt
  4

  0
STYLE
  2
DUKI2-5
 70
     0
 40
5.0
 41
1.0
 50
0.0
 71
     0
 42
5.0
  3
txt
  4

  0
STYLE
  2
DUKI_1
 70
     0
 40
2.0
 41
1.0
 50
0.0
 71
     0
 42
2.0
  3
txt
  4

  0
ENDTAB
  0
TABLE
  2
VIEW
 70
     0
  0
ENDTAB
  0
TABLE
  2
UCS
 70
     0
  0
ENDTAB
  0
TABLE
  2
APPID
 70
    20
  0
APPID
  2
ACAD
 70
     0
  0
APPID
  2
ACADANNOTATIVE
 70
     0
  0
APPID
  2
ACAD_EXEMPT_FROM_CAD_STANDARDS
 70
     0
  0
APPID
  2
ACAD_DSTYLE_DIMJOGGED_JOGA
 70
     0
  0
APPID
  2
ACAD_PSEXT
 70
     0
  0
APPID
  2
ACAECLAYERSTANDARD
 70
     0
  0
APPID
  2
DCO15
 70
     0
  0
APPID
  2
ACAD_MLEADERVER
 70
     0
  0
APPID
  2
ACAD_DSTYLE_DIMJAG
 70
     0
  0
APPID
  2
ACAD_DSTYLE_DIMBREAK
 70
     0
  0
APPID
  2
ACAD_DSTYLE_DIMTALN
 70
     0
  0
APPID
  2
ACAD_DSTYLE_DIMRADIAL_EXTENSION
 70
     0
  0
APPID
  2
ACAD_DSTYLE_DIMTEXT_FILL
 70
     0
  0
APPID
  2
ACADANNOPO
 70
     0
  0
APPID
  2
ACADSTRINGINFO
 70
     0
  0
APPID
  2
CONTENTBLOCKICON
 70
     0
  0
APPID
  2
ACAD_NAV_VCDISPLAY
 70
     0
  0
APPID
  2
ACDBDYNAMICBLOCKTRUENAME2
 70
     0
  0
APPID
  2
CAXA_DRAFT_DIMSTYLE_ANGTXTVPOS
 70
     0
  0
APPID
  2
CAXA_DRAFT_TXTSTYLE
 70
     0
  0
ENDTAB
  0
TABLE
  2
DIMSTYLE
 70
     3
  0
DIMSTYLE
  2
STANDARD
 70
     0
  3

  4

  5

  6

  7

 40
1.0
 41
0.18
 42
0.0625
 43
0.38
 44
0.18
 45
0.0
 46
0.0
 47
0.0
 48
0.0
140
0.18
141
0.09
142
0.0
143
25.399999999999999
144
1.0
145
0.0
146
1.0
147
0.09
 71
     0
 72
     0
 73
     1
 74
     1
 75
     0
 76
     0
 77
     0
 78
     0
170
     0
171
     2
172
     0
173
     0
174
     0
175
     0
176
     0
177
     0
178
     0
  0
DIMSTYLE
  2
ANNOTATIVE
 70
     0
  3

  4

  5

  6

  7

 40
1.0
 41
0.18
 42
0.0625
 43
0.38
 44
0.18
 45
0.0
 46
0.0
 47
0.0
 48
0.0
140
0.18
141
0.09
142
0.0
143
25.399999999999999
144
1.0
145
0.0
146
1.0
147
0.09
 71
     0
 72
     0
 73
     1
 74
     1
 75
     0
 76
     0
 77
     0
 78
     0
170
     0
171
     2
172
     0
173
     0
174
     0
175
     0
176
     0
177
     0
178
     0
  0
DIMSTYLE
  2
DUKI1
 70
     0
  3

  4

  5

  6

  7

 40
1.0
 41
1.5
 42
0.5
 43
1.0
 44
0.5
 45
0.0
 46
0.0
 47
0.0
 48
0.000000001
140
2.0
141
1.0
142
0.0
143
25.399999999999999
144
1.0
145
0.0
146
0.5
147
0.7
 71
     0
 72
     0
 73
     0
 74
     0
 75
     0
 76
     0
 77
     1
 78
     8
170
     0
171
     2
172
     1
173
     0
174
     0
175
     0
176
     5
177
     5
178
     2
  0
ENDTAB
  0
ENDSEC
  0
SECTION
  2
BLOCKS
  0
BLOCK
  8
0
  2
$MODEL_SPACE
 70
     0
 10
0.0
 20
0.0
 30
0.0
  3
$MODEL_SPACE
  1

  0
ENDBLK
  5
1CA30
  8
0
  0
BLOCK
 67
     1
  8
0
  2
$PAPER_SPACE
 70
     0
 10
0.0
 20
0.0
 30
0.0
  3
$PAPER_SPACE
  1

  0
ENDBLK
  5
1CA2C
 67
     1
  8
0
  0
BLOCK
  8
0
  2
*U2
 70
     1
 10
0.0
 20
0.0
 30
0.0
  3
*U2
  1

  0
TEXT
  5
1C525
  8
0
 10
78.069300436464744
 20
21.368381882301389
 30
0.0
 40
5.0
  1
EK6 P5
  7
DUKI2-5
  0
ENDBLK
  5
1C527
  8
0
  0
ENDSEC
  0
SECTION
  2
ENTITIES
  0
INSERT
  5
1C3EF
  8
0
  2
*U2
 10
0.0
 20
0.0
 30
0.0
  0
CIRCLE
  5
1C680
  8
0
 10
53.299847346815099
 20
96.364857148738992
 30
0.0
 40
2.75
  0
CIRCLE
  5
1C681
  8
0
 10
53.299847346815099
 20
96.364857148738992
 30
0.0
 40
4.75
  0
CIRCLE
  5
1C682
  8
0
 10
83.299847346815085
 20
96.364857148738992
 30
0.0
 40
2.75
  0
CIRCLE
  5
1C683
  8
0
 10
83.299847346815085
 20
96.364857148738992
 30
0.0
 40
4.75
  0
LINE
  5
1C684
  8
CENTER
 10
68.299847346815113
 20
76.997200503481253
 30
0.0
 11
68.299847346815113
 21
108.4081559921012
 31
0.0
  0
LINE
  5
1C685
  8
0
 10
47.299847346815113
 20
86.364857148738963
 30
0.0
 11
47.299847346815113
 21
106.36485714873901
 31
0.0
  0
LINE
  5
1C686
  8
0
 10
89.299847346815085
 20
86.364857148738963
 30
0.0
 11
89.299847346815085
 21
106.36485714873901
 31
0.0
  0
LINE
  5
1C687
  8
0
 10
59.299847346815113
 20
86.364857148738963
 30
0.0
 11
59.299847346815113
 21
106.36485714873901
 31
0.0
  0
LINE
  5
1C688
  8
0
 10
77.299847346815085
 20
86.364857148738963
 30
0.0
 11
77.299847346815085
 21
106.36485714873901
 31
0.0
  0
LINE
  5
1C689
  8
0
 10
76.299847346815085
 20
86.364857148738963
 30
0.0
 11
76.299847346815085
 21
106.36485714873901
 31
0.0
  0
LINE
  5
1C68A
  8
0
 10
60.299847346815099
 20
86.364857148738963
 30
0.0
 11
60.299847346815099
 21
106.36485714873901
 31
0.0
  0
LINE
  5
1C68B
  8
0
 10
47.299847346815113
 20
86.364857148738963
 30
0.0
 11
89.299847346815085
 21
86.364857148738963
 31
0.0
  0
LINE
  5
1C68C
  8
0
 10
47.299847346815113
 20
106.36485714873901
 30
0.0
 11
89.299847346815085
 21
106.36485714873901
 31
0.0
  0
LINE
  5
1C68D
  8
CENTER
 10
45.509838346811179
 20
96.364857148738992
 30
0.0
 11
61.089855346811419
 21
96.364857148738992
 31
0.0
  0
LINE
  5
1C68E
  8
CENTER
 10
53.299847346815099
 20
104.1548661487393
 30
0.0
 11
53.299847346815099
 21
88.574864148738655
 31
0.0
  0
LINE
  5
1C68F
  8
CENTER
 10
75.509839346818779
 20
96.364857148738992
 30
0.0
 11
91.089840346813617
 21
96.364857148738992
 31
0.0
  0
LINE
  5
1C690
  8
CENTER
 10
83.299847346815085
 20
104.1548661487393
 30
0.0
 11
83.299847346815085
 21
88.574864148738655
 31
0.0
  0
LINE
  5
1C691
  8
0
 10
75.549847346815085
 20
85.364857148738992
 30
0.0
 11
75.549847346815085
 21
80.864857148739006
 31
0.0
  0
LINE
  5
1C692
  8
0
 10
61.04984734681512
 20
85.364857148738992
 30
0.0
 11
61.04984734681512
 21
80.864857148737173
 31
0.0
  0
LINE
  5
1C693
  8
0
 10
75.549847346815085
 20
80.864857148739006
 30
0.0
 11
61.04984734681512
 21
80.864857148739006
 31
0.0
  0
LINE
  5
1C694
  8
0
 10
73.299847346815085
 20
85.864857148739006
 30
0.0
 11
63.299847346815099
 21
85.864857148739006
 31
0.0
  0
LINE
  5
1C695
  8
CENTER
 10
70.340618735358476
 20
83.164857148738264
 30
0.0
 11
66.259075958279027
 21
83.164857148738264
 31
0.0
  0
LINE
  5
1C696
  8
0
 10
75.549847346815085
 20
85.364857148738992
 30
0.0
 11
61.04984734681512
 21
85.364857148738992
 31
0.0
  0
LINE
  5
1C697
  8
CENTER
 10
68.299847346815113
 20
86.457199552299898
 30
0.0
 11
68.299847346815113
 21
79.377508190063708
 31
0.0
  0
LINE
  5
1C698
  8
0
 10
69.664771925626155
 20
85.364857148738992
 30
0.0
 11
69.664771925626155
 21
80.864857148739006
 31
0.0
  0
LINE
  5
1C699
  8
0
 10
66.934922767996795
 20
85.364857148738992
 30
0.0
 11
66.934922768004071
 21
80.864857148739006
 31
0.0
  0
LINE
  5
1C69A
  8
HIDE1
 10
65.299847346815113
 20
85.864857148739006
 30
0.0
 11
65.299847346815113
 21
80.864857148739006
 31
0.0
  0
LINE
  5
1C69B
  8
HIDE1
 10
71.299847346815113
 20
85.864857148739006
 30
0.0
 11
71.299847346815113
 21
80.864857148739006
 31
0.0
  0
LINE
  5
1C69C
  8
0
 10
63.299847346815099
 20
85.864857148739006
 30
0.0
 11
63.011172212221027
 21
85.364857148738992
 31
0.0
  0
LINE
  5
1C69D
  8
0
 10
73.299847346815085
 20
85.864857148739006
 30
0.0
 11
73.588522481409186
 21
85.364857148738992
 31
0.0
  0
LINE
  5
1C69E
  8
HIDE1
 10
65.299847346815113
 20
85.864857148739006
 30
0.0
 11
65.299847346815113
 21
106.36485714873901
 31
0.0
  0
LINE
  5
1C69F
  8
HIDE1
 10
71.299847346815113
 20
85.864857148739006
 30
0.0
 11
71.299847346815113
 21
106.36485714873901
 31
0.0
  0
CIRCLE
  5
1C6A0
  8
0
 10
68.299847346815113
 20
83.164857148738264
 30
0.0
 40
1.25
  0
CIRCLE
  5
1C6A1
  8
0
 10
68.299847346815113
 20
83.164857148738264
 30
0.0
 40
1.4999999999954521
  0
POLYLINE
  5
1C6A2
  8
0
 66
     1
 10
0.0
 20
0.0
 30
0.0
 70
     1
  0
VERTEX
  5
1CAFA
  8
0
 10
69.25553169687646
 20
83.164857148738264
 30
0.0
  0
VERTEX
  5
1CAFB
  8
0
 10
68.777689521853063
 20
83.992504073892377
 30
0.0
  0
VERTEX
  5
1CAFC
  8
0
 10
67.82200517178444
 20
83.992504073892377
 30
0.0
  0
VERTEX
  5
1CAFD
  8
0
 10
67.344162996753766
 20
83.164857148738264
 30
0.0
  0
VERTEX
  5
1CAFE
  8
0
 10
67.82200517178444
 20
82.337210223584123
 30
0.0
  0
VERTEX
  5
1CAFF
  8
0
 10
68.777689521853063
 20
82.337210223584123
 30
0.0
  0
SEQEND
  5
1CB00
  8
0
  0
LINE
  5
1C6A3
  8
0
 10
63.54984734681512
 20
86.364857148738963
 30
0.0
 11
63.54984734681512
 21
85.864857148739006
 31
0.0
  0
LINE
  5
1C6A4
  8
0
 10
73.049847346815085
 20
86.364857148738963
 30
0.0
 11
73.049847346815085
 21
85.864857148739006
 31
0.0
  0
LINE
  5
1C6A5
  8
CENTER
 10
68.299847346815113
 20
85.864857148739006
 30
0.0
 11
68.299847346815113
 21
78.785165786502802
 31
0.0
  0
LINE
  5
1C6A9
  8
HIDE1
 10
119.8260227742403
 20
43.673749970661213
 30
0.0
 11
124.8260227742403
 21
43.673749970661213
 31
0.0
  0
LINE
  5
1C6AB
  8
HIDE1
 10
119.8260227742403
 20
49.673749970661213
 30
0.0
 11
124.8260227742403
 21
49.673749970661213
 31
0.0
  0
LINE
  5
1C6AD
  8
0
 10
120.3260227742403
 20
33.673749970661213
 30
0.0
 11
140.3260227742403
 21
33.673749970661213
 31
0.0
  0
LINE
  5
1C6AE
  8
0
 10
140.3260227742403
 20
33.673749970661213
 30
0.0
 11
140.3260227742403
 21
58.673749970661213
 31
0.0
  0
LINE
  5
1C6AF
  8
0
 10
120.3260227742403
 20
33.673749970661213
 30
0.0
 11
120.3260227742403
 21
58.673749970661213
 31
0.0
  0
LINE
  5
1C6B0
  8
CENTER
 10
111.2736103613251
 20
46.673749970661213
 30
0.0
 11
144.29011880099731
 21
46.673749970661213
 31
0.0
  0
LINE
  5
1C6B1
  8
HIDE1
 10
120.3260227742403
 20
51.423749970659379
 30
0.0
 11
124.8260227742403
 21
51.423749970659379
 31
0.0
  0
LINE
  5
1C6B2
  8
HIDE1
 10
136.8260227742403
 20
51.423749970659379
 30
0.0
 11
140.3260227742403
 21
51.423749970661213
 31
0.0
  0
LINE
  5
1C6B3
  8
HIDE1
 10
120.3260227742403
 20
41.923749970659387
 30
0.0
 11
124.8260227742403
 21
41.923749970659387
 31
0.0
  0
LINE
  5
1C6B4
  8
HIDE1
 10
136.8260227742403
 20
41.923749970659387
 30
0.0
 11
140.3260227742403
 21
41.923749970661213
 31
0.0
  0
LINE
  5
1C6B5
  8
0
 10
120.3260227742403
 20
58.673749970661213
 30
0.0
 11
140.3260227742403
 21
58.673749970661213
 31
0.0
  0
LINE
  5
1C6B6
  8
0
 10
120.3260227742403
 20
53.673749970661213
 30
0.0
 11
140.3260227742403
 21
53.673749970661213
 31
0.0
  0
LINE
  5
1C6B7
  8
0
 10
120.3260227742403
 20
57.673841970661421
 30
0.0
 11
140.3260227742403
 21
57.673841970661421
 31
0.0
  0
LINE
  5
1C6BA
  8
0
 10
120.3260227742403
 20
51.423749970659379
 30
0.0
 11
119.8260227742403
 21
51.423749970659379
 31
0.0
  0
LINE
  5
1C6BB
  8
0
 10
120.3260227742403
 20
41.923749970659387
 30
0.0
 11
119.8260227742403
 21
41.923749970659387
 31
0.0
  0
LINE
  5
1C6BC
  8
0
 10
119.3260227742403
 20
53.923749970661213
 30
0.0
 11
114.8260227742403
 21
53.923749970661213
 31
0.0
  0
LINE
  5
1C6BD
  8
0
 10
119.3260227742403
 20
39.423749970659401
 30
0.0
 11
114.826022774233
 21
39.423749970661213
 31
0.0
  0
LINE
  5
1C6BE
  8
0
 10
114.8260227742403
 20
53.923749970661213
 30
0.0
 11
114.8260227742403
 21
39.423749970659401
 31
0.0
  0
LINE
  5
1C6BF
  8
0
 10
119.8260227742403
 20
51.673749970661213
 30
0.0
 11
119.8260227742403
 21
41.67374997066301
 31
0.0
  0
LINE
  5
1C6C0
  8
CENTER
 10
117.12602277423591
 20
54.501894558737831
 30
0.0
 11
117.12602277423591
 21
48.4706032182455
 31
0.0
  0
LINE
  5
1C6C1
  8
0
 10
119.3260227742403
 20
53.923749970661213
 30
0.0
 11
119.3260227742403
 21
39.423749970659401
 31
0.0
  0
LINE
  5
1C6C2
  8
0
 10
119.3260227742403
 20
48.038674549472262
 30
0.0
 11
114.8260227742403
 21
48.038674549472262
 31
0.0
  0
LINE
  5
1C6C3
  8
0
 10
119.3260227742403
 20
45.308825391842888
 30
0.0
 11
114.8260227742403
 21
45.308825391844707
 31
0.0
  0
LINE
  5
1C6C4
  8
HIDE1
 10
119.8260227742403
 20
43.673749970659379
 30
0.0
 11
114.8260227742403
 21
43.673749970661213
 31
0.0
  0
LINE
  5
1C6C5
  8
HIDE1
 10
119.8260227742403
 20
49.673749970661213
 30
0.0
 11
114.8260227742403
 21
49.673749970661213
 31
0.0
  0
LINE
  5
1C6C6
  8
0
 10
119.8260227742403
 20
41.673749970661213
 30
0.0
 11
119.3260227742403
 21
41.385074836068931
 31
0.0
  0
LINE
  5
1C6C7
  8
0
 10
119.8260227742403
 20
51.673749970661213
 30
0.0
 11
119.3260227742403
 21
51.962425105257118
 31
0.0
  0
LINE
  5
1C6C8
  8
HIDE1
 10
115.62602277423591
 20
53.923749970661213
 30
0.0
 11
115.6260227742286
 21
49.298749970663032
 31
0.0
  0
LINE
  5
1C6C9
  8
HIDE1
 10
115.87602277423591
 20
53.923749970661213
 30
0.0
 11
115.87602277423591
 21
49.298749970663032
 31
0.0
  0
LINE
  5
1C6CA
  8
HIDE1
 10
118.6260227742286
 20
53.923749970661213
 30
0.0
 11
118.6260227742286
 21
49.298749970663032
 31
0.0
  0
LINE
  5
1C6CB
  8
HIDE1
 10
118.37602277423591
 20
53.923749970661213
 30
0.0
 11
118.37602277423591
 21
49.298749970663032
 31
0.0
  0
LINE
  5
1C6CC
  8
HIDE1
 10
118.6260227742286
 20
50.39677510449814
 30
0.0
 11
115.6260227742286
 21
50.39677510449814
 31
0.0
  0
LINE
  5
1C6CD
  8
HIDE1
 10
118.6260227742286
 20
53.396775104498133
 30
0.0
 11
115.6260227742286
 21
53.396775104498133
 31
0.0
  0
LINE
  5
1C6CE
  8
HIDE1
 10
118.6260227742286
 20
50.396775104496321
 30
0.0
 11
118.37602277423591
 21
50.252437537201097
 31
0.0
  0
LINE
  5
1C6CF
  8
HIDE1
 10
115.62602277423591
 20
50.396775104496321
 30
0.0
 11
115.87602277423591
 21
50.25243753719927
 31
0.0
  0
LINE
  5
1C6D0
  8
HIDE1
 10
118.37602277423591
 20
50.252437537201097
 30
0.0
 11
115.87602277423591
 21
50.25243753719927
 31
0.0
  0
LINE
  5
1C6D1
  8
HIDE1
 10
119.8260227742403
 20
49.298749970663032
 30
0.0
 11
114.8260227742403
 21
49.298749970663032
 31
0.0
  0
LINE
  5
1C6D2
  8
HIDE1
 10
119.8260227742403
 20
44.048749970661213
 30
0.0
 11
114.8260227742403
 21
44.048749970661213
 31
0.0
  0
LINE
  5
1C6D3
  8
CENTER
 10
130.3260227742403
 20
28.393303037160649
 30
0.0
 11
130.3260227742403
 21
35.667340822577671
 31
0.0
  0
LINE
  5
1C6D4
  8
HIDE1
 10
136.8260227742403
 20
51.423749970659379
 30
0.0
 11
136.8260227742403
 21
41.923749970659387
 31
0.0
  0
CIRCLE
  5
1C6D5
  8
HIDE1
 10
133.8260227742403
 20
40.923749970661213
 30
0.0
 40
1.649999999999999
  0
CIRCLE
  5
1C6D6
  8
HIDE1
 10
133.8260227742403
 20
52.423749970661213
 30
0.0
 40
1.649999999999999
  0
LINE
  5
1C6D7
  8
HIDE1
 10
136.8260227742403
 20
39.798749970661213
 30
0.0
 11
136.8260227742403
 21
42.213749970662093
 31
0.0
  0
LINE
  5
1C6D8
  8
HIDE1
 10
130.8260227742403
 20
42.213749970662093
 30
0.0
 11
130.8260227742403
 21
39.798749970661213
 31
0.0
  0
LINE
  5
1C6D9
  8
HIDE1
 10
135.03303354468969
 20
39.798749970661213
 30
0.0
 11
136.8260227742403
 21
39.798749970661213
 31
0.0
  0
LINE
  5
1C6DA
  8
HIDE1
 10
131.12602277423591
 20
38.173749970661213
 30
0.0
 11
136.52602277423739
 21
38.173749970661213
 31
0.0
  0
ARC
  5
1C6DB
  8
HIDE1
 10
131.12602277423591
 20
38.473749970662311
 30
0.0
 40
0.3
 50
180.0
 51
270.0
  0
LINE
  5
1C6DC
  8
HIDE1
 10
130.8260227742403
 20
39.798749970661213
 30
0.0
 11
130.8260227742403
 21
38.473749970662311
 31
0.0
  0
ARC
  5
1C6DD
  8
HIDE1
 10
136.52602277423739
 20
38.473749970662311
 30
0.0
 40
0.3000000000000007
 50
270.0
 51
0.0
  0
LINE
  5
1C6DE
  8
HIDE1
 10
136.8260227742403
 20
38.473749970662311
 30
0.0
 11
136.8260227742403
 21
39.798749970661213
 31
0.0
  0
ARC
  5
1C6DF
  8
HIDE1
 10
131.12602277423591
 20
49.973749970662311
 30
0.0
 40
0.3
 50
180.0
 51
270.0
  0
ARC
  5
1C6E0
  8
HIDE1
 10
136.52602277423739
 20
49.973749970662311
 30
0.0
 40
0.2999999999999998
 50
270.0
 51
0.0
  0
LINE
  5
1C6E1
  8
HIDE1
 10
136.8260227742403
 20
49.973749970662311
 30
0.0
 11
136.8260227742403
 21
46.673749970661213
 31
0.0
  0
LINE
  5
1C6E2
  8
HIDE1
 10
130.8260227742403
 20
46.673749970661213
 30
0.0
 11
130.8260227742403
 21
49.973749970662311
 31
0.0
  0
LINE
  5
1C6E3
  8
HIDE1
 10
130.8260227742403
 20
42.213749970662093
 30
0.0
 11
132.79723708226541
 21
42.213749970662093
 31
0.0
  0
LINE
  5
1C6E4
  8
HIDE1
 10
134.85480846620791
 20
42.213749970662093
 30
0.0
 11
136.8260227742403
 21
42.213749970662093
 31
0.0
  0
LINE
  5
1C6E5
  8
HIDE1
 10
131.12602277423591
 20
43.673749970661213
 30
0.0
 11
136.52602277423739
 21
43.673749970661213
 31
0.0
  0
LINE
  5
1C6E6
  8
HIDE1
 10
131.12602277423591
 20
49.673749970661213
 30
0.0
 11
136.52602277423739
 21
49.673749970661213
 31
0.0
  0
LINE
  5
1C6E7
  8
HIDE1
 10
130.8260227742403
 20
46.673749970661213
 30
0.0
 11
130.8260227742403
 21
43.373749970661933
 31
0.0
  0
ARC
  5
1C6E8
  8
HIDE1
 10
131.12602277423591
 20
43.373749970661933
 30
0.0
 40
0.2999999999999998
 50
90.0
 51
180.0
  0
LINE
  5
1C6E9
  8
HIDE1
 10
130.8260227742403
 20
43.373749970661933
 30
0.0
 11
130.8260227742403
 21
42.213749970662093
 31
0.0
  0
LINE
  5
1C6EA
  8
HIDE1
 10
136.8260227742403
 20
43.373749970661933
 30
0.0
 11
136.8260227742403
 21
46.673749970661213
 31
0.0
  0
ARC
  5
1C6EB
  8
HIDE1
 10
136.52602277423739
 20
43.373749970661933
 30
0.0
 40
0.2999999999999998
 50
0.0
 51
90.0
  0
LINE
  5
1C6EC
  8
HIDE1
 10
136.8260227742403
 20
42.213749970662093
 30
0.0
 11
136.8260227742403
 21
43.373749970661933
 31
0.0
  0
LINE
  5
1C6ED
  8
HIDE1
 10
130.8260227742403
 20
51.133749970662159
 30
0.0
 11
132.79723708226541
 21
51.133749970662159
 31
0.0
  0
LINE
  5
1C6EE
  8
HIDE1
 10
134.85480846620791
 20
51.133749970662159
 30
0.0
 11
136.8260227742403
 21
51.133749970662159
 31
0.0
  0
LINE
  5
1C6EF
  8
HIDE1
 10
130.83584495684499
 20
54.237396961257893
 30
0.0
 11
133.27938724137221
 21
53.980570318102529
 31
0.0
  0
LINE
  5
1C6F0
  8
HIDE1
 10
135.03303354468969
 20
53.548749970661213
 30
0.0
 11
136.8260227742403
 21
53.548749970661213
 31
0.0
  0
LINE
  5
1C6F1
  8
HIDE1
 10
131.12602277423591
 20
55.173749970661213
 30
0.0
 11
136.52602277423739
 21
55.173749970661213
 31
0.0
  0
ARC
  5
1C6F2
  8
HIDE1
 10
131.12602277423591
 20
54.87374997066194
 30
0.0
 40
0.3000000000000007
 50
90.0
 51
180.0
  0
LINE
  5
1C6F3
  8
HIDE1
 10
130.8260227742403
 20
53.548749970661213
 30
0.0
 11
130.8260227742403
 21
54.87374997066194
 31
0.0
  0
LINE
  5
1C6F4
  8
HIDE1
 10
130.8260227742403
 20
49.973749970662311
 30
0.0
 11
130.8260227742403
 21
51.133749970662159
 31
0.0
  0
LINE
  5
1C6F5
  8
HIDE1
 10
130.8260227742403
 20
51.133749970662159
 30
0.0
 11
130.8260227742403
 21
53.548749970661213
 31
0.0
  0
LINE
  5
1C6F6
  8
HIDE1
 10
136.8260227742403
 20
54.87374997066194
 30
0.0
 11
136.8260227742403
 21
53.548749970661213
 31
0.0
  0
LINE
  5
1C6F7
  8
HIDE1
 10
136.8260227742403
 20
51.133749970662159
 30
0.0
 11
136.8260227742403
 21
49.973749970662311
 31
0.0
  0
LINE
  5
1C6F8
  8
HIDE1
 10
136.8260227742403
 20
53.548749970661213
 30
0.0
 11
136.8260227742403
 21
51.133749970662159
 31
0.0
  0
ARC
  5
1C6F9
  8
HIDE1
 10
136.52602277423739
 20
54.87374997066194
 30
0.0
 40
0.2999999999999998
 50
0.0
 51
90.0
  0
LINE
  5
1C6FA
  8
HIDE1
 10
130.89678036932031
 20
42.213749970662093
 30
0.0
 11
130.8260227742403
 21
42.284507565743972
 31
0.0
  0
LINE
  5
1C6FB
  8
HIDE1
 10
130.83584495684499
 20
39.110102980064532
 30
0.0
 11
133.27938724137221
 21
39.366929623219903
 31
0.0
  0
LINE
  5
1C6FC
  8
HIDE1
 10
124.8260227742403
 20
51.423749970659379
 30
0.0
 11
124.8260227742403
 21
41.923749970659387
 31
0.0
  0
CIRCLE
  5
1C6FD
  8
HIDE1
 10
127.8260227742403
 20
40.923749970661213
 30
0.0
 40
1.649999999999999
  0
CIRCLE
  5
1C6FE
  8
HIDE1
 10
127.8260227742403
 20
52.423749970661213
 30
0.0
 40
1.649999999999999
  0
LINE
  5
1C6FF
  8
HIDE1
 10
124.8260227742403
 20
39.798749970661213
 30
0.0
 11
124.8260227742403
 21
42.213749970662093
 31
0.0
  0
LINE
  5
1C700
  8
HIDE1
 10
130.8260227742403
 20
42.213749970662093
 30
0.0
 11
130.8260227742403
 21
39.798749970661213
 31
0.0
  0
LINE
  5
1C701
  8
HIDE1
 10
126.61901200377631
 20
39.798749970661213
 30
0.0
 11
124.8260227742403
 21
39.798749970661213
 31
0.0
  0
LINE
  5
1C702
  8
HIDE1
 10
130.52602277423739
 20
38.173749970661213
 30
0.0
 11
125.12602277423591
 21
38.173749970661213
 31
0.0
  0
ARC
  5
1C703
  8
HIDE1
 10
130.52602277423739
 20
38.473749970662311
 30
0.0
 40
0.3
 50
270.0
 51
0.0
  0
LINE
  5
1C704
  8
HIDE1
 10
130.8260227742403
 20
39.798749970661213
 30
0.0
 11
130.8260227742403
 21
38.473749970662311
 31
0.0
  0
ARC
  5
1C705
  8
HIDE1
 10
125.12602277423591
 20
38.473749970662311
 30
0.0
 40
0.3000000000000007
 50
180.0
 51
270.0
  0
LINE
  5
1C706
  8
HIDE1
 10
124.8260227742403
 20
38.473749970662311
 30
0.0
 11
124.8260227742403
 21
39.798749970661213
 31
0.0
  0
ARC
  5
1C707
  8
HIDE1
 10
130.52602277423739
 20
49.973749970662311
 30
0.0
 40
0.3
 50
270.0
 51
0.0
  0
ARC
  5
1C708
  8
HIDE1
 10
125.12602277423591
 20
49.973749970662311
 30
0.0
 40
0.2999999999999998
 50
180.0
 51
270.0
  0
LINE
  5
1C709
  8
HIDE1
 10
124.8260227742403
 20
49.973749970662311
 30
0.0
 11
124.8260227742403
 21
46.673749970661213
 31
0.0
  0
LINE
  5
1C70A
  8
HIDE1
 10
130.8260227742403
 20
46.673749970661213
 30
0.0
 11
130.8260227742403
 21
49.973749970662311
 31
0.0
  0
LINE
  5
1C70B
  8
HIDE1
 10
130.8260227742403
 20
42.213749970662093
 30
0.0
 11
128.85480846620791
 21
42.213749970662093
 31
0.0
  0
LINE
  5
1C70C
  8
HIDE1
 10
126.7972370822654
 20
42.213749970662093
 30
0.0
 11
124.8260227742403
 21
42.213749970662093
 31
0.0
  0
LINE
  5
1C70D
  8
HIDE1
 10
130.52602277423739
 20
43.673749970661213
 30
0.0
 11
125.12602277423591
 21
43.673749970661213
 31
0.0
  0
LINE
  5
1C70E
  8
HIDE1
 10
130.52602277423739
 20
49.673749970661213
 30
0.0
 11
125.12602277423591
 21
49.673749970661213
 31
0.0
  0
LINE
  5
1C70F
  8
HIDE1
 10
130.8260227742403
 20
46.673749970661213
 30
0.0
 11
130.8260227742403
 21
43.373749970661933
 31
0.0
  0
ARC
  5
1C710
  8
HIDE1
 10
130.52602277423739
 20
43.373749970661933
 30
0.0
 40
0.2999999999999998
 50
0.0
 51
90.0
  0
LINE
  5
1C711
  8
HIDE1
 10
130.8260227742403
 20
43.373749970661933
 30
0.0
 11
130.8260227742403
 21
42.213749970662093
 31
0.0
  0
LINE
  5
1C712
  8
HIDE1
 10
124.8260227742403
 20
43.373749970661933
 30
0.0
 11
124.8260227742403
 21
46.673749970661213
 31
0.0
  0
ARC
  5
1C713
  8
HIDE1
 10
125.12602277423591
 20
43.373749970661933
 30
0.0
 40
0.2999999999999998
 50
90.0
 51
180.0
  0
LINE
  5
1C714
  8
HIDE1
 10
124.8260227742403
 20
42.213749970662093
 30
0.0
 11
124.8260227742403
 21
43.373749970661933
 31
0.0
  0
LINE
  5
1C715
  8
HIDE1
 10
130.8260227742403
 20
51.133749970662159
 30
0.0
 11
128.85480846620791
 21
51.133749970662159
 31
0.0
  0
LINE
  5
1C716
  8
HIDE1
 10
126.7972370822654
 20
51.133749970662159
 30
0.0
 11
124.8260227742403
 21
51.133749970662159
 31
0.0
  0
LINE
  5
1C717
  8
HIDE1
 10
130.81620059163561
 20
54.237396961257893
 30
0.0
 11
128.3726583071084
 21
53.980570318102529
 31
0.0
  0
LINE
  5
1C718
  8
HIDE1
 10
126.61901200377631
 20
53.548749970661213
 30
0.0
 11
124.8260227742403
 21
53.548749970661213
 31
0.0
  0
LINE
  5
1C719
  8
HIDE1
 10
130.52602277423739
 20
55.173749970661213
 30
0.0
 11
125.12602277423591
 21
55.173749970661213
 31
0.0
  0
ARC
  5
1C71A
  8
HIDE1
 10
130.52602277423739
 20
54.87374997066194
 30
0.0
 40
0.3000000000000007
 50
0.0
 51
90.0
  0
LINE
  5
1C71B
  8
HIDE1
 10
130.8260227742403
 20
53.548749970661213
 30
0.0
 11
130.8260227742403
 21
54.87374997066194
 31
0.0
  0
LINE
  5
1C71C
  8
HIDE1
 10
130.8260227742403
 20
49.973749970662311
 30
0.0
 11
130.8260227742403
 21
51.133749970662159
 31
0.0
  0
LINE
  5
1C71D
  8
HIDE1
 10
130.8260227742403
 20
51.133749970662159
 30
0.0
 11
130.8260227742403
 21
53.548749970661213
 31
0.0
  0
LINE
  5
1C71E
  8
HIDE1
 10
124.8260227742403
 20
54.87374997066194
 30
0.0
 11
124.8260227742403
 21
53.548749970661213
 31
0.0
  0
LINE
  5
1C71F
  8
HIDE1
 10
124.8260227742403
 20
51.133749970662159
 30
0.0
 11
124.8260227742403
 21
49.973749970662311
 31
0.0
  0
LINE
  5
1C720
  8
HIDE1
 10
124.8260227742403
 20
53.548749970661213
 30
0.0
 11
124.8260227742403
 21
51.133749970662159
 31
0.0
  0
ARC
  5
1C721
  8
HIDE1
 10
125.12602277423591
 20
54.87374997066194
 30
0.0
 40
0.2999999999999998
 50
90.0
 51
180.0
  0
LINE
  5
1C722
  8
HIDE1
 10
130.7552651791529
 20
42.213749970662093
 30
0.0
 11
130.8260227742403
 21
42.284507565743972
 31
0.0
  0
LINE
  5
1C723
  8
HIDE1
 10
130.81620059163561
 20
39.110102980064532
 30
0.0
 11
128.3726583071084
 21
39.366929623219903
 31
0.0
  0
LINE
  5
1C725
  8
HIDE1
 10
88.049847346815085
 20
53.673749970661213
 30
0.0
 11
88.049847346815085
 21
42.673749970661213
 31
0.0
  0
LINE
  5
1C726
  8
HIDE1
 10
86.049847346815085
 20
42.673749970661213
 30
0.0
 11
86.049847346815085
 21
33.673749970661213
 31
0.0
  0
LINE
  5
1C727
  8
HIDE1
 10
80.549847346815085
 20
42.673749970661213
 30
0.0
 11
80.549847346815085
 21
33.673749970661213
 31
0.0
  0
LINE
  5
1C728
  8
HIDE1
 10
78.549847346815085
 20
53.673749970661213
 30
0.0
 11
78.549847346815085
 21
42.673749970661213
 31
0.0
  0
LINE
  5
1C729
  8
HIDE1
 10
78.549847346815085
 20
42.673749970661213
 30
0.0
 11
88.049847346815085
 21
42.673749970661213
 31
0.0
  0
LINE
  5
1C72A
  8
HIDE1
 10
48.54984734681512
 20
42.673749970661213
 30
0.0
 11
58.049847346815113
 21
42.673749970661213
 31
0.0
  0
LINE
  5
1C72B
  8
HIDE1
 10
48.54984734681512
 20
53.673749970661213
 30
0.0
 11
48.54984734681512
 21
42.673749970661213
 31
0.0
  0
LINE
  5
1C72C
  8
HIDE1
 10
58.049847346815113
 20
53.673749970661213
 30
0.0
 11
58.049847346815113
 21
42.673749970661213
 31
0.0
  0
LINE
  5
1C72D
  8
HIDE1
 10
56.04984734681512
 20
42.673749970661213
 30
0.0
 11
56.04984734681512
 21
33.673749970661213
 31
0.0
  0
LINE
  5
1C72E
  8
HIDE1
 10
50.549847346815113
 20
42.673749970661213
 30
0.0
 11
50.549847346815113
 21
33.673749970661213
 31
0.0
  0
LINE
  5
1C72F
  8
CENTER
 10
83.299847346815085
 20
32.454419970661313
 30
0.0
 11
83.299847346815085
 21
54.7471519706612
 31
0.0
  0
LINE
  5
1C730
  8
CENTER
 10
68.299847346815113
 20
31.673749970661209
 30
0.0
 11
68.299847346815113
 21
59.981656970661561
 31
0.0
  0
LINE
  5
1C731
  8
CENTER
 10
45.299847346815099
 20
46.673749970661213
 30
0.0
 11
91.299847346815113
 21
46.673749970661213
 31
0.0
  0
LINE
  5
1C732
  8
0
 10
59.299847346815113
 20
53.673749970661213
 30
0.0
 11
59.299847346815113
 21
57.67374997066122
 31
0.0
  0
LINE
  5
1C734
  8
0
 10
60.299847346815099
 20
58.673749970661213
 30
0.0
 11
76.299847346815085
 21
58.673749970661213
 31
0.0
  0
LINE
  5
1C735
  8
0
 10
77.299847346815085
 20
53.673749970661213
 30
0.0
 11
89.299847346815085
 21
53.673749970661213
 31
0.0
  0
LINE
  5
1C736
  8
CENTER
 10
53.299847346815099
 20
32.454419970661313
 30
0.0
 11
53.299847346815099
 21
54.7471519706612
 31
0.0
  0
LINE
  5
1C737
  8
0
 10
77.299847346815085
 20
53.673749970661213
 30
0.0
 11
77.299847346815085
 21
57.67374997066122
 31
0.0
  0
LINE
  5
1C739
  8
0
 10
47.299847346815113
 20
33.673749970661213
 30
0.0
 11
89.299847346815085
 21
33.673749970661213
 31
0.0
  0
LINE
  5
1C73A
  8
0
 10
47.299847346815113
 20
33.673749970661213
 30
0.0
 11
47.299847346815113
 21
53.673749970661213
 31
0.0
  0
LINE
  5
1C73B
  8
0
 10
89.299847346815085
 20
33.673749970661213
 30
0.0
 11
89.299847346815085
 21
53.673749970661213
 31
0.0
  0
LINE
  5
1C73D
  8
0
 10
47.299847346815113
 20
53.673749970661213
 30
0.0
 11
59.299847346815113
 21
53.673749970661213
 31
0.0
  0
LINE
  5
1C73F
  8
0
 10
69.664771925633431
 20
39.55339317523589
 30
0.0
 11
75.42020414224406
 21
45.308825391850171
 31
0.0
  0
LINE
  5
1C740
  8
0
 10
61.179490551393442
 20
48.038674549474081
 30
0.0
 11
66.934922768004071
 21
53.794106766086529
 31
0.0
  0
LINE
  5
1C741
  8
HIDE1
 10
69.799847346815113
 20
53.659031344897578
 30
0.0
 11
69.799847346822389
 21
48.827960963111529
 31
0.0
  0
LINE
  5
1C742
  8
HIDE1
 10
69.549847346815113
 20
53.815178399203198
 30
0.0
 11
69.549847346815113
 21
48.982023134740068
 31
0.0
  0
LINE
  5
1C743
  8
HIDE1
 10
66.799847346822389
 20
53.659031344897578
 30
0.0
 11
66.799847346822389
 21
48.82796096311516
 31
0.0
  0
LINE
  5
1C744
  8
HIDE1
 10
67.049847346815113
 20
53.815178399203198
 30
0.0
 11
67.049847346815113
 21
48.982023134738249
 31
0.0
  0
LINE
  5
1C745
  8
0
 10
69.664771925633431
 20
53.794106766086529
 30
0.0
 11
75.42020414224406
 21
48.038674549470421
 31
0.0
  0
LINE
  5
1C746
  8
0
 10
61.179490551393442
 20
45.308825391846533
 30
0.0
 11
66.934922768004071
 21
39.553393175237701
 31
0.0
  0
ARC
  5
1C747
  8
0
 10
68.299847346815113
 20
46.673749970661213
 30
0.0
 40
7.25
 50
169.14842434500841
 51
190.85157565506981
  0
ARC
  5
1C748
  8
0
 10
68.299847346815113
 20
46.673749970661213
 30
0.0
 40
7.25
 50
259.1484243449695
 51
280.85157565503039
  0
ARC
  5
1C749
  8
0
 10
68.299847346815113
 20
46.673749970661213
 30
0.0
 40
7.25
 50
349.14842434492982
 51
10.85157565499145
  0
ARC
  5
1C74A
  8
0
 10
68.299847346815113
 20
46.673749970661213
 30
0.0
 40
7.25
 50
79.148424344969598
 51
100.8515756550304
  0
LINE
  5
1C74B
  8
HIDE1
 10
66.799847346822389
 20
50.39677510449814
 30
0.0
 11
69.799847346822389
 21
50.39677510449814
 31
0.0
  0
LINE
  5
1C74C
  8
HIDE1
 10
66.799847346822389
 20
53.396775104498133
 30
0.0
 11
69.799847346822389
 21
53.396775104498133
 31
0.0
  0
LINE
  5
1C74D
  8
HIDE1
 10
66.799847346822389
 20
50.396775104496321
 30
0.0
 11
67.049847346815113
 21
50.252437537201097
 31
0.0
  0
LINE
  5
1C74E
  8
HIDE1
 10
69.799847346815113
 20
50.39677510449814
 30
0.0
 11
69.549847346815113
 21
50.252437537201097
 31
0.0
  0
LINE
  5
1C74F
  8
HIDE1
 10
67.049847346815113
 20
50.252437537201097
 30
0.0
 11
69.549847346815113
 21
50.252437537201097
 31
0.0
  0
ARC
  5
1C750
  8
HIDE1
 10
68.299847346815113
 20
46.673749970661213
 30
0.0
 40
3.0
 50
270.0
 51
180.0
  0
CIRCLE
  5
1C751
  8
0
 10
68.299847346815113
 20
46.673749970661213
 30
0.0
 40
2.625
  0
CIRCLE
  5
1C754
  8
HIDE1
 10
68.299847346815113
 20
46.673749970661213
 30
0.0
 40
5.7008771254956869
  0
LINE
  5
1C907
  8
0
 10
59.299847346815113
 20
57.67374997066122
 30
0.0
 11
60.299847346815099
 21
58.673749970661213
 31
0.0
  0
LINE
  5
1C908
  8
0
 10
76.299847346815085
 20
58.673749970661213
 30
0.0
 11
77.299847346815085
 21
57.67374997066122
 31
0.0
  0
CIRCLE
  5
1C90B
  8
0
 10
68.299847346815113
 20
46.673749970661213
 30
0.0
 40
9.0
  0
ARC
  5
1C910
  8
HIDE1
 10
68.299847346815113
 20
46.673749970661213
 30
0.0
 40
9.5
 50
270.0
 51
180.0
  0
ENDSEC
  0
EOF
