  0
SECTION
  2
HEADER
  9
$ACADVER
  1
AC1009
  9
$INSBASE
 10
0.0
 20
0.0
 30
0.0
  9
$EXTMIN
 10
1903.0405749290021
 20
1433.173578249188
 30
0.0
  9
$EXTMAX
 10
2348.540574929003
 20
1748.173578249188
 30
0.0
  9
$LIMMIN
 10
0.0
 20
0.0
  9
$LIMMAX
 10
12.0
 20
9.0
  9
$ORTHOMODE
 70
     1
  9
$REGENMODE
 70
     1
  9
$FILLMODE
 70
     1
  9
$QTEXTMODE
 70
     0
  9
$MIRRTEXT
 70
     0
  9
$DRAGMODE
 70
     2
  9
$LTSCALE
 40
5.0
  9
$OSMODE
 70
   951
  9
$ATTMODE
 70
     1
  9
$TEXTSIZE
 40
2.5
  9
$TRACEWID
 40
0.05
  9
$TEXTSTYLE
  7
BIG
  9
$CLAYER
  8
0
  9
$CELTYPE
  6
BYLAYER
  9
$CECOLOR
 62
   256
  9
$DIMSCALE
 40
1.0
  9
$DIMASZ
 40
3.0
  9
$DIMEXO
 40
1.0
  9
$DIMDLI
 40
0.0
  9
$DIMRND
 40
0.0
  9
$DIMDLE
 40
0.0
  9
$DIMEXE
 40
1.0
  9
$DIMTP
 40
0.0
  9
$DIMTM
 40
0.0
  9
$DIMTXT
 40
3.0
  9
$DIMCEN
 40
0.0
  9
$DIMTSZ
 40
0.0
  9
$DIMTOL
 70
     0
  9
$DIMLIM
 70
     0
  9
$DIMTIH
 70
     0
  9
$DIMTOH
 70
     0
  9
$DIMSE1
 70
     0
  9
$DIMSE2
 70
     0
  9
$DIMTAD
 70
     1
  9
$DIMZIN
 70
     8
  9
$DIMBLK
  1

  9
$DIMASO
 70
     1
  9
$DIMSHO
 70
     1
  9
$DIMPOST
  1

  9
$DIMAPOST
  1

  9
$DIMALT
 70
     0
  9
$DIMALTD
 70
     2
  9
$DIMALTF
 40
25.399999999999999
  9
$DIMLFAC
 40
1.0
  9
$DIMTOFL
 70
     1
  9
$DIMTVP
 40
0.0
  9
$DIMTIX
 70
     1
  9
$DIMSOXD
 70
     0
  9
$DIMSAH
 70
     0
  9
$DIMBLK1
  1

  9
$DIMBLK2
  1

  9
$DIMSTYLE
  2
DUKITEC
  9
$DIMCLRD
 70
     5
  9
$DIMCLRE
 70
     5
  9
$DIMCLRT
 70
     0
  9
$DIMTFAC
 40
1.0
  9
$DIMGAP
 40
1.0
  9
$LUNITS
 70
     2
  9
$LUPREC
 70
     4
  9
$SKETCHINC
 40
0.1
  9
$FILLETRAD
 40
0.2
  9
$AUNITS
 70
     0
  9
$AUPREC
 70
     0
  9
$MENU
  1
.
  9
$ELEVATION
 40
0.0
  9
$PELEVATION
 40
0.0
  9
$THICKNESS
 40
0.0
  9
$LIMCHECK
 70
     0
  9
$BLIPMODE
 70
     0
  9
$CHAMFERA
 40
0.5
  9
$CHAMFERB
 40
0.5
  9
$SKPOLY
 70
     0
  9
$TDCREATE
 40
2454396.7415988431
  9
$TDUPDATE
 40
2456275.496528334
  9
$TDINDWG
 40
0.0023860532
  9
$TDUSRTIMER
 40
0.0023822917
  9
$USRTIMER
 70
     1
  9
$ANGBASE
 50
0.0
  9
$ANGDIR
 70
     0
  9
$PDMODE
 70
     0
  9
$PDSIZE
 40
0.0
  9
$PLINEWID
 40
0.0
  9
$COORDS
 70
     0
  9
$SPLFRAME
 70
     0
  9
$SPLINETYPE
 70
     6
  9
$SPLINESEGS
 70
     8
  9
$ATTDIA
 70
     0
  9
$ATTREQ
 70
     1
  9
$HANDLING
 70
     1
  9
$HANDSEED
  5
14130
  9
$SURFTAB1
 70
     6
  9
$SURFTAB2
 70
     6
  9
$SURFTYPE
 70
     6
  9
$SURFU
 70
     6
  9
$SURFV
 70
     6
  9
$UCSNAME
  2

  9
$UCSORG
 10
0.0
 20
0.0
 30
0.0
  9
$UCSXDIR
 10
1.0
 20
0.0
 30
0.0
  9
$UCSYDIR
 10
0.0
 20
1.0
 30
0.0
  9
$PUCSNAME
  2

  9
$PUCSORG
 10
0.0
 20
0.0
 30
0.0
  9
$PUCSXDIR
 10
1.0
 20
0.0
 30
0.0
  9
$PUCSYDIR
 10
0.0
 20
1.0
 30
0.0
  9
$USERI1
 70
     0
  9
$USERI2
 70
     0
  9
$USERI3
 70
     0
  9
$USERI4
 70
     0
  9
$USERI5
 70
     0
  9
$USERR1
 40
0.0
  9
$USERR2
 40
0.0
  9
$USERR3
 40
0.0
  9
$USERR4
 40
0.0
  9
$USERR5
 40
0.0
  9
$WORLDVIEW
 70
     1
  9
$SHADEDGE
 70
     3
  9
$SHADEDIF
 70
    70
  9
$TILEMODE
 70
     1
  9
$MAXACTVP
 70
    64
  9
$PLIMCHECK
 70
     0
  9
$PEXTMIN
 10
0.0
 20
0.0
 30
0.0
  9
$PEXTMAX
 10
0.0
 20
0.0
 30
0.0
  9
$PLIMMIN
 10
0.0
 20
0.0
  9
$PLIMMAX
 10
12.0
 20
9.0
  9
$UNITMODE
 70
     0
  9
$VISRETAIN
 70
     1
  9
$PLINEGEN
 70
     0
  9
$PSLTSCALE
 70
     1
  0
ENDSEC
  0
SECTION
  2
TABLES
  0
TABLE
  2
VPORT
 70
     1
  0
VPORT
  2
*ACTIVE
 70
     0
 10
0.0
 20
0.0
 11
1.0
 21
1.0
 12
2153.7031940426841
 22
1659.6370821897219
 13
0.0
 23
0.0
 14
0.5
 24
0.5
 15
0.5
 25
0.5
 16
0.0
 26
0.0
 36
1.0
 17
0.0
 27
0.0
 37
0.0
 40
397.06587227310962
 41
2.1532258064516121
 42
50.0
 43
0.0
 44
0.0
 50
0.0
 51
0.0
 71
     0
 72
  2000
 73
     1
 74
     3
 75
     0
 76
     0
 77
     0
 78
     0
  0
ENDTAB
  0
TABLE
  2
LTYPE
 70
     4
  0
LTYPE
  2
CONTINUOUS
 70
     0
  3
Solid line
 72
    65
 73
     0
 40
0.0
  0
LTYPE
  2
PHANTOM2
 70
     0
  3
Phantom (.5x) ___ _ _ ___ _ _ ___ _ _ ___ _ _
 72
    65
 73
     6
 40
1.25
 49
0.625
 49
-0.125
 49
0.125
 49
-0.125
 49
0.125
 49
-0.125
  0
LTYPE
  2
CENTER
 70
     0
  3
___ _ ___ _ ___ _ ___ _ ___ _ ___ _ ___ _ ___ _
 72
    65
 73
     4
 40
0.95
 49
0.625
 49
-0.125
 49
0.075
 49
-0.125
  0
LTYPE
  2
DASHED2
 70
     0
  3
Dashed (.5x) _ _ _ _ _ _ _ _ _ _ _ _ _ _ _ _ _
 72
    65
 73
     2
 40
0.375
 49
0.25
 49
-0.125
  0
ENDTAB
  0
TABLE
  2
LAYER
 70
     4
  0
LAYER
  2
0
 70
     0
 62
     7
  6
CONTINUOUS
  0
LAYER
  2
DEFPOINTS
 70
     0
 62
     7
  6
CONTINUOUS
  0
LAYER
  2
HIDE
 70
     0
 62
     1
  6
DASHED2
  0
LAYER
  2
CENTER
 70
     0
 62
     3
  6
CENTER
  0
ENDTAB
  0
TABLE
  2
STYLE
 70
     3
  0
STYLE
  2
STANDARD
 70
     0
 40
5.0
 41
1.0
 50
0.0
 71
     0
 42
5.0
  3
txt.shx
  4
whgtxt.shx
  0
STYLE
  2
ANNOTATIVE
 70
     0
 40
0.0
 41
1.0
 50
0.0
 71
     0
 42
0.2
  3
txt
  4

  0
STYLE
  2
BIG
 70
     0
 40
20.0
 41
1.0
 50
0.0
 71
     0
 42
2.5
  3
txt
  4

  0
ENDTAB
  0
TABLE
  2
VIEW
 70
     0
  0
ENDTAB
  0
TABLE
  2
UCS
 70
     0
  0
ENDTAB
  0
TABLE
  2
APPID
 70
    10
  0
APPID
  2
ACAD
 70
     0
  0
APPID
  2
ACADANNOTATIVE
 70
     0
  0
APPID
  2
ACAD_EXEMPT_FROM_CAD_STANDARDS
 70
     0
  0
APPID
  2
ACAD_DSTYLE_DIMJOGGED_JOGA
 70
     0
  0
APPID
  2
ACAD_PSEXT
 70
     0
  0
APPID
  2
ACAECLAYERSTANDARD
 70
     0
  0
APPID
  2
DCO15
 70
     0
  0
APPID
  2
CONTENTBLOCKICON
 70
     0
  0
APPID
  2
ACAD_NAV_VCDISPLAY
 70
     0
  0
APPID
  2
ACAD_MLEADERVER
 70
     0
  0
ENDTAB
  0
TABLE
  2
DIMSTYLE
 70
     3
  0
DIMSTYLE
  2
STANDARD
 70
     0
  3

  4

  5

  6

  7

 40
1.0
 41
0.18
 42
0.0625
 43
0.38
 44
0.18
 45
0.0
 46
0.0
 47
0.0
 48
0.0
140
0.18
141
0.09
142
0.0
143
25.399999999999999
144
1.0
145
0.0
146
1.0
147
0.09
 71
     0
 72
     0
 73
     1
 74
     1
 75
     0
 76
     0
 77
     0
 78
     0
170
     0
171
     2
172
     0
173
     0
174
     0
175
     0
176
     0
177
     0
178
     0
  0
DIMSTYLE
  2
ANNOTATIVE
 70
     0
  3

  4

  5

  6

  7

 40
1.0
 41
0.18
 42
0.0625
 43
0.38
 44
0.18
 45
0.0
 46
0.0
 47
0.0
 48
0.0
140
0.18
141
0.09
142
0.0
143
25.399999999999999
144
1.0
145
0.0
146
1.0
147
0.09
 71
     0
 72
     0
 73
     1
 74
     1
 75
     0
 76
     0
 77
     0
 78
     0
170
     0
171
     2
172
     0
173
     0
174
     0
175
     0
176
     0
177
     0
178
     0
  0
DIMSTYLE
  2
DUKITEC
 70
     0
  3

  4

  5

  6

  7

 40
1.0
 41
3.0
 42
1.0
 43
0.0
 44
1.0
 45
0.0
 46
0.0
 47
0.0
 48
0.0
140
3.0
141
0.0
142
0.0
143
25.399999999999999
144
1.0
145
0.0
146
1.0
147
1.0
 71
     0
 72
     0
 73
     0
 74
     0
 75
     0
 76
     0
 77
     1
 78
     8
170
     0
171
     2
172
     1
173
     0
174
     1
175
     0
176
     5
177
     5
178
     0
  0
ENDTAB
  0
ENDSEC
  0
SECTION
  2
BLOCKS
  0
BLOCK
  8
0
  2
$MODEL_SPACE
 70
     0
 10
0.0
 20
0.0
 30
0.0
  3
$MODEL_SPACE
  1

  0
ENDBLK
  5
14053
  8
0
  0
BLOCK
 67
     1
  8
0
  2
$PAPER_SPACE
 70
     0
 10
0.0
 20
0.0
 30
0.0
  3
$PAPER_SPACE
  1

  0
ENDBLK
  5
1404F
 67
     1
  8
0
  0
BLOCK
  8
0
  2
FF20F
 70
     0
 10
0.0
 20
0.0
 30
0.0
  3
FF20F
  1

  0
CIRCLE
  5
13F24
  8
HIDE
 10
0.0
 20
0.0
 30
0.0
 40
28.500008000000001
  0
ARC
  5
13F25
  8
CENTER
 10
0.0
 20
0.0
 30
0.0
 40
35.0
 50
76.31694600002902
 51
104.1802469999808
  0
ARC
  5
13F26
  8
CENTER
 10
0.0
 20
0.0
 30
0.0
 40
35.0
 50
346.7119959999925
 51
12.912444999991481
  0
ARC
  5
13F27
  8
CENTER
 10
0.0
 20
0.0
 30
0.0
 40
35.0
 50
257.44823199997961
 51
283.26840200000618
  0
CIRCLE
  5
13F28
  8
0
 10
35.0
 20
0.0
 30
0.0
 40
3.299999999999998
  0
CIRCLE
  5
13F29
  8
0
 10
35.0
 20
0.0
 30
0.0
 40
5.5
  0
CIRCLE
  5
13F2A
  8
0
 10
0.0
 20
-35.0
 30
0.0
 40
3.299999999999998
  0
CIRCLE
  5
13F2B
  8
0
 10
0.0
 20
-35.0
 30
0.0
 40
5.5
  0
CIRCLE
  5
13F2C
  8
0
 10
-35.0
 20
0.0
 30
0.0
 40
3.299999999999998
  0
CIRCLE
  5
13F2D
  8
0
 10
-35.0
 20
0.0
 30
0.0
 40
5.5
  0
CIRCLE
  5
13F2E
  8
0
 10
0.0
 20
0.0
 30
0.0
 40
10.0
  0
ARC
  5
13F2F
  8
CENTER
 10
0.0
 20
0.0
 30
0.0
 40
35.0
 50
167.09867599999421
 51
194.10240000001221
  0
ARC
  5
13F30
  8
0
 10
0.0
 20
0.0
 30
0.0
 40
42.5
 50
351.86991999998759
 51
8.1301110000047938
  0
ARC
  5
13F31
  8
0
 10
0.0
 20
0.0
 30
0.0
 40
42.5
 50
261.86991000000131
 51
278.1300699999743
  0
CIRCLE
  5
13F32
  8
0
 10
0.0
 20
35.0
 30
0.0
 40
5.5
  0
CIRCLE
  5
13F33
  8
0
 10
0.0
 20
35.0
 30
0.0
 40
3.299999999999998
  0
ARC
  5
13F34
  8
0
 10
0.0
 20
0.0
 30
0.0
 40
42.5
 50
81.869870999996863
 51
98.130093000013787
  0
ARC
  5
13F35
  8
0
 10
0.0
 20
0.0
 30
0.0
 40
42.5
 50
171.86991000000111
 51
188.13007000000019
  0
LINE
  5
13F36
  8
CENTER
 10
0.0
 20
47.5
 30
0.0
 11
0.0
 21
-47.49998400000004
 31
0.0
  0
LINE
  5
13F37
  8
CENTER
 10
-47.500092000000222
 20
0.0
 30
0.0
 11
47.5
 21
0.0
 31
0.0
  0
LINE
  5
13F38
  8
0
 10
6.0103729999991611
 20
-42.072853000000123
 30
0.0
 11
42.072849000000133
 21
-6.010374999999839
 31
0.0
  0
LINE
  5
13F39
  8
0
 10
-42.072899000000689
 20
6.0104179999998451
 30
0.0
 11
-6.0104320000009448
 21
42.072884000000158
 31
0.0
  0
LINE
  5
13F3A
  8
0
 10
6.0104049999990812
 20
42.072865000000093
 30
0.0
 11
42.072841999999582
 21
6.0104289999999292
 31
0.0
  0
LINE
  5
13F3B
  8
0
 10
-42.072868000001108
 20
-6.0104080000000959
 30
0.0
 11
-6.0104210000008589
 21
-42.072853000000123
 31
0.0
  0
CIRCLE
  5
13F3C
  8
0
 10
0.0
 20
0.0000079999999798
 30
0.0
 40
21.000007999999529
  0
ENDBLK
  5
13F3D
  8
0
  0
BLOCK
  8
0
  2
FF20S
 70
     0
 10
0.0
 20
0.0
 30
0.0
  3
FF20S
  1

  0
LINE
  5
13F40
  8
HIDE
 10
0.0
 20
-29.5
 30
0.0
 11
6.5
 21
-29.5
 31
0.0
  0
LINE
  5
13F41
  8
HIDE
 10
6.5
 20
-31.699999999999829
 30
0.0
 11
11.0
 21
-31.699999999999829
 31
0.0
  0
LINE
  5
13F42
  8
HIDE
 10
6.5
 20
-38.29999899999985
 30
0.0
 11
11.0
 21
-38.29999899999985
 31
0.0
  0
LINE
  5
13F43
  8
HIDE
 10
0.0
 20
-40.499999999999993
 30
0.0
 11
6.5
 21
-40.499999999999993
 31
0.0
  0
LINE
  5
13F44
  8
HIDE
 10
6.5
 20
-29.5
 30
0.0
 11
6.5
 21
-40.499999999999993
 31
0.0
1001
ACAD
1000
ASC_BOUNDS
1002
{
1070
    19
1002
}
  0
LINE
  5
13F45
  8
0
 10
0.0
 20
42.5
 30
0.0
 11
11.0
 21
42.5
 31
0.0
  0
LINE
  5
13F46
  8
0
 10
0.0
 20
-42.5
 30
0.0
 11
11.0
 21
-42.5
 31
0.0
  0
LINE
  5
13F47
  8
HIDE
 10
6.5
 20
40.499999999999993
 30
0.0
 11
6.5
 21
29.5
 31
0.0
1001
ACAD
1000
ASC_BOUNDS
1002
{
1070
    19
1005
0
1005
0
1002
}
  0
LINE
  5
13F48
  8
CENTER
 10
-2.0
 20
-35.0
 30
0.0
 11
13.0
 21
-35.0
 31
0.0
  0
LINE
  5
13F49
  8
HIDE
 10
0.0
 20
29.5
 30
0.0
 11
6.5
 21
29.5
 31
0.0
1001
ACAD
1000
ASC_BOUNDS
1002
{
1070
    19
1005
0
1002
}
  0
LINE
  5
13F4A
  8
0
 10
6.5
 20
31.700001000000171
 30
0.0
 11
11.0
 21
31.700001000000171
 31
0.0
1001
ACAD
1000
ASC_BOUNDS
1002
{
1070
    19
1005
0
1002
}
  0
LINE
  5
13F4B
  8
CENTER
 10
-2.0
 20
35.0
 30
0.0
 11
13.0
 21
35.0
 31
0.0
  0
LINE
  5
13F4C
  8
HIDE
 10
6.5
 20
38.300000000000182
 30
0.0
 11
11.0
 21
38.300000000000182
 31
0.0
1001
ACAD
1000
ASC_BOUNDS
1002
{
1070
    19
1005
0
1002
}
  0
LINE
  5
13F4D
  8
HIDE
 10
0.0
 20
40.499999999999993
 30
0.0
 11
6.5
 21
40.499999999999993
 31
0.0
1001
ACAD
1000
ASC_BOUNDS
1002
{
1070
    19
1005
0
1002
}
  0
LINE
  5
13F4E
  8
0
 10
11.0
 20
6.0104070000002121
 30
0.0
 11
0.0
 21
6.0104070000002121
 31
0.0
  0
LINE
  5
13F4F
  8
CENTER
 10
23.945352126151189
 20
0.0
 30
0.0
 11
-3.6139224487760639
 21
0.0
 31
0.0
  0
LINE
  5
13F50
  8
0
 10
20.0
 20
-28.500007000000089
 30
0.0
 11
11.0
 21
-28.500007000000089
 31
0.0
  0
LINE
  5
13F51
  8
0
 10
20.0
 20
28.5
 30
0.0
 11
11.0
 21
28.5
 31
0.0
  0
LINE
  5
13F52
  8
0
 10
0.0
 20
42.5
 30
0.0
 11
0.0
 21
-42.5
 31
0.0
1001
ACAD
1000
ASC_BOUNDS
1002
{
1070
    19
1005
0
1005
0
1002
}
  0
LINE
  5
13F53
  8
0
 10
20.0
 20
28.50000799999998
 30
0.0
 11
20.0
 21
-28.500007000000089
 31
0.0
  0
LINE
  5
13F54
  8
0
 10
11.0
 20
42.5
 30
0.0
 11
11.0
 21
-42.5
 31
0.0
1001
ACAD
1000
ASC_BOUNDS
1002
{
1070
    19
1005
0
1005
0
1002
}
  0
LINE
  5
13F55
  8
0
 10
19.5
 20
28.50000799999998
 30
0.0
 11
11.5
 21
28.50000799999998
 31
0.0
  0
LINE
  5
13F56
  8
0
 10
11.0
 20
-6.0104059999998753
 30
0.0
 11
0.0
 21
-6.0104059999998753
 31
0.0
  0
CIRCLE
  5
13F57
  8
HIDE
 10
6.0
 20
15.5
 30
0.0
 40
3.299999999999998
  0
CIRCLE
  5
13F58
  8
HIDE
 10
6.0
 20
-15.5
 30
0.0
 40
3.299999999999998
  0
LINE
  5
13F59
  8
HIDE
 10
11.86499999999978
 20
18.5
 30
0.0
 11
11.86499999999978
 21
12.85000000000036
 31
0.0
  0
LINE
  5
13F5A
  8
HIDE
 10
11.86499999999978
 20
12.85000000000036
 30
0.0
 11
11.460000000000941
 21
18.5
 31
0.0
  0
LINE
  5
13F5B
  8
HIDE
 10
12.0
 20
12.85000000000036
 30
0.0
 11
12.0
 21
18.5
 31
0.0
  0
LINE
  5
13F5C
  8
HIDE
 10
11.460000000000941
 20
18.5
 30
0.0
 11
11.460000000000941
 21
12.85000000000036
 31
0.0
  0
LINE
  5
13F5D
  8
HIDE
 10
11.460000000000941
 20
12.85000000000036
 30
0.0
 11
11.86499999999978
 21
18.5
 31
0.0
  0
LINE
  5
13F5E
  8
HIDE
 10
0.0
 20
12.85000000000036
 30
0.0
 11
0.0
 21
18.5
 31
0.0
  0
LINE
  5
13F5F
  8
HIDE
 10
0.5399999999990544
 20
18.5
 30
0.0
 11
0.5399999999990544
 21
12.85000000000036
 31
0.0
  0
LINE
  5
13F60
  8
HIDE
 10
0.1350000000002183
 20
18.5
 30
0.0
 11
0.1350000000002183
 21
12.85000000000036
 31
0.0
  0
LINE
  5
13F61
  8
HIDE
 10
0.1350000000002183
 20
18.5
 30
0.0
 11
0.5399999999990544
 21
12.85000000000036
 31
0.0
  0
LINE
  5
13F62
  8
HIDE
 10
0.1350000000002183
 20
12.85000000000036
 30
0.0
 11
0.5399999999990544
 21
18.5
 31
0.0
  0
LINE
  5
13F63
  8
HIDE
 10
11.460000000000941
 20
12.85000000000036
 30
0.0
 11
12.0
 21
12.85000000000036
 31
0.0
  0
LINE
  5
13F64
  8
HIDE
 10
11.460000000000941
 20
-12.85000000000036
 30
0.0
 11
12.0
 21
-12.85000000000036
 31
0.0
  0
LINE
  5
13F65
  8
HIDE
 10
12.0
 20
-18.5
 30
0.0
 11
11.460000000000941
 21
-18.5
 31
0.0
  0
LINE
  5
13F66
  8
HIDE
 10
11.86499999999978
 20
-18.5
 30
0.0
 11
11.86499999999978
 21
-12.849999999999451
 31
0.0
  0
LINE
  5
13F67
  8
HIDE
 10
11.460000000000941
 20
-18.5
 30
0.0
 11
11.460000000000941
 21
-12.85000000000036
 31
0.0
  0
LINE
  5
13F68
  8
HIDE
 10
11.460000000000941
 20
-12.85000000000036
 30
0.0
 11
11.86499999999978
 21
-18.5
 31
0.0
  0
LINE
  5
13F69
  8
HIDE
 10
11.86499999999978
 20
-12.849999999999451
 30
0.0
 11
11.460000000000941
 21
-18.5
 31
0.0
  0
LINE
  5
13F6A
  8
HIDE
 10
0.1350000000002183
 20
-18.5
 30
0.0
 11
0.1350000000002183
 21
-12.85000000000036
 31
0.0
  0
LINE
  5
13F6B
  8
HIDE
 10
0.1350000000002183
 20
-18.5
 30
0.0
 11
0.5399999999990544
 21
-12.85000000000036
 31
0.0
  0
LINE
  5
13F6C
  8
HIDE
 10
0.1350000000002183
 20
-12.85000000000036
 30
0.0
 11
0.5399999999990544
 21
-18.5
 31
0.0
  0
LINE
  5
13F6D
  8
HIDE
 10
0.0
 20
-12.85000000000036
 30
0.0
 11
0.0
 21
-18.5
 31
0.0
  0
LINE
  5
13F6E
  8
HIDE
 10
0.5399999999990544
 20
-18.5
 30
0.0
 11
0.5399999999990544
 21
-12.85000000000036
 31
0.0
  0
LINE
  5
13F6F
  8
HIDE
 10
0.0
 20
-18.5
 30
0.0
 11
0.5399999999990544
 21
-18.5
 31
0.0
  0
LINE
  5
13F70
  8
HIDE
 10
0.5399999999990544
 20
-12.85000000000036
 30
0.0
 11
0.0
 21
-12.85000000000036
 31
0.0
  0
LINE
  5
13F71
  8
HIDE
 10
0.5399999999990544
 20
12.85000000000036
 30
0.0
 11
0.0
 21
12.85000000000036
 31
0.0
  0
LINE
  5
13F72
  8
HIDE
 10
12.0
 20
-12.85000000000036
 30
0.0
 11
12.0
 21
-18.5
 31
0.0
  0
LINE
  5
13F73
  8
HIDE
 10
12.0
 20
18.5
 30
0.0
 11
11.460000000000941
 21
18.5
 31
0.0
  0
LINE
  5
13F74
  8
HIDE
 10
0.0
 20
18.5
 30
0.0
 11
0.5399999999990544
 21
18.5
 31
0.0
  0
LINE
  5
13F75
  8
HIDE
 10
0.5399999999990544
 20
-17.649999999999629
 30
0.0
 11
3.4965024465764141
 21
-17.649999999999629
 31
0.0
  0
LINE
  5
13F76
  8
HIDE
 10
8.5034975534235855
 20
-17.649999999999629
 30
0.0
 11
11.460000000000941
 21
-17.649999999999629
 31
0.0
  0
LINE
  5
13F77
  8
HIDE
 10
0.6000000000003638
 20
-21.0
 30
0.0
 11
11.399999999999631
 21
-21.0
 31
0.0
  0
ARC
  5
13F78
  8
HIDE
 10
0.6000000000003638
 20
-20.39999999999964
 30
0.0
 40
0.6
 50
180.0
 51
270.0
  0
LINE
  5
13F79
  8
HIDE
 10
0.0
 20
-18.5
 30
0.0
 11
0.0
 21
-20.39999999999964
 31
0.0
  0
ARC
  5
13F7A
  8
HIDE
 10
11.399999999999631
 20
-20.39999999999964
 30
0.0
 40
0.6000000000000015
 50
270.0
 51
0.0
  0
LINE
  5
13F7B
  8
HIDE
 10
12.0
 20
-20.39999999999964
 30
0.0
 11
12.0
 21
-18.5
 31
0.0
  0
ARC
  5
13F7C
  8
HIDE
 10
0.6000000000003638
 20
10.60000000000036
 30
0.0
 40
0.6
 50
180.0
 51
270.0
  0
ARC
  5
13F7D
  8
HIDE
 10
11.399999999999631
 20
10.60000000000036
 30
0.0
 40
0.5999999999999996
 50
270.0
 51
0.0
  0
LINE
  5
13F7E
  8
HIDE
 10
12.0
 20
10.60000000000036
 30
0.0
 11
12.0
 21
0.0
 31
0.0
  0
LINE
  5
13F7F
  8
HIDE
 10
0.0
 20
0.0
 30
0.0
 11
0.0
 21
10.60000000000036
 31
0.0
  0
LINE
  5
13F80
  8
HIDE
 10
0.5399999999990544
 20
-13.5
 30
0.0
 11
3.375119050318971
 21
-13.5
 31
0.0
  0
LINE
  5
13F81
  8
HIDE
 10
8.6248809496810264
 20
-13.5
 30
0.0
 11
11.460000000000941
 21
-13.5
 31
0.0
  0
LINE
  5
13F82
  8
HIDE
 10
0.6000000000003638
 20
-10.0
 30
0.0
 11
11.399999999999631
 21
-10.0
 31
0.0
  0
LINE
  5
13F83
  8
HIDE
 10
0.0
 20
0.0
 30
0.0
 11
0.0
 21
-10.60000000000036
 31
0.0
  0
ARC
  5
13F84
  8
HIDE
 10
0.6000000000003638
 20
-10.60000000000036
 30
0.0
 40
0.5999999999999996
 50
90.0
 51
180.0
  0
LINE
  5
13F85
  8
HIDE
 10
0.0
 20
-10.60000000000036
 30
0.0
 11
0.0
 21
-12.85000000000036
 31
0.0
  0
LINE
  5
13F86
  8
HIDE
 10
12.0
 20
-10.60000000000036
 30
0.0
 11
12.0
 21
0.0
 31
0.0
  0
ARC
  5
13F87
  8
HIDE
 10
11.399999999999631
 20
-10.60000000000036
 30
0.0
 40
0.5999999999999996
 50
0.0
 51
90.0
  0
LINE
  5
13F88
  8
HIDE
 10
12.0
 20
-12.85000000000036
 30
0.0
 11
12.0
 21
-10.60000000000036
 31
0.0
  0
LINE
  5
13F89
  8
HIDE
 10
0.6000000000003638
 20
10.0
 30
0.0
 11
11.399999999999631
 21
10.0
 31
0.0
  0
LINE
  5
13F8A
  8
HIDE
 10
0.5399999999990544
 20
13.5
 30
0.0
 11
3.375119050318971
 21
13.5
 31
0.0
  0
LINE
  5
13F8B
  8
HIDE
 10
8.6248809496810264
 20
13.5
 30
0.0
 11
11.460000000000941
 21
13.5
 31
0.0
  0
LINE
  5
13F8C
  8
HIDE
 10
0.5399999999990544
 20
17.649999999999629
 30
0.0
 11
3.4965024465764141
 21
17.649999999999629
 31
0.0
  0
LINE
  5
13F8D
  8
HIDE
 10
8.5034975534235855
 20
17.649999999999629
 30
0.0
 11
11.460000000000941
 21
17.649999999999629
 31
0.0
  0
LINE
  5
13F8E
  8
HIDE
 10
0.6000000000003638
 20
21.0
 30
0.0
 11
11.399999999999631
 21
21.0
 31
0.0
  0
ARC
  5
13F8F
  8
HIDE
 10
0.6000000000003638
 20
20.39999999999964
 30
0.0
 40
0.6000000000000015
 50
90.0
 51
180.0
  0
LINE
  5
13F90
  8
HIDE
 10
0.0
 20
10.60000000000036
 30
0.0
 11
0.0
 21
12.85000000000036
 31
0.0
  0
LINE
  5
13F91
  8
HIDE
 10
0.0
 20
18.5
 30
0.0
 11
0.0
 21
20.39999999999964
 31
0.0
  0
ARC
  5
13F92
  8
HIDE
 10
11.399999999999631
 20
20.39999999999964
 30
0.0
 40
0.5999999999999996
 50
0.0
 51
90.0
  0
LINE
  5
13F93
  8
HIDE
 10
12.0
 20
12.85000000000036
 30
0.0
 11
12.0
 21
10.60000000000036
 31
0.0
  0
LINE
  5
13F94
  8
HIDE
 10
12.0
 20
20.39999999999964
 30
0.0
 11
12.0
 21
18.5
 31
0.0
  0
LINE
  5
13F95
  8
HIDE
 10
0.0000000000009095
 20
20.999999999999549
 30
0.0
 11
20.0
 21
20.999999999999549
 31
0.0
  0
LINE
  5
13F96
  8
HIDE
 10
0.0000000000009095
 20
-20.999999999999549
 30
0.0
 11
20.0
 21
-20.999999999999549
 31
0.0
  0
ENDBLK
  5
13F97
  8
0
  0
BLOCK
  8
0
  2
*D4
 70
     1
 10
0.0
 20
0.0
 30
0.0
  3
*D4
  1

  0
LINE
  5
14073
  8
0
 62
     5
 10
2182.5023989485121
 20
1625.824240086805
 30
0.0
 11
2182.5023989485121
 21
1587.2372134503989
 31
0.0
  0
LINE
  5
14074
  8
0
 62
     5
 10
2170.5023989485121
 20
1625.824240086805
 30
0.0
 11
2170.5023989485121
 21
1587.2372134503989
 31
0.0
  0
LINE
  5
14075
  8
0
 62
     5
 10
2179.502398948513
 20
1588.2372134503989
 30
0.0
 11
2173.5023989485121
 21
1588.2372134503989
 31
0.0
  0
SOLID
  5
14076
  8
0
 62
     5
 10
2179.502398948513
 20
1588.7372134503989
 30
0.0
 11
2179.502398948513
 21
1587.7372134503989
 31
0.0
 12
2182.5023989485121
 22
1588.2372134503989
 32
0.0
 13
2182.5023989485121
 23
1588.2372134503989
 33
0.0
  0
SOLID
  5
14077
  8
0
 62
     5
 10
2173.5023989485121
 20
1588.7372134503989
 30
0.0
 11
2173.5023989485121
 21
1587.7372134503989
 31
0.0
 12
2170.5023989485121
 22
1588.2372134503989
 32
0.0
 13
2170.5023989485121
 23
1588.2372134503989
 33
0.0
  0
INSERT
  5
14078
  8
0
  2
*U5
 10
0.0
 20
0.0
 30
0.0
  0
POINT
  5
14079
  8
DEFPOINTS
 62
     0
 10
2182.5023989485121
 20
1626.824240086805
 30
0.0
  0
POINT
  5
1407A
  8
DEFPOINTS
 62
     0
 10
2170.5023989485121
 20
1626.824240086805
 30
0.0
  0
POINT
  5
1407B
  8
DEFPOINTS
 62
     0
 10
2170.5023989485121
 20
1588.2372134503989
 30
0.0
  0
ENDBLK
  5
14072
  8
0
  0
BLOCK
  8
0
  2
*U5
 70
     1
 10
0.0
 20
0.0
 30
0.0
  3
*U5
  1

  0
TEXT
  5
1412D
  8
0
 62
     0
 10
2173.1690656151791
 20
1589.2372134503989
 30
0.0
 40
5.0
  1
12
  0
ENDBLK
  5
1412F
  8
0
  0
ENDSEC
  0
SECTION
  2
ENTITIES
  0
POLYLINE
  5
13E1C
  8
0
 66
     1
 10
0.0
 20
0.0
 30
0.0
 70
     1
  0
VERTEX
  5
140EA
  8
0
 10
1903.0405749290021
 20
1433.173578249188
 30
0.0
  0
VERTEX
  5
140EB
  8
0
 10
1903.0405749290021
 20
1748.173578249188
 30
0.0
  0
VERTEX
  5
140EC
  8
0
 10
2348.540574929003
 20
1748.173578249188
 30
0.0
  0
VERTEX
  5
140ED
  8
0
 10
2348.540574929003
 20
1433.173578249188
 30
0.0
  0
VERTEX
  5
140EE
  8
0
 10
1903.0405749290021
 20
1433.173578249188
 30
0.0
  0
SEQEND
  5
140EF
  8
0
  0
TEXT
  5
13FA5
  8
0
 10
2093.4058970986239
 20
1499.334272683001
 30
0.0
 40
20.0
  1
FF 20
  7
BIG
  0
INSERT
  5
13FA6
  8
0
  2
FF20F
 10
2094.8223909485118
 20
1647.2242400868049
 30
0.0
  0
LINE
  5
1407C
  8
HIDE
 10
2170.5023989485121
 20
1617.7242400868049
 30
0.0
 11
2177.0023989485121
 21
1617.7242400868049
 31
0.0
  0
LINE
  5
1407D
  8
HIDE
 10
2177.0023989485121
 20
1615.5242400868051
 30
0.0
 11
2181.5023989485121
 21
1615.5242400868051
 31
0.0
  0
LINE
  5
1407E
  8
HIDE
 10
2177.0023989485121
 20
1608.9242410868051
 30
0.0
 11
2181.5023989485121
 21
1608.9242410868051
 31
0.0
  0
LINE
  5
1407F
  8
HIDE
 10
2170.5023989485121
 20
1606.7242400868049
 30
0.0
 11
2177.0023989485121
 21
1606.7242400868049
 31
0.0
  0
LINE
  5
14080
  8
HIDE
 10
2177.0023989485121
 20
1617.7242400868049
 30
0.0
 11
2177.0023989485121
 21
1606.7242400868049
 31
0.0
1001
ACAD
1000
ASC_BOUNDS
1002
{
1070
    19
1002
}
  0
LINE
  5
14081
  8
0
 10
2170.5023989485121
 20
1689.7242400868049
 30
0.0
 11
2181.5023989485121
 21
1689.7242400868049
 31
0.0
  0
LINE
  5
14082
  8
0
 10
2170.5023989485121
 20
1604.7242400868049
 30
0.0
 11
2181.5023989485121
 21
1604.7242400868049
 31
0.0
  0
LINE
  5
14083
  8
HIDE
 10
2177.0023989485121
 20
1687.7242400868049
 30
0.0
 11
2177.0023989485121
 21
1676.7242400868049
 31
0.0
1001
ACAD
1000
ASC_BOUNDS
1002
{
1070
    19
1005
0
1005
0
1002
}
  0
LINE
  5
14084
  8
CENTER
 10
2168.5023989485121
 20
1612.2242400868049
 30
0.0
 11
2183.5023989485121
 21
1612.2242400868049
 31
0.0
  0
LINE
  5
14085
  8
HIDE
 10
2170.5023989485121
 20
1676.7242400868049
 30
0.0
 11
2177.0023989485121
 21
1676.7242400868049
 31
0.0
1001
ACAD
1000
ASC_BOUNDS
1002
{
1070
    19
1005
0
1002
}
  0
LINE
  5
14086
  8
0
 10
2177.0023989485121
 20
1678.9242410868051
 30
0.0
 11
2181.5023989485121
 21
1678.9242410868051
 31
0.0
1001
ACAD
1000
ASC_BOUNDS
1002
{
1070
    19
1005
0
1002
}
  0
LINE
  5
14087
  8
CENTER
 10
2168.5023989485121
 20
1682.2242400868049
 30
0.0
 11
2183.5023989485121
 21
1682.2242400868049
 31
0.0
  0
LINE
  5
14088
  8
HIDE
 10
2177.0023989485121
 20
1685.5242400868051
 30
0.0
 11
2181.5023989485121
 21
1685.5242400868051
 31
0.0
1001
ACAD
1000
ASC_BOUNDS
1002
{
1070
    19
1005
0
1002
}
  0
LINE
  5
14089
  8
HIDE
 10
2170.5023989485121
 20
1687.7242400868049
 30
0.0
 11
2177.0023989485121
 21
1687.7242400868049
 31
0.0
1001
ACAD
1000
ASC_BOUNDS
1002
{
1070
    19
1005
0
1002
}
  0
LINE
  5
1408A
  8
0
 10
2181.5023989485121
 20
1653.2346470868049
 30
0.0
 11
2170.5023989485121
 21
1653.2346470868049
 31
0.0
  0
LINE
  5
1408B
  8
CENTER
 10
2194.4477510746642
 20
1647.2242400868049
 30
0.0
 11
2166.888476499736
 21
1647.2242400868049
 31
0.0
  0
LINE
  5
1408C
  8
0
 10
2190.5023989485121
 20
1618.724233086805
 30
0.0
 11
2181.5023989485121
 21
1618.724233086805
 31
0.0
  0
LINE
  5
1408D
  8
0
 10
2190.5023989485121
 20
1675.7242400868049
 30
0.0
 11
2181.5023989485121
 21
1675.7242400868049
 31
0.0
  0
LINE
  5
1408E
  8
0
 10
2170.5023989485121
 20
1689.7242400868049
 30
0.0
 11
2170.5023989485121
 21
1604.7242400868049
 31
0.0
1001
ACAD
1000
ASC_BOUNDS
1002
{
1070
    19
1005
0
1005
0
1002
}
  0
LINE
  5
1408F
  8
0
 10
2190.5023989485121
 20
1675.7242480868049
 30
0.0
 11
2190.5023989485121
 21
1618.724233086805
 31
0.0
  0
LINE
  5
14090
  8
0
 10
2181.5023989485121
 20
1689.7242400868049
 30
0.0
 11
2181.5023989485121
 21
1604.7242400868049
 31
0.0
1001
ACAD
1000
ASC_BOUNDS
1002
{
1070
    19
1005
0
1005
0
1002
}
  0
LINE
  5
14091
  8
0
 10
2190.0023989485121
 20
1675.7242480868049
 30
0.0
 11
2182.0023989485121
 21
1675.7242480868049
 31
0.0
  0
LINE
  5
14092
  8
0
 10
2181.5023989485121
 20
1641.213834086805
 30
0.0
 11
2170.5023989485121
 21
1641.213834086805
 31
0.0
  0
CIRCLE
  5
14093
  8
HIDE
 10
2177.5023989485121
 20
1662.7242400868049
 30
0.0
 40
3.299999999999998
  0
CIRCLE
  5
14094
  8
HIDE
 10
2177.5023989485121
 20
1631.7242400868049
 30
0.0
 40
3.299999999999998
  0
LINE
  5
14095
  8
HIDE
 10
2184.3673989485119
 20
1665.7242400868049
 30
0.0
 11
2184.3673989485119
 21
1660.074240086805
 31
0.0
  0
LINE
  5
14096
  8
HIDE
 10
2184.3673989485119
 20
1660.074240086805
 30
0.0
 11
2183.9623989485131
 21
1665.7242400868049
 31
0.0
  0
LINE
  5
14097
  8
HIDE
 10
2184.5023989485121
 20
1660.074240086805
 30
0.0
 11
2184.5023989485121
 21
1665.7242400868049
 31
0.0
  0
LINE
  5
14098
  8
HIDE
 10
2183.9623989485131
 20
1665.7242400868049
 30
0.0
 11
2183.9623989485131
 21
1660.074240086805
 31
0.0
  0
LINE
  5
14099
  8
HIDE
 10
2183.9623989485131
 20
1660.074240086805
 30
0.0
 11
2184.3673989485119
 21
1665.7242400868049
 31
0.0
  0
LINE
  5
1409A
  8
HIDE
 10
2170.5023989485121
 20
1660.074240086805
 30
0.0
 11
2170.5023989485121
 21
1665.7242400868049
 31
0.0
  0
LINE
  5
1409B
  8
HIDE
 10
2171.0423989485112
 20
1665.7242400868049
 30
0.0
 11
2171.0423989485112
 21
1660.074240086805
 31
0.0
  0
LINE
  5
1409C
  8
HIDE
 10
2170.6373989485119
 20
1665.7242400868049
 30
0.0
 11
2170.6373989485119
 21
1660.074240086805
 31
0.0
  0
LINE
  5
1409D
  8
HIDE
 10
2170.6373989485119
 20
1665.7242400868049
 30
0.0
 11
2171.0423989485112
 21
1660.074240086805
 31
0.0
  0
LINE
  5
1409E
  8
HIDE
 10
2170.6373989485119
 20
1660.074240086805
 30
0.0
 11
2171.0423989485112
 21
1665.7242400868049
 31
0.0
  0
LINE
  5
1409F
  8
HIDE
 10
2183.9623989485131
 20
1660.074240086805
 30
0.0
 11
2184.5023989485121
 21
1660.074240086805
 31
0.0
  0
LINE
  5
140A0
  8
HIDE
 10
2183.9623989485131
 20
1634.3742400868041
 30
0.0
 11
2184.5023989485121
 21
1634.3742400868041
 31
0.0
  0
LINE
  5
140A1
  8
HIDE
 10
2184.5023989485121
 20
1628.7242400868049
 30
0.0
 11
2183.9623989485131
 21
1628.7242400868049
 31
0.0
  0
LINE
  5
140A2
  8
HIDE
 10
2184.3673989485119
 20
1628.7242400868049
 30
0.0
 11
2184.3673989485119
 21
1634.374240086805
 31
0.0
  0
LINE
  5
140A3
  8
HIDE
 10
2183.9623989485131
 20
1628.7242400868049
 30
0.0
 11
2183.9623989485131
 21
1634.3742400868041
 31
0.0
  0
LINE
  5
140A4
  8
HIDE
 10
2183.9623989485131
 20
1634.3742400868041
 30
0.0
 11
2184.3673989485119
 21
1628.7242400868049
 31
0.0
  0
LINE
  5
140A5
  8
HIDE
 10
2184.3673989485119
 20
1634.374240086805
 30
0.0
 11
2183.9623989485131
 21
1628.7242400868049
 31
0.0
  0
LINE
  5
140A6
  8
HIDE
 10
2170.6373989485119
 20
1628.7242400868049
 30
0.0
 11
2170.6373989485119
 21
1634.3742400868041
 31
0.0
  0
LINE
  5
140A7
  8
HIDE
 10
2170.6373989485119
 20
1628.7242400868049
 30
0.0
 11
2171.0423989485112
 21
1634.3742400868041
 31
0.0
  0
LINE
  5
140A8
  8
HIDE
 10
2170.6373989485119
 20
1634.3742400868041
 30
0.0
 11
2171.0423989485112
 21
1628.7242400868049
 31
0.0
  0
LINE
  5
140A9
  8
HIDE
 10
2170.5023989485121
 20
1634.3742400868041
 30
0.0
 11
2170.5023989485121
 21
1628.7242400868049
 31
0.0
  0
LINE
  5
140AA
  8
HIDE
 10
2171.0423989485112
 20
1628.7242400868049
 30
0.0
 11
2171.0423989485112
 21
1634.3742400868041
 31
0.0
  0
LINE
  5
140AB
  8
HIDE
 10
2170.5023989485121
 20
1628.7242400868049
 30
0.0
 11
2171.0423989485112
 21
1628.7242400868049
 31
0.0
  0
LINE
  5
140AC
  8
HIDE
 10
2171.0423989485112
 20
1634.3742400868041
 30
0.0
 11
2170.5023989485121
 21
1634.3742400868041
 31
0.0
  0
LINE
  5
140AD
  8
HIDE
 10
2171.0423989485112
 20
1660.074240086805
 30
0.0
 11
2170.5023989485121
 21
1660.074240086805
 31
0.0
  0
LINE
  5
140AE
  8
HIDE
 10
2184.5023989485121
 20
1634.3742400868041
 30
0.0
 11
2184.5023989485121
 21
1628.7242400868049
 31
0.0
  0
LINE
  5
140AF
  8
HIDE
 10
2184.5023989485121
 20
1665.7242400868049
 30
0.0
 11
2183.9623989485131
 21
1665.7242400868049
 31
0.0
  0
LINE
  5
140B0
  8
HIDE
 10
2170.5023989485121
 20
1665.7242400868049
 30
0.0
 11
2171.0423989485112
 21
1665.7242400868049
 31
0.0
  0
LINE
  5
140B1
  8
HIDE
 10
2171.0423989485112
 20
1629.574240086805
 30
0.0
 11
2174.9989013950881
 21
1629.574240086805
 31
0.0
  0
LINE
  5
140B2
  8
HIDE
 10
2180.0058965019361
 20
1629.574240086805
 30
0.0
 11
2183.962398948514
 21
1629.574240086805
 31
0.0
  0
LINE
  5
140B3
  8
HIDE
 10
2171.102398948512
 20
1626.2242400868049
 30
0.0
 11
2181.9023989485122
 21
1626.2242400868049
 31
0.0
  0
ARC
  5
140B4
  8
HIDE
 10
2171.102398948512
 20
1626.824240086805
 30
0.0
 40
0.6
 50
180.0
 51
270.0
  0
LINE
  5
140B5
  8
HIDE
 10
2170.5023989485121
 20
1628.7242400868049
 30
0.0
 11
2170.5023989485121
 21
1626.824240086805
 31
0.0
  0
ARC
  5
140B6
  8
HIDE
 10
2183.9023989485122
 20
1626.824240086805
 30
0.0
 40
0.6000000000000015
 50
270.0
 51
0.0
  0
LINE
  5
140B7
  8
HIDE
 10
2184.5023989485121
 20
1626.824240086805
 30
0.0
 11
2184.5023989485121
 21
1628.7242400868049
 31
0.0
  0
ARC
  5
140B8
  8
HIDE
 10
2171.102398948512
 20
1657.824240086805
 30
0.0
 40
0.6
 50
180.0
 51
270.0
  0
ARC
  5
140B9
  8
HIDE
 10
2183.9023989485122
 20
1657.824240086805
 30
0.0
 40
0.5999999999999996
 50
270.0
 51
0.0
  0
LINE
  5
140BA
  8
HIDE
 10
2184.5023989485121
 20
1657.824240086805
 30
0.0
 11
2184.5023989485121
 21
1647.2242400868049
 31
0.0
  0
LINE
  5
140BB
  8
HIDE
 10
2170.5023989485121
 20
1647.2242400868049
 30
0.0
 11
2170.5023989485121
 21
1657.824240086805
 31
0.0
  0
LINE
  5
140BC
  8
HIDE
 10
2171.0423989485112
 20
1633.7242400868049
 30
0.0
 11
2174.8775179988311
 21
1633.7242400868049
 31
0.0
  0
LINE
  5
140BD
  8
HIDE
 10
2180.1272798981931
 20
1633.7242400868049
 30
0.0
 11
2183.962398948514
 21
1633.7242400868049
 31
0.0
  0
LINE
  5
140BE
  8
HIDE
 10
2171.102398948512
 20
1637.2242400868049
 30
0.0
 11
2181.9023989485122
 21
1637.2242400868049
 31
0.0
  0
LINE
  5
140BF
  8
HIDE
 10
2170.5023989485121
 20
1647.2242400868049
 30
0.0
 11
2170.5023989485121
 21
1636.6242400868041
 31
0.0
  0
ARC
  5
140C0
  8
HIDE
 10
2171.102398948512
 20
1636.6242400868041
 30
0.0
 40
0.5999999999999996
 50
90.0
 51
180.0
  0
LINE
  5
140C1
  8
HIDE
 10
2170.5023989485121
 20
1636.6242400868041
 30
0.0
 11
2170.5023989485121
 21
1634.3742400868041
 31
0.0
  0
LINE
  5
140C2
  8
HIDE
 10
2184.5023989485121
 20
1636.6242400868041
 30
0.0
 11
2184.5023989485121
 21
1647.2242400868049
 31
0.0
  0
ARC
  5
140C3
  8
HIDE
 10
2183.9023989485122
 20
1636.6242400868041
 30
0.0
 40
0.5999999999999996
 50
0.0
 51
90.0
  0
LINE
  5
140C4
  8
HIDE
 10
2184.5023989485121
 20
1634.3742400868041
 30
0.0
 11
2184.5023989485121
 21
1636.6242400868041
 31
0.0
  0
LINE
  5
140C5
  8
HIDE
 10
2171.102398948512
 20
1657.2242400868049
 30
0.0
 11
2181.9023989485122
 21
1657.2242400868049
 31
0.0
  0
LINE
  5
140C6
  8
HIDE
 10
2171.0423989485112
 20
1660.7242400868049
 30
0.0
 11
2174.8775179988311
 21
1660.7242400868049
 31
0.0
  0
LINE
  5
140C7
  8
HIDE
 10
2180.1272798981931
 20
1660.7242400868049
 30
0.0
 11
2183.962398948514
 21
1660.724240086804
 31
0.0
  0
LINE
  5
140C8
  8
HIDE
 10
2171.0423989485112
 20
1664.8742400868041
 30
0.0
 11
2174.9989013950881
 21
1664.8742400868041
 31
0.0
  0
LINE
  5
140C9
  8
HIDE
 10
2180.0058965019361
 20
1664.8742400868041
 30
0.0
 11
2183.962398948514
 21
1664.8742400868041
 31
0.0
  0
LINE
  5
140CA
  8
HIDE
 10
2171.102398948512
 20
1668.2242400868049
 30
0.0
 11
2181.9023989485122
 21
1668.2242400868049
 31
0.0
  0
ARC
  5
140CB
  8
HIDE
 10
2171.102398948512
 20
1667.6242400868041
 30
0.0
 40
0.6000000000000015
 50
90.0
 51
180.0
  0
LINE
  5
140CC
  8
HIDE
 10
2170.5023989485121
 20
1657.824240086805
 30
0.0
 11
2170.5023989485121
 21
1660.074240086805
 31
0.0
  0
LINE
  5
140CD
  8
HIDE
 10
2170.5023989485121
 20
1665.7242400868049
 30
0.0
 11
2170.5023989485121
 21
1667.6242400868041
 31
0.0
  0
ARC
  5
140CE
  8
HIDE
 10
2183.9023989485122
 20
1667.6242400868041
 30
0.0
 40
0.5999999999999996
 50
0.0
 51
90.0
  0
LINE
  5
140CF
  8
HIDE
 10
2184.5023989485121
 20
1660.074240086805
 30
0.0
 11
2184.5023989485121
 21
1657.824240086805
 31
0.0
  0
LINE
  5
140D0
  8
HIDE
 10
2184.5023989485121
 20
1667.6242400868041
 30
0.0
 11
2184.5023989485121
 21
1665.7242400868049
 31
0.0
  0
LINE
  5
140D1
  8
HIDE
 10
2170.502398948513
 20
1668.224240086804
 30
0.0
 11
2190.5023989485121
 21
1668.224240086804
 31
0.0
  0
LINE
  5
140D2
  8
HIDE
 10
2170.502398948513
 20
1626.2242400868049
 30
0.0
 11
2190.5023989485121
 21
1626.2242400868049
 31
0.0
  0
ENDSEC
  0
EOF
