  0
SECTION
  2
HEADER
  9
$ACADVER
  1
AC1009
  9
$INSBASE
 10
0.0
 20
0.0
 30
0.0
  9
$EXTMIN
 10
1903.0405749290021
 20
1433.173578249188
 30
0.0
  9
$EXTMAX
 10
2348.540574929003
 20
1748.173578249188
 30
0.0
  9
$LIMMIN
 10
0.0
 20
0.0
  9
$LIMMAX
 10
12.0
 20
9.0
  9
$ORTHOMODE
 70
     0
  9
$REGENMODE
 70
     1
  9
$FILLMODE
 70
     1
  9
$QTEXTMODE
 70
     0
  9
$MIRRTEXT
 70
     0
  9
$DRAGMODE
 70
     2
  9
$LTSCALE
 40
5.0
  9
$OSMODE
 70
  2477
  9
$ATTMODE
 70
     1
  9
$TEXTSIZE
 40
2.5
  9
$TRACEWID
 40
0.05
  9
$TEXTSTYLE
  7
BIG
  9
$CLAYER
  8
0
  9
$CELTYPE
  6
BYLAYER
  9
$CECOLOR
 62
   256
  9
$DIMSCALE
 40
1.0
  9
$DIMASZ
 40
3.0
  9
$DIMEXO
 40
1.0
  9
$DIMDLI
 40
0.0
  9
$DIMRND
 40
0.0
  9
$DIMDLE
 40
0.0
  9
$DIMEXE
 40
1.0
  9
$DIMTP
 40
0.0
  9
$DIMTM
 40
0.0
  9
$DIMTXT
 40
3.0
  9
$DIMCEN
 40
0.0
  9
$DIMTSZ
 40
0.0
  9
$DIMTOL
 70
     0
  9
$DIMLIM
 70
     0
  9
$DIMTIH
 70
     0
  9
$DIMTOH
 70
     0
  9
$DIMSE1
 70
     0
  9
$DIMSE2
 70
     0
  9
$DIMTAD
 70
     1
  9
$DIMZIN
 70
     8
  9
$DIMBLK
  1

  9
$DIMASO
 70
     1
  9
$DIMSHO
 70
     1
  9
$DIMPOST
  1

  9
$DIMAPOST
  1

  9
$DIMALT
 70
     0
  9
$DIMALTD
 70
     2
  9
$DIMALTF
 40
25.399999999999999
  9
$DIMLFAC
 40
1.0
  9
$DIMTOFL
 70
     1
  9
$DIMTVP
 40
0.0
  9
$DIMTIX
 70
     1
  9
$DIMSOXD
 70
     0
  9
$DIMSAH
 70
     0
  9
$DIMBLK1
  1

  9
$DIMBLK2
  1

  9
$DIMSTYLE
  2
DUKITEC
  9
$DIMCLRD
 70
     5
  9
$DIMCLRE
 70
     5
  9
$DIMCLRT
 70
     0
  9
$DIMTFAC
 40
1.0
  9
$DIMGAP
 40
1.0
  9
$LUNITS
 70
     2
  9
$LUPREC
 70
     4
  9
$SKETCHINC
 40
0.1
  9
$FILLETRAD
 40
0.2
  9
$AUNITS
 70
     0
  9
$AUPREC
 70
     0
  9
$MENU
  1
.
  9
$ELEVATION
 40
0.0
  9
$PELEVATION
 40
0.0
  9
$THICKNESS
 40
0.0
  9
$LIMCHECK
 70
     0
  9
$BLIPMODE
 70
     0
  9
$CHAMFERA
 40
0.5
  9
$CHAMFERB
 40
0.5
  9
$SKPOLY
 70
     0
  9
$TDCREATE
 40
2454396.7400540621
  9
$TDUPDATE
 40
2454396.7402980318
  9
$TDINDWG
 40
0.0002448727
  9
$TDUSRTIMER
 40
0.0002448727
  9
$USRTIMER
 70
     1
  9
$ANGBASE
 50
0.0
  9
$ANGDIR
 70
     0
  9
$PDMODE
 70
     0
  9
$PDSIZE
 40
0.0
  9
$PLINEWID
 40
0.0
  9
$COORDS
 70
     1
  9
$SPLFRAME
 70
     0
  9
$SPLINETYPE
 70
     6
  9
$SPLINESEGS
 70
     8
  9
$ATTDIA
 70
     0
  9
$ATTREQ
 70
     1
  9
$HANDLING
 70
     1
  9
$HANDSEED
  5
13FDD
  9
$SURFTAB1
 70
     6
  9
$SURFTAB2
 70
     6
  9
$SURFTYPE
 70
     6
  9
$SURFU
 70
     6
  9
$SURFV
 70
     6
  9
$UCSNAME
  2

  9
$UCSORG
 10
0.0
 20
0.0
 30
0.0
  9
$UCSXDIR
 10
1.0
 20
0.0
 30
0.0
  9
$UCSYDIR
 10
0.0
 20
1.0
 30
0.0
  9
$PUCSNAME
  2

  9
$PUCSORG
 10
0.0
 20
0.0
 30
0.0
  9
$PUCSXDIR
 10
1.0
 20
0.0
 30
0.0
  9
$PUCSYDIR
 10
0.0
 20
1.0
 30
0.0
  9
$USERI1
 70
     0
  9
$USERI2
 70
     0
  9
$USERI3
 70
     0
  9
$USERI4
 70
     0
  9
$USERI5
 70
     0
  9
$USERR1
 40
0.0
  9
$USERR2
 40
0.0
  9
$USERR3
 40
0.0
  9
$USERR4
 40
0.0
  9
$USERR5
 40
0.0
  9
$WORLDVIEW
 70
     1
  9
$SHADEDGE
 70
     3
  9
$SHADEDIF
 70
    70
  9
$TILEMODE
 70
     1
  9
$MAXACTVP
 70
    64
  9
$PLIMCHECK
 70
     0
  9
$PEXTMIN
 10
0.0
 20
0.0
 30
0.0
  9
$PEXTMAX
 10
0.0
 20
0.0
 30
0.0
  9
$PLIMMIN
 10
0.0
 20
0.0
  9
$PLIMMAX
 10
12.0
 20
9.0
  9
$UNITMODE
 70
     0
  9
$VISRETAIN
 70
     1
  9
$PLINEGEN
 70
     0
  9
$PSLTSCALE
 70
     1
  0
ENDSEC
  0
SECTION
  2
TABLES
  0
TABLE
  2
VPORT
 70
     1
  0
VPORT
  2
*ACTIVE
 70
     0
 10
0.0
 20
0.0
 11
1.0
 21
1.0
 12
2125.9971726187791
 22
1583.7283962219731
 13
0.0
 23
0.0
 14
0.5
 24
0.5
 15
0.5
 25
0.5
 16
0.0
 26
0.0
 36
1.0
 17
0.0
 27
0.0
 37
0.0
 40
402.7851270302956
 41
1.617936117936118
 42
50.0
 43
0.0
 44
0.0
 50
0.0
 51
0.0
 71
     0
 72
  2000
 73
     1
 74
     3
 75
     0
 76
     0
 77
     0
 78
     0
  0
ENDTAB
  0
TABLE
  2
LTYPE
 70
     3
  0
LTYPE
  2
CONTINUOUS
 70
     0
  3
Solid line
 72
    65
 73
     0
 40
0.0
  0
LTYPE
  2
CENTER
 70
     0
  3
___ _ ___ _ ___ _ ___ _ ___ _ ___ _ ___ _ ___ _
 72
    65
 73
     4
 40
0.95
 49
0.625
 49
-0.125
 49
0.075
 49
-0.125
  0
LTYPE
  2
DASHED2
 70
     0
  3
Dashed (.5x) _ _ _ _ _ _ _ _ _ _ _ _ _ _ _ _ _
 72
    65
 73
     2
 40
0.375
 49
0.25
 49
-0.125
  0
ENDTAB
  0
TABLE
  2
LAYER
 70
     4
  0
LAYER
  2
0
 70
     0
 62
     7
  6
CONTINUOUS
  0
LAYER
  2
DEFPOINTS
 70
     0
 62
     7
  6
CONTINUOUS
  0
LAYER
  2
HIDE
 70
     0
 62
     1
  6
DASHED2
  0
LAYER
  2
CENTER
 70
     0
 62
     3
  6
CENTER
  0
ENDTAB
  0
TABLE
  2
STYLE
 70
     2
  0
STYLE
  2
STANDARD
 70
     0
 40
5.0
 41
1.0
 50
0.0
 71
     0
 42
5.0
  3
txt.shx
  4
whgtxt.shx
  0
STYLE
  2
BIG
 70
     0
 40
20.0
 41
1.0
 50
0.0
 71
     0
 42
2.5
  3
txt
  4

  0
ENDTAB
  0
TABLE
  2
VIEW
 70
     0
  0
ENDTAB
  0
TABLE
  2
UCS
 70
     0
  0
ENDTAB
  0
TABLE
  2
APPID
 70
     7
  0
APPID
  2
ACAD
 70
     0
  0
APPID
  2
ACAD_EXEMPT_FROM_CAD_STANDARDS
 70
     0
  0
APPID
  2
ACAD_DSTYLE_DIMJOGGED_JOGA
 70
     0
  0
APPID
  2
ACAD_PSEXT
 70
     0
  0
APPID
  2
ACAECLAYERSTANDARD
 70
     0
  0
APPID
  2
DCO15
 70
     0
  0
APPID
  2
CONTENTBLOCKICON
 70
     0
  0
ENDTAB
  0
TABLE
  2
DIMSTYLE
 70
     2
  0
DIMSTYLE
  2
DUKITEC
 70
     0
  3

  4

  5

  6

  7

 40
1.0
 41
3.0
 42
1.0
 43
0.0
 44
1.0
 45
0.0
 46
0.0
 47
0.0
 48
0.0
140
3.0
141
0.0
142
0.0
143
25.399999999999999
144
1.0
145
0.0
146
1.0
147
1.0
 71
     0
 72
     0
 73
     0
 74
     0
 75
     0
 76
     0
 77
     1
 78
     8
170
     0
171
     2
172
     1
173
     0
174
     1
175
     0
176
     5
177
     5
178
     0
  0
DIMSTYLE
  2
STANDARD
 70
     0
  3

  4

  5

  6

  7

 40
1.0
 41
0.18
 42
0.0625
 43
0.38
 44
0.18
 45
0.0
 46
0.0
 47
0.0
 48
0.0
140
0.18
141
0.09
142
0.0
143
25.399999999999999
144
1.0
145
0.0
146
1.0
147
0.09
 71
     0
 72
     0
 73
     1
 74
     1
 75
     0
 76
     0
 77
     0
 78
     0
170
     0
171
     2
172
     0
173
     0
174
     0
175
     0
176
     0
177
     0
178
     0
  0
ENDTAB
  0
ENDSEC
  0
SECTION
  2
BLOCKS
  0
BLOCK
  8
0
  2
$MODEL_SPACE
 70
     0
 10
0.0
 20
0.0
 30
0.0
  3
$MODEL_SPACE
  1

  0
ENDBLK
  5
21
  8
0
  0
BLOCK
 67
     1
  8
0
  2
$PAPER_SPACE
 70
     0
 10
0.0
 20
0.0
 30
0.0
  3
$PAPER_SPACE
  1

  0
ENDBLK
  5
5B
 67
     1
  8
0
  0
BLOCK
  8
0
  2
FF8F
 70
     0
 10
0.0
 20
0.0
 30
0.0
  3
FF8F
  1

  0
CIRCLE
  5
13F24
  8
HIDE
 10
0.0
 20
0.0
 30
0.0
 40
10.99999999999998
  0
ARC
  5
13F25
  8
0
 10
0.0
 20
0.0
 30
0.0
 40
18.0
 50
353.94244126898712
 51
6.0575587310129011
  0
ARC
  5
13F26
  8
0
 10
0.0
 20
0.0
 30
0.0
 40
18.0
 50
263.94244126898712
 51
276.05755873101288
  0
ARC
  5
13F27
  8
0
 10
0.0
 20
0.0
 30
0.0
 40
18.0
 50
173.9424412689871
 51
186.0575587310129
  0
LINE
  5
13F28
  8
0
 10
-1.899494936611517
 20
-17.899494936611521
 30
0.0
 11
-17.899494936611521
 21
-1.899494936611517
 31
0.0
  0
LINE
  5
13F29
  8
0
 10
17.899494936611521
 20
-1.899494936611517
 30
0.0
 11
1.899494936611517
 21
-17.899494936611521
 31
0.0
  0
LINE
  5
13F2A
  8
0
 10
1.899494936611517
 20
17.899494936611521
 30
0.0
 11
17.899494936611521
 21
1.899494936611517
 31
0.0
  0
LINE
  5
13F2B
  8
0
 10
-17.899494936611521
 20
1.899494936611517
 30
0.0
 11
-1.899494936611517
 21
17.899494936611521
 31
0.0
  0
ARC
  5
13F2C
  8
0
 10
0.0
 20
0.0
 30
0.0
 40
18.0
 50
83.942441268987096
 51
96.05755873101289
  0
ARC
  5
13F2D
  8
CENTER
 10
0.0
 20
0.0
 30
0.0
 40
14.0
 50
72.964505000026136
 51
107.89799900001979
  0
ARC
  5
13F2E
  8
CENTER
 10
0.0
 20
0.0
 30
0.0
 40
14.0
 50
342.3838720000121
 51
17.039264000007481
  0
ARC
  5
13F2F
  8
CENTER
 10
0.0
 20
0.0
 30
0.0
 40
14.0
 50
252.80560299998541
 51
287.61727499998273
  0
CIRCLE
  5
13F30
  8
0
 10
14.0
 20
0.0000039999999899
 30
0.0
 40
3.25
  0
CIRCLE
  5
13F31
  8
0
 10
14.0
 20
0.0000039999999899
 30
0.0
 40
1.7
  0
CIRCLE
  5
13F32
  8
0
 10
14.0
 20
0.0000039999999899
 30
0.0
 40
3.25
  0
CIRCLE
  5
13F33
  8
0
 10
14.0
 20
0.0000039999999899
 30
0.0
 40
1.7
  0
CIRCLE
  5
13F34
  8
0
 10
0.0
 20
-13.99999600000001
 30
0.0
 40
3.25
  0
CIRCLE
  5
13F35
  8
0
 10
0.0
 20
-13.99999600000001
 30
0.0
 40
1.7
  0
CIRCLE
  5
13F36
  8
0
 10
0.0
 20
-13.99999600000001
 30
0.0
 40
3.25
  0
CIRCLE
  5
13F37
  8
0
 10
0.0
 20
-13.99999600000001
 30
0.0
 40
1.7
  0
CIRCLE
  5
13F38
  8
0
 10
-14.0
 20
0.0000039999999899
 30
0.0
 40
3.25
  0
CIRCLE
  5
13F39
  8
0
 10
-14.0
 20
0.0000039999999899
 30
0.0
 40
1.7
  0
CIRCLE
  5
13F3A
  8
0
 10
-14.0
 20
0.0000039999999899
 30
0.0
 40
3.25
  0
CIRCLE
  5
13F3B
  8
0
 10
-14.0
 20
0.0000039999999899
 30
0.0
 40
1.7
  0
ARC
  5
13F3C
  8
CENTER
 10
0.0
 20
0.0
 30
0.0
 40
14.0
 50
163.562821999997
 51
195.92041000001441
  0
CIRCLE
  5
13F3D
  8
0
 10
0.0
 20
14.00000399999999
 30
0.0
 40
1.7
  0
CIRCLE
  5
13F3E
  8
0
 10
0.0
 20
14.00000399999999
 30
0.0
 40
3.25
  0
CIRCLE
  5
13F3F
  8
0
 10
0.0
 20
0.0
 30
0.0
 40
3.0
  0
CIRCLE
  5
13F40
  8
0
 10
0.0
 20
14.00000399999999
 30
0.0
 40
1.7
  0
CIRCLE
  5
13F41
  8
0
 10
0.0
 20
14.00000399999999
 30
0.0
 40
3.25
  0
LINE
  5
13F42
  8
CENTER
 10
-19.940398999999161
 20
0.0
 30
0.0
 11
19.82080099999985
 21
0.0
 31
0.0
  0
LINE
  5
13F43
  8
CENTER
 10
0.0
 20
-19.94039900000007
 30
0.0
 11
0.0
 21
19.820812999999809
 31
0.0
  0
CIRCLE
  5
13F44
  8
0
 10
-0.0597989999996571
 20
0.0
 30
0.0
 40
8.5002103456562157
  0
ENDBLK
  5
13F45
  8
0
  0
BLOCK
  8
0
  2
FF8S
 70
     0
 10
0.0
 20
0.0
 30
0.0
  3
FF8S
  1

  0
LINE
  5
13F48
  8
HIDE
 10
0.0
 20
10.75000399999999
 30
0.0
 11
4.0
 21
10.75000399999999
 31
0.0
  0
LINE
  5
13F49
  8
HIDE
 10
4.0
 20
12.30000400000017
 30
0.0
 11
6.0
 21
12.30000400000017
 31
0.0
  0
LINE
  5
13F4A
  8
HIDE
 10
4.0
 20
10.75000399999999
 30
0.0
 11
4.0
 21
17.25000399999999
 31
0.0
1001
ACAD
1000
ASC_BOUNDS
1002
{
1070
    19
1002
}
  0
LINE
  5
13F4B
  8
HIDE
 10
4.0
 20
15.70000399999981
 30
0.0
 11
6.0
 21
15.70000399999981
 31
0.0
  0
LINE
  5
13F4C
  8
HIDE
 10
0.0
 20
17.25000399999999
 30
0.0
 11
4.0
 21
17.25000399999999
 31
0.0
  0
LINE
  5
13F4D
  8
CENTER
 10
8.3609079756424762
 20
14.0
 30
0.0
 11
-2.817047000000457
 21
14.0
 31
0.0
  0
LINE
  5
13F4E
  8
HIDE
 10
0.0
 20
-10.74999600000001
 30
0.0
 11
4.0
 21
-10.74999600000001
 31
0.0
  0
LINE
  5
13F4F
  8
HIDE
 10
4.0
 20
-12.29999600000019
 30
0.0
 11
6.0
 21
-12.29999600000019
 31
0.0
  0
LINE
  5
13F50
  8
HIDE
 10
4.0
 20
-15.69999599999983
 30
0.0
 11
6.0
 21
-15.69999599999983
 31
0.0
  0
LINE
  5
13F51
  8
HIDE
 10
0.0
 20
-17.24999600000001
 30
0.0
 11
4.0
 21
-17.24999600000001
 31
0.0
  0
LINE
  5
13F52
  8
HIDE
 10
4.0
 20
-17.24999600000001
 30
0.0
 11
4.0
 21
-10.74999600000001
 31
0.0
1001
ACAD
1000
ASC_BOUNDS
1002
{
1070
    19
1002
}
  0
LINE
  5
13F53
  8
CENTER
 10
8.3609079756424762
 20
-14.0
 30
0.0
 11
-2.817047000000457
 21
-14.0
 31
0.0
  0
LINE
  5
13F54
  8
0
 10
6.0
 20
-17.999932000000172
 30
0.0
 11
6.0
 21
18.000067999999828
 31
0.0
1001
ACAD
1000
ASC_BOUNDS
1002
{
1070
    19
1005
0
1005
0
1002
}
  0
LINE
  5
13F55
  8
0
 10
0.0
 20
18.000067999999828
 30
0.0
 11
6.0
 21
18.000067999999828
 31
0.0
  0
LINE
  5
13F56
  8
0
 10
0.0
 20
-17.999932000000172
 30
0.0
 11
6.0
 21
-17.999932000000172
 31
0.0
  0
LINE
  5
13F57
  8
0
 10
6.0
 20
-10.99993200000017
 30
0.0
 11
10.0
 21
-10.99993200000017
 31
0.0
  0
LINE
  5
13F58
  8
0
 10
0.0
 20
-17.999932000000172
 30
0.0
 11
0.0
 21
18.000067999999828
 31
0.0
1001
ACAD
1000
ASC_BOUNDS
1002
{
1070
    19
1005
0
1005
0
1002
}
  0
LINE
  5
13F59
  8
0
 10
6.0
 20
11.00006799999983
 30
0.0
 11
10.0
 21
11.00006799999983
 31
0.0
  0
LINE
  5
13F5A
  8
CENTER
 10
12.01180999999997
 20
0.0
 30
0.0
 11
-2.817047000000457
 21
0.0
 31
0.0
  0
LINE
  5
13F5B
  8
0
 10
0.0
 20
-1.8994259999999481
 30
0.0
 11
6.0
 21
-1.8994259999999481
 31
0.0
  0
LINE
  5
13F5C
  8
0
 10
0.0
 20
1.8995589999999529
 30
0.0
 11
6.0
 21
1.8995589999999529
 31
0.0
  0
LINE
  5
13F5D
  8
0
 10
10.0
 20
-10.99993200000017
 30
0.0
 11
10.0
 21
11.00006799999983
 31
0.0
1001
ACAD
1000
ASC_BOUNDS
1002
{
1070
    19
1005
0
1005
0
1002
}
  0
LINE
  5
13F5E
  8
HIDE
 10
1.750229999999646
 20
6.875
 30
0.0
 11
0.4375400000008085
 21
6.875
 31
0.0
  0
LINE
  5
13F5F
  8
HIDE
 10
0.4375400000008085
 20
6.875
 30
0.0
 11
0.4375400000008085
 21
7.3999899999998879
 31
0.0
  0
LINE
  5
13F60
  8
HIDE
 10
0.3375500000001921
 20
7.3999899999998879
 30
0.0
 11
-0.0000199999994948
 21
7.3999899999998879
 31
0.0
  0
LINE
  5
13F61
  8
HIDE
 10
-0.0000199999994948
 20
4.0999999999994543
 30
0.0
 11
0.3375500000001921
 21
4.0999999999994543
 31
0.0
  0
LINE
  5
13F62
  8
HIDE
 10
1.716860000000451
 20
4.4600000000000364
 30
0.0
 11
0.4375400000008085
 21
4.4600000000000364
 31
0.0
  0
LINE
  5
13F63
  8
HIDE
 10
0.0
 20
3.9600000000000359
 30
0.0
 11
0.0
 21
-3.9600000000000359
 31
0.0
  0
ARC
  5
13F64
  8
HIDE
 10
5.799989999999525
 20
3.199979999999413
 30
0.0
 40
0.19999969
 50
270.000020000002
 51
0.0
  0
ARC
  5
13F65
  8
HIDE
 10
5.799989999999525
 20
-3.2000299999999688
 30
0.0
 40
0.19999683
 50
0.0
 51
89.999981999987753
  0
LINE
  5
13F66
  8
HIDE
 10
0.0
 20
2.9999799999995949
 30
0.0
 11
5.799989999999525
 21
2.9999799999995949
 31
0.0
  0
LINE
  5
13F67
  8
HIDE
 10
0.0
 20
-3.0000200000004038
 30
0.0
 11
5.799989999999525
 21
-3.0000200000004038
 31
0.0
  0
LINE
  5
13F68
  8
HIDE
 10
5.9999800000005052
 20
3.9999799999995949
 30
0.0
 11
5.9999800000005052
 21
-4.0000200000004043
 31
0.0
  0
ARC
  5
13F69
  8
HIDE
 10
0.9107399999993504
 20
7.589239999999335
 30
0.0
 40
0.9990968699999999
 50
114.27568000002471
 51
155.72437999999809
  0
LINE
  5
13F6A
  8
HIDE
 10
-0.0000199999994948
 20
8.0
 30
0.0
 11
-0.0000199999994948
 21
6.875
 31
0.0
  0
LINE
  5
13F6B
  8
HIDE
 10
4.2497399999992922
 20
6.875
 30
0.0
 11
5.5624200000002011
 21
6.875
 31
0.0
  0
LINE
  5
13F6C
  8
HIDE
 10
5.5624200000002011
 20
6.875
 30
0.0
 11
5.5624200000002011
 21
7.3999899999998879
 31
0.0
  0
LINE
  5
13F6D
  8
HIDE
 10
5.6624200000005649
 20
7.3999899999998879
 30
0.0
 11
5.9999800000005052
 21
7.3999899999998879
 31
0.0
  0
LINE
  5
13F6E
  8
HIDE
 10
5.9999800000005052
 20
7.3999899999998879
 30
0.0
 11
5.9999800000005052
 21
7.9999899999993431
 31
0.0
  0
ARC
  5
13F6F
  8
HIDE
 10
5.0892299999995876
 20
7.589239999999335
 30
0.0
 40
0.9990968699999999
 50
24.275616000006639
 51
65.724342000033886
  0
LINE
  5
13F70
  8
HIDE
 10
5.4999800000005052
 20
8.5
 30
0.0
 11
0.4999800000005053
 21
8.5
 31
0.0
  0
LINE
  5
13F71
  8
HIDE
 10
5.9999800000005052
 20
3.5
 30
0.0
 11
5.9999800000005052
 21
4.0999999999994543
 31
0.0
  0
LINE
  5
13F72
  8
HIDE
 10
5.9999800000005052
 20
4.0999999999994543
 30
0.0
 11
5.6624200000005649
 21
4.0999999999994543
 31
0.0
  0
LINE
  5
13F73
  8
HIDE
 10
5.570770000000266
 20
4.0999999999994543
 30
0.0
 11
5.570770000000266
 21
4.4600000000000364
 31
0.0
  0
LINE
  5
13F74
  8
HIDE
 10
4.2831100000003062
 20
4.4600000000000364
 30
0.0
 11
5.570770000000266
 21
4.4600000000000364
 31
0.0
  0
LINE
  5
13F75
  8
HIDE
 10
-0.0000199999994948
 20
4.4600000000000364
 30
0.0
 11
-0.0000199999994948
 21
3.5
 31
0.0
  0
LINE
  5
13F76
  8
HIDE
 10
0.4999800000005053
 20
3.0
 30
0.0
 11
5.802796350013522
 21
3.0
 31
0.0
  0
CIRCLE
  5
13F77
  8
HIDE
 10
2.9999800000005048
 20
5.6499899999998879
 30
0.0
 40
1.75
  0
ARC
  5
13F78
  8
HIDE
 10
5.0892299999995876
 20
-7.5892499999999918
 30
0.0
 40
0.9990968699999999
 50
294.27565999999018
 51
335.72437999999812
  0
LINE
  5
13F79
  8
HIDE
 10
5.9999800000005052
 20
-8.0
 30
0.0
 11
5.9999800000005052
 21
-3.5
 31
0.0
  0
LINE
  5
13F7A
  8
HIDE
 10
-0.0000199999994948
 20
-3.5
 30
0.0
 11
-0.0000199999994948
 21
-8.0
 31
0.0
  0
ARC
  5
13F7B
  8
HIDE
 10
0.9107399999993504
 20
-7.5892499999999918
 30
0.0
 40
0.9990968699999999
 50
204.27561999999
 51
245.72431999997531
  0
LINE
  5
13F7C
  8
HIDE
 10
0.4999800000005053
 20
-8.5
 30
0.0
 11
5.4999800000005052
 21
-8.5
 31
0.0
  0
LINE
  5
13F7D
  8
HIDE
 10
5.9999800000005052
 20
3.5
 30
0.0
 11
5.9999800000005052
 21
8.0
 31
0.0
  0
LINE
  5
13F7E
  8
HIDE
 10
-0.0000199999994948
 20
8.0
 30
0.0
 11
-0.0000199999994948
 21
3.5
 31
0.0
  0
LINE
  5
13F7F
  8
HIDE
 10
5.5624200000002011
 20
7.6749999999992724
 30
0.0
 11
5.5624200000002011
 21
3.8249999999998181
 31
0.0
  0
LINE
  5
13F80
  8
HIDE
 10
5.6624200000005649
 20
7.6749999999992724
 30
0.0
 11
5.6624200000005649
 21
3.8249999999998181
 31
0.0
  0
LINE
  5
13F81
  8
HIDE
 10
1.750229999999646
 20
-6.875
 30
0.0
 11
-0.0000199999994948
 21
-6.875
 31
0.0
  0
LINE
  5
13F82
  8
HIDE
 10
5.5624200000002011
 20
-6.875
 30
0.0
 11
4.2497399999992922
 21
-6.875
 31
0.0
  0
LINE
  5
13F83
  8
HIDE
 10
5.5624200000002011
 20
-7.3999900000007983
 30
0.0
 11
5.5624200000002011
 21
-6.875
 31
0.0
  0
LINE
  5
13F84
  8
HIDE
 10
5.9999800000005052
 20
-7.3999900000007983
 30
0.0
 11
5.5624200000002011
 21
-7.3999900000007983
 31
0.0
  0
LINE
  5
13F85
  8
HIDE
 10
5.570770000000266
 20
-4.1000000000003629
 30
0.0
 11
5.9999800000005052
 21
-4.1000000000003629
 31
0.0
  0
LINE
  5
13F86
  8
HIDE
 10
5.570770000000266
 20
-4.4600000000000364
 30
0.0
 11
5.570770000000266
 21
-4.1000000000003629
 31
0.0
  0
LINE
  5
13F87
  8
HIDE
 10
5.570770000000266
 20
-4.4600000000000364
 30
0.0
 11
4.2831100000003062
 21
-4.4600000000000364
 31
0.0
  0
LINE
  5
13F88
  8
HIDE
 10
-0.0000099999997474
 20
-4.4600000000000364
 30
0.0
 11
1.716860000000451
 21
-4.4600000000000364
 31
0.0
  0
CIRCLE
  5
13F89
  8
HIDE
 10
2.9999800000005048
 20
-5.6499900000007983
 30
0.0
 40
1.75
  0
LINE
  5
13F8A
  8
HIDE
 10
5.5624200000002011
 20
-3.8250000000007272
 30
0.0
 11
5.5624200000002011
 21
-7.675000000000181
 31
0.0
  0
LINE
  5
13F8B
  8
HIDE
 10
5.6624200000005649
 20
-3.8250000000007272
 30
0.0
 11
5.6624200000005649
 21
-7.675000000000181
 31
0.0
  0
LINE
  5
13F8C
  8
HIDE
 10
0.4375400000008085
 20
3.8249999999998181
 30
0.0
 11
0.4375400000008085
 21
7.6749999999992724
 31
0.0
  0
LINE
  5
13F8D
  8
HIDE
 10
0.3375500000001921
 20
3.8249999999998181
 30
0.0
 11
0.3375500000001921
 21
7.6749999999992724
 31
0.0
  0
LINE
  5
13F8E
  8
HIDE
 10
0.4375400000008085
 20
-7.675000000000181
 30
0.0
 11
0.4375400000008085
 21
-3.8250000000007272
 31
0.0
  0
LINE
  5
13F8F
  8
HIDE
 10
0.3375500000001921
 20
-7.675000000000181
 30
0.0
 11
0.3375500000001921
 21
-3.8250000000007272
 31
0.0
  0
LINE
  5
13F90
  8
HIDE
 10
10.0
 20
8.5
 30
0.0
 11
-0.0000000000002274
 21
8.5
 31
0.0
  0
LINE
  5
13F91
  8
HIDE
 10
0.0000000000002274
 20
-8.5
 30
0.0
 11
10.0
 21
-8.5
 31
0.0
  0
ENDBLK
  5
13F92
  8
0
  0
ENDSEC
  0
SECTION
  2
ENTITIES
  0
POLYLINE
  5
13E1C
  8
0
 66
     1
 10
0.0
 20
0.0
 30
0.0
 70
     1
  0
VERTEX
  5
13FD5
  8
0
 10
1903.0405749290021
 20
1433.173578249188
 30
0.0
  0
VERTEX
  5
13FD6
  8
0
 10
1903.0405749290021
 20
1748.173578249188
 30
0.0
  0
VERTEX
  5
13FD7
  8
0
 10
2348.540574929003
 20
1748.173578249188
 30
0.0
  0
VERTEX
  5
13FD8
  8
0
 10
2348.540574929003
 20
1433.173578249188
 30
0.0
  0
VERTEX
  5
13FD9
  8
0
 10
1903.0405749290021
 20
1433.173578249188
 30
0.0
  0
SEQEND
  5
13FDA
  8
0
  0
TEXT
  5
13FA0
  8
0
 10
2084.5357144095601
 20
1520.392955091804
 30
0.0
 40
20.0
  1
FF 8
  7
BIG
  0
INSERT
  5
13FA1
  8
0
  2
FF8F
 10
2098.940657481362
 20
1611.1212395841751
 30
0.0
  0
INSERT
  5
13FA2
  8
0
  2
FF8S
 10
2133.4098364428078
 20
1611.1212395841751
 30
0.0
  0
ENDSEC
  0
EOF
