  0
SECTION
  2
HEADER
  9
$ACADVER
  1
AC1009
  9
$INSBASE
 10
0.0
 20
0.0
 30
0.0
  9
$EXTMIN
 10
1903.0405749290021
 20
1433.173578249188
 30
0.0
  9
$EXTMAX
 10
2348.540574929003
 20
1748.173578249188
 30
0.0
  9
$LIMMIN
 10
0.0
 20
0.0
  9
$LIMMAX
 10
12.0
 20
9.0
  9
$ORTHOMODE
 70
     0
  9
$REGENMODE
 70
     1
  9
$FILLMODE
 70
     1
  9
$QTEXTMODE
 70
     0
  9
$MIRRTEXT
 70
     0
  9
$DRAGMODE
 70
     2
  9
$LTSCALE
 40
5.0
  9
$OSMODE
 70
  2239
  9
$ATTMODE
 70
     1
  9
$TEXTSIZE
 40
2.5
  9
$TRACEWID
 40
0.05
  9
$TEXTSTYLE
  7
BIG
  9
$CLAYER
  8
0
  9
$CELTYPE
  6
BYLAYER
  9
$CECOLOR
 62
   256
  9
$DIMSCALE
 40
1.0
  9
$DIMASZ
 40
3.0
  9
$DIMEXO
 40
1.0
  9
$DIMDLI
 40
0.0
  9
$DIMRND
 40
0.0
  9
$DIMDLE
 40
0.0
  9
$DIMEXE
 40
1.0
  9
$DIMTP
 40
0.0
  9
$DIMTM
 40
0.0
  9
$DIMTXT
 40
3.0
  9
$DIMCEN
 40
0.0
  9
$DIMTSZ
 40
0.0
  9
$DIMTOL
 70
     0
  9
$DIMLIM
 70
     0
  9
$DIMTIH
 70
     0
  9
$DIMTOH
 70
     0
  9
$DIMSE1
 70
     0
  9
$DIMSE2
 70
     0
  9
$DIMTAD
 70
     1
  9
$DIMZIN
 70
     8
  9
$DIMBLK
  1

  9
$DIMASO
 70
     1
  9
$DIMSHO
 70
     1
  9
$DIMPOST
  1

  9
$DIMAPOST
  1

  9
$DIMALT
 70
     0
  9
$DIMALTD
 70
     2
  9
$DIMALTF
 40
25.399999999999999
  9
$DIMLFAC
 40
1.0
  9
$DIMTOFL
 70
     1
  9
$DIMTVP
 40
0.0
  9
$DIMTIX
 70
     1
  9
$DIMSOXD
 70
     0
  9
$DIMSAH
 70
     0
  9
$DIMBLK1
  1

  9
$DIMBLK2
  1

  9
$DIMSTYLE
  2
DUKITEC
  9
$DIMCLRD
 70
     5
  9
$DIMCLRE
 70
     5
  9
$DIMCLRT
 70
     0
  9
$DIMTFAC
 40
1.0
  9
$DIMGAP
 40
1.0
  9
$LUNITS
 70
     2
  9
$LUPREC
 70
     4
  9
$SKETCHINC
 40
0.1
  9
$FILLETRAD
 40
0.2
  9
$AUNITS
 70
     0
  9
$AUPREC
 70
     0
  9
$MENU
  1
.
  9
$ELEVATION
 40
0.0
  9
$PELEVATION
 40
0.0
  9
$THICKNESS
 40
0.0
  9
$LIMCHECK
 70
     0
  9
$BLIPMODE
 70
     0
  9
$CHAMFERA
 40
0.5
  9
$CHAMFERB
 40
0.5
  9
$SKPOLY
 70
     0
  9
$TDCREATE
 40
2454396.7147263782
  9
$TDUPDATE
 40
2456630.77316728
  9
$TDINDWG
 40
0.0017848264
  9
$TDUSRTIMER
 40
0.0017847106
  9
$USRTIMER
 70
     1
  9
$ANGBASE
 50
0.0
  9
$ANGDIR
 70
     0
  9
$PDMODE
 70
     0
  9
$PDSIZE
 40
0.0
  9
$PLINEWID
 40
0.0
  9
$COORDS
 70
     1
  9
$SPLFRAME
 70
     0
  9
$SPLINETYPE
 70
     6
  9
$SPLINESEGS
 70
     8
  9
$ATTDIA
 70
     0
  9
$ATTREQ
 70
     1
  9
$HANDLING
 70
     1
  9
$HANDSEED
  5
14281
  9
$SURFTAB1
 70
     6
  9
$SURFTAB2
 70
     6
  9
$SURFTYPE
 70
     6
  9
$SURFU
 70
     6
  9
$SURFV
 70
     6
  9
$UCSNAME
  2

  9
$UCSORG
 10
0.0
 20
0.0
 30
0.0
  9
$UCSXDIR
 10
1.0
 20
0.0
 30
0.0
  9
$UCSYDIR
 10
0.0
 20
1.0
 30
0.0
  9
$PUCSNAME
  2

  9
$PUCSORG
 10
0.0
 20
0.0
 30
0.0
  9
$PUCSXDIR
 10
1.0
 20
0.0
 30
0.0
  9
$PUCSYDIR
 10
0.0
 20
1.0
 30
0.0
  9
$USERI1
 70
     0
  9
$USERI2
 70
     0
  9
$USERI3
 70
     0
  9
$USERI4
 70
     0
  9
$USERI5
 70
     0
  9
$USERR1
 40
0.0
  9
$USERR2
 40
0.0
  9
$USERR3
 40
0.0
  9
$USERR4
 40
0.0
  9
$USERR5
 40
0.0
  9
$WORLDVIEW
 70
     1
  9
$SHADEDGE
 70
     3
  9
$SHADEDIF
 70
    70
  9
$TILEMODE
 70
     1
  9
$MAXACTVP
 70
    64
  9
$PLIMCHECK
 70
     0
  9
$PEXTMIN
 10
0.0
 20
0.0
 30
0.0
  9
$PEXTMAX
 10
0.0
 20
0.0
 30
0.0
  9
$PLIMMIN
 10
0.0
 20
0.0
  9
$PLIMMAX
 10
12.0
 20
9.0
  9
$UNITMODE
 70
     0
  9
$VISRETAIN
 70
     1
  9
$PLINEGEN
 70
     0
  9
$PSLTSCALE
 70
     1
  0
ENDSEC
  0
SECTION
  2
TABLES
  0
TABLE
  2
VPORT
 70
     1
  0
VPORT
  2
*ACTIVE
 70
     0
 10
0.0
 20
0.0
 11
1.0
 21
1.0
 12
2111.6682777605929
 22
1604.766175015412
 13
0.0
 23
0.0
 14
0.5
 24
0.5
 15
0.5
 25
0.5
 16
0.0
 26
0.0
 36
1.0
 17
0.0
 27
0.0
 37
0.0
 40
130.4075176802944
 41
2.1408934707903771
 42
50.0
 43
0.0
 44
0.0
 50
0.0
 51
0.0
 71
     0
 72
  2000
 73
     1
 74
     3
 75
     0
 76
     0
 77
     0
 78
     0
  0
ENDTAB
  0
TABLE
  2
LTYPE
 70
     4
  0
LTYPE
  2
CONTINUOUS
 70
     0
  3
Solid line
 72
    65
 73
     0
 40
0.0
  0
LTYPE
  2
PHANTOM2
 70
     0
  3
Phantom (.5x) ___ _ _ ___ _ _ ___ _ _ ___ _ _
 72
    65
 73
     6
 40
1.25
 49
0.625
 49
-0.125
 49
0.125
 49
-0.125
 49
0.125
 49
-0.125
  0
LTYPE
  2
CENTER
 70
     0
  3
___ _ ___ _ ___ _ ___ _ ___ _ ___ _ ___ _ ___ _
 72
    65
 73
     4
 40
0.95
 49
0.625
 49
-0.125
 49
0.075
 49
-0.125
  0
LTYPE
  2
DASHED2
 70
     0
  3
Dashed (.5x) _ _ _ _ _ _ _ _ _ _ _ _ _ _ _ _ _
 72
    65
 73
     2
 40
0.375
 49
0.25
 49
-0.125
  0
ENDTAB
  0
TABLE
  2
LAYER
 70
     4
  0
LAYER
  2
0
 70
     0
 62
     7
  6
CONTINUOUS
  0
LAYER
  2
HIDE
 70
     0
 62
     1
  6
DASHED2
  0
LAYER
  2
CENTER
 70
     0
 62
     3
  6
CENTER
  0
ENDTAB
  0
TABLE
  2
STYLE
 70
     3
  0
STYLE
  2
STANDARD
 70
     0
 40
5.0
 41
1.0
 50
0.0
 71
     0
 42
5.0
  3
txt.shx
  4
whgtxt.shx
  0
STYLE
  2
BIG
 70
     0
 40
20.0
 41
1.0
 50
0.0
 71
     0
 42
2.5
  3
txt
  4

  0
ENDTAB
  0
TABLE
  2
VIEW
 70
     0
  0
ENDTAB
  0
TABLE
  2
UCS
 70
     0
  0
ENDTAB
  0
TABLE
  2
APPID
 70
    11
  0
APPID
  2
ACAD
 70
     0
  0
APPID
  2
ACADANNOTATIVE
 70
     0
  0
APPID
  2
ACAD_EXEMPT_FROM_CAD_STANDARDS
 70
     0
  0
APPID
  2
ACAD_DSTYLE_DIMJOGGED_JOGA
 70
     0
  0
APPID
  2
ACAD_PSEXT
 70
     0
  0
APPID
  2
ACAECLAYERSTANDARD
 70
     0
  0
APPID
  2
DCO15
 70
     0
  0
APPID
  2
CONTENTBLOCKICON
 70
     0
  0
APPID
  2
ACAD_DSTYLE_DIMRADIAL_EXTENSION
 70
     0
  0
APPID
  2
ACAD_NAV_VCDISPLAY
 70
     0
  0
APPID
  2
ACAD_MLEADERVER
 70
     0
  0
ENDTAB
  0
TABLE
  2
DIMSTYLE
 70
     3
  0
DIMSTYLE
  2
DUKITEC
 70
     0
  3

  4

  5

  6

  7

 40
1.0
 41
3.0
 42
1.0
 43
0.0
 44
1.0
 45
0.0
 46
0.0
 47
0.0
 48
0.0
140
3.0
141
0.0
142
0.0
143
25.399999999999999
144
1.0
145
0.0
146
1.0
147
1.0
 71
     0
 72
     0
 73
     0
 74
     0
 75
     0
 76
     0
 77
     1
 78
     8
170
     0
171
     2
172
     1
173
     0
174
     1
175
     0
176
     5
177
     5
178
     0
  0
ENDTAB
  0
ENDSEC
  0
SECTION
  2
BLOCKS
  0
BLOCK
  8
0
  2
$MODEL_SPACE
 70
     0
 10
0.0
 20
0.0
 30
0.0
  3
$MODEL_SPACE
  1

  0
ENDBLK
  5
140A8
  8
0
  0
BLOCK
 67
     1
  8
0
  2
$PAPER_SPACE
 70
     0
 10
0.0
 20
0.0
 30
0.0
  3
$PAPER_SPACE
  1

  0
ENDBLK
  5
140A4
 67
     1
  8
0
  0
ENDSEC
  0
SECTION
  2
ENTITIES
  0
TEXT
  5
1400A
  8
0
 10
2065.860298572291
 20
1551.3695237417519
 30
0.0
 40
20.0
  1
FK 10
  7
BIG
  0
LINE
  5
140C4
  8
HIDE
 10
2128.4810483729539
 20
1597.8243032012419
 30
0.0
 11
2133.4810483729548
 21
1597.8243032012419
 31
0.0
  0
LINE
  5
140C5
  8
HIDE
 10
2133.4810483729548
 20
1596.0743032012419
 30
0.0
 11
2139.4810473729549
 21
1596.0743032012419
 31
0.0
  0
LINE
  5
140C6
  8
HIDE
 10
2133.4810483729548
 20
1591.5743032012419
 30
0.0
 11
2139.4810473729549
 21
1591.5743032012419
 31
0.0
  0
LINE
  5
140C7
  8
HIDE
 10
2128.4810483729539
 20
1589.8243032012419
 30
0.0
 11
2133.4810483729548
 21
1589.8243032012419
 31
0.0
  0
LINE
  5
140C8
  8
HIDE
 10
2128.4810483729539
 20
1631.8243032012419
 30
0.0
 11
2133.4810483729548
 21
1631.8243032012419
 31
0.0
  0
LINE
  5
140C9
  8
HIDE
 10
2133.4810483729548
 20
1633.5743032012419
 30
0.0
 11
2139.4810473729549
 21
1633.5743032012419
 31
0.0
  0
LINE
  5
140CA
  8
HIDE
 10
2133.4810483729548
 20
1638.0743032012419
 30
0.0
 11
2139.4810473729549
 21
1638.0743032012419
 31
0.0
  0
LINE
  5
140CB
  8
HIDE
 10
2128.4810483729539
 20
1639.8243032012419
 30
0.0
 11
2133.4810483729548
 21
1639.8243032012419
 31
0.0
  0
LINE
  5
140CC
  8
CENTER
 10
2126.3992926802889
 20
1593.8243072012419
 30
0.0
 11
2141.1505510837851
 21
1593.8243072012419
 31
0.0
  0
LINE
  5
140CD
  8
CENTER
 10
2126.3992926802889
 20
1635.8243072012419
 30
0.0
 11
2141.1505510837851
 21
1635.8243072012419
 31
0.0
  0
LINE
  5
140CE
  8
0
 10
2133.4810483729548
 20
1588.8243072012419
 30
0.0
 11
2139.4810473729549
 21
1588.8243072012419
 31
0.0
  0
LINE
  5
140CF
  8
0
 10
2128.4810483729539
 20
1588.8243072012419
 30
0.0
 11
2133.4810483729548
 21
1588.8243072012419
 31
0.0
  0
LINE
  5
140D0
  8
0
 10
2133.4810483729548
 20
1640.8243072012419
 30
0.0
 11
2139.4810473729549
 21
1640.8243072012419
 31
0.0
  0
LINE
  5
140D1
  8
0
 10
2128.4810483729539
 20
1640.8243072012419
 30
0.0
 11
2133.4810483729548
 21
1640.8243072012419
 31
0.0
  0
LINE
  5
140D2
  8
0
 10
2133.4810483729548
 20
1588.8243072012419
 30
0.0
 11
2133.4810483729548
 21
1640.8243072012419
 31
0.0
  0
LINE
  5
140D3
  8
CENTER
 10
2119.3252879574902
 20
1614.8243072012419
 30
0.0
 11
2158.8872286661681
 21
1614.8243072012419
 31
0.0
  0
LINE
  5
140D4
  8
HIDE
 10
2130.4810423729541
 20
1609.8243072012419
 30
0.0
 11
2135.4810423729541
 21
1609.8243072012419
 31
0.0
  0
LINE
  5
140D5
  8
HIDE
 10
2151.4810423729541
 20
1609.8243072012419
 30
0.0
 11
2156.481042372955
 21
1609.8243072012419
 31
0.0
  0
LINE
  5
140D6
  8
HIDE
 10
2130.4810423729541
 20
1619.8243072012419
 30
0.0
 11
2135.4810423729541
 21
1619.8243072012419
 31
0.0
  0
LINE
  5
140D7
  8
HIDE
 10
2151.4810423729541
 20
1619.8243072012419
 30
0.0
 11
2156.481042372955
 21
1619.8243072012419
 31
0.0
  0
LINE
  5
140D8
  8
HIDE
 10
2130.4810423729541
 20
1607.8243072012431
 30
0.0
 11
2135.4810423729541
 21
1607.8243072012431
 31
0.0
  0
LINE
  5
140D9
  8
HIDE
 10
2151.4810423729541
 20
1607.8243072012431
 30
0.0
 11
2156.481042372955
 21
1607.8243072012419
 31
0.0
  0
LINE
  5
140DA
  8
HIDE
 10
2130.4810423729541
 20
1621.8243072012419
 30
0.0
 11
2135.4810423729541
 21
1621.8243072012419
 31
0.0
  0
LINE
  5
140DB
  8
HIDE
 10
2151.4810423729541
 20
1621.8243072012419
 30
0.0
 11
2156.481042372955
 21
1621.8243072012419
 31
0.0
  0
LINE
  5
140DC
  8
0
 10
2128.4810483729539
 20
1618.833798201242
 30
0.0
 11
2139.4810473729549
 21
1618.833798201242
 31
0.0
  0
LINE
  5
140DD
  8
0
 10
2128.4810483729539
 20
1610.8148042012419
 30
0.0
 11
2139.4810473729549
 21
1610.8148042012419
 31
0.0
  0
LINE
  5
140DE
  8
0
 10
2139.4810473729549
 20
1631.8243032012419
 30
0.0
 11
2156.4810423729541
 21
1631.8243032012419
 31
0.0
  0
LINE
  5
140DF
  8
0
 10
2139.4810473729549
 20
1597.824299201242
 30
0.0
 11
2156.4810423729541
 21
1597.824299201242
 31
0.0
  0
LINE
  5
140E0
  8
0
 10
2139.4810473729549
 20
1588.8243072012419
 30
0.0
 11
2139.4810473729549
 21
1640.8243072012419
 31
0.0
  0
LINE
  5
140E1
  8
0
 10
2156.4810423729541
 20
1597.824299201242
 30
0.0
 11
2156.4810423729541
 21
1631.8243032012419
 31
0.0
  0
LINE
  5
140E2
  8
0
 10
2128.4810483729539
 20
1588.8243072012419
 30
0.0
 11
2128.4810483729539
 21
1640.8243072012419
 31
0.0
  0
LINE
  5
140E3
  8
0
 10
2128.4810483729539
 20
1624.8243072012419
 30
0.0
 11
2122.4810423729559
 21
1624.8243072012419
 31
0.0
  0
LINE
  5
140E4
  8
HIDE
 10
2129.9810423729541
 20
1624.8243072012419
 30
0.0
 11
2129.9810423729541
 21
1614.8243072012419
 31
0.0
  0
LINE
  5
140E5
  8
HIDE
 10
2130.4810423729541
 20
1622.3243072012419
 30
0.0
 11
2130.4810423729541
 21
1614.8243072012419
 31
0.0
  0
LINE
  5
140E6
  8
CENTER
 10
2125.9810423729541
 20
1625.4214988783399
 30
0.0
 11
2125.9810423729541
 21
1618.6309774956039
 31
0.0
  0
LINE
  5
140E7
  8
0
 10
2122.4810423729541
 20
1624.8243072012419
 30
0.0
 11
2122.4810423729541
 21
1614.8243072012419
 31
0.0
  0
LINE
  5
140E8
  8
HIDE
 10
2130.4810423729518
 20
1622.3243072012431
 30
0.0
 11
2129.9810423729518
 21
1622.612982335839
 31
0.0
  0
LINE
  5
140E9
  8
0
 10
2128.4810483729539
 20
1616.238520763618
 30
0.0
 11
2122.4810423729541
 21
1616.238520763618
 31
0.0
  0
LINE
  5
140EA
  8
HIDE
 10
2130.4810423729541
 20
1619.3243072012431
 30
0.0
 11
2122.4810423729541
 21
1619.3243072012419
 31
0.0
  0
LINE
  5
140EB
  8
HIDE
 10
2130.4810423729541
 20
1619.8243072012419
 30
0.0
 11
2122.4810423729541
 21
1619.8243072012419
 31
0.0
  0
LINE
  5
140EC
  8
HIDE
 10
2124.4810423729541
 20
1624.8243072012419
 30
0.0
 11
2124.4810423729518
 21
1619.3243072012419
 31
0.0
  0
LINE
  5
140ED
  8
HIDE
 10
2124.7310423729541
 20
1624.8243072012419
 30
0.0
 11
2124.7310423729541
 21
1619.3243072012419
 31
0.0
  0
LINE
  5
140EE
  8
HIDE
 10
2127.4810423729518
 20
1624.8243072012419
 30
0.0
 11
2127.48104237295
 21
1619.3243072012419
 31
0.0
  0
LINE
  5
140EF
  8
HIDE
 10
2127.231042372955
 20
1624.8243072012419
 30
0.0
 11
2127.231042372955
 21
1619.3243072012419
 31
0.0
  0
LINE
  5
140F0
  8
HIDE
 10
2127.48104237295
 20
1621.2973323350791
 30
0.0
 11
2124.48104237295
 21
1621.2973323350791
 31
0.0
  0
LINE
  5
140F1
  8
HIDE
 10
2127.48104237295
 20
1624.2973323350791
 30
0.0
 11
2124.48104237295
 21
1624.2973323350791
 31
0.0
  0
LINE
  5
140F2
  8
HIDE
 10
2127.48104237295
 20
1621.297332335077
 30
0.0
 11
2127.231042372955
 21
1621.152994767782
 31
0.0
  0
LINE
  5
140F3
  8
HIDE
 10
2124.4810423729541
 20
1621.297332335078
 30
0.0
 11
2124.7310423729541
 21
1621.1529947677809
 31
0.0
  0
LINE
  5
140F4
  8
HIDE
 10
2127.231042372955
 20
1621.152994767782
 30
0.0
 11
2124.7310423729541
 21
1621.1529947677809
 31
0.0
  0
LINE
  5
140F5
  8
0
 10
2128.4810483729539
 20
1604.8243072012419
 30
0.0
 11
2122.4810423729559
 21
1604.8243072012419
 31
0.0
  0
LINE
  5
140F6
  8
HIDE
 10
2129.9810423729541
 20
1604.8243072012419
 30
0.0
 11
2129.9810423729541
 21
1614.8243072012419
 31
0.0
  0
LINE
  5
140F7
  8
HIDE
 10
2130.4810423729541
 20
1607.3243072012419
 30
0.0
 11
2130.4810423729541
 21
1614.8243072012419
 31
0.0
  0
LINE
  5
140F8
  8
0
 10
2122.4810423729541
 20
1604.8243072012419
 30
0.0
 11
2122.4810423729541
 21
1614.8243072012419
 31
0.0
  0
LINE
  5
140F9
  8
HIDE
 10
2130.4810423729518
 20
1607.324307201241
 30
0.0
 11
2129.9810423729518
 21
1607.0356320666449
 31
0.0
  0
LINE
  5
140FA
  8
0
 10
2128.4810483729539
 20
1613.4100936388661
 30
0.0
 11
2122.4810423729541
 21
1613.4100936388661
 31
0.0
  0
LINE
  5
140FB
  8
HIDE
 10
2130.4810423729541
 20
1610.324307201241
 30
0.0
 11
2122.4810423729541
 21
1610.3243072012419
 31
0.0
  0
LINE
  5
140FC
  8
HIDE
 10
2130.4810423729541
 20
1609.8243072012419
 30
0.0
 11
2122.4810423729541
 21
1609.8243072012419
 31
0.0
  0
CIRCLE
  5
140FD
  8
HIDE
 10
2147.4810423729541
 20
1605.8243072012419
 30
0.0
 40
2.399999999999999
  0
CIRCLE
  5
140FE
  8
HIDE
 10
2147.4810423729541
 20
1623.8243072012419
 30
0.0
 40
2.399999999999999
  0
CIRCLE
  5
140FF
  8
HIDE
 10
2139.4810423729541
 20
1605.8243072012419
 30
0.0
 40
2.399999999999999
  0
CIRCLE
  5
14100
  8
HIDE
 10
2139.4810423729541
 20
1623.8243072012419
 30
0.0
 40
2.399999999999999
  0
ARC
  5
14101
  8
HIDE
 10
2143.331042372954
 20
1627.6743072012421
 30
0.0
 40
0.1500000000000003
 50
0.0
 51
90.0
  0
ARC
  5
14102
  8
HIDE
 10
2135.7810423729538
 20
1627.524307201242
 30
0.0
 40
0.3000000000000007
 50
90.0
 51
180.0
  0
ARC
  5
14103
  8
HIDE
 10
2143.1810423729548
 20
1620.1243072012419
 30
0.0
 40
0.2999999999999998
 50
270.0
 51
0.0
  0
ARC
  5
14104
  8
HIDE
 10
2143.1810423729548
 20
1609.524307201242
 30
0.0
 40
0.3000000000000007
 50
0.0
 51
90.0
  0
ARC
  5
14105
  8
HIDE
 10
2135.6310423729542
 20
1619.974307201242
 30
0.0
 40
0.1500000000000003
 50
180.0
 51
270.0
  0
ARC
  5
14106
  8
HIDE
 10
2135.6310423729542
 20
1609.6743072012421
 30
0.0
 40
0.1500000000000003
 50
90.0
 51
180.0
  0
ARC
  5
14107
  8
HIDE
 10
2143.331042372954
 20
1601.974307201242
 30
0.0
 40
0.1500000000000003
 50
270.0
 51
0.0
  0
ARC
  5
14108
  8
HIDE
 10
2135.7810423729538
 20
1602.1243072012419
 30
0.0
 40
0.2999999999999989
 50
180.0
 51
270.0
  0
LINE
  5
14109
  8
HIDE
 10
2135.4810423729541
 20
1625.1243072012419
 30
0.0
 11
2137.4636182727709
 21
1625.1243072012419
 31
0.0
  0
LINE
  5
1410A
  8
HIDE
 10
2135.7810423729538
 20
1627.8243072012419
 30
0.0
 11
2143.331042372954
 21
1627.8243072012419
 31
0.0
  0
LINE
  5
1410B
  8
HIDE
 10
2143.4810423729541
 20
1622.524307201242
 30
0.0
 11
2141.4984664731369
 21
1622.524307201242
 31
0.0
  0
LINE
  5
1410C
  8
HIDE
 10
2140.3343178630462
 20
1626.0675015615259
 30
0.0
 11
2143.4810423729541
 21
1626.3743072012419
 31
0.0
  0
LINE
  5
1410D
  8
HIDE
 10
2135.4810423729541
 20
1622.524307201242
 30
0.0
 11
2137.4636182727709
 21
1622.524307201242
 31
0.0
  0
LINE
  5
1410E
  8
HIDE
 10
2135.4810423729541
 20
1607.1243072012419
 30
0.0
 11
2137.4636182727709
 21
1607.1243072012419
 31
0.0
  0
LINE
  5
1410F
  8
HIDE
 10
2135.6310423729542
 20
1619.8243072012419
 30
0.0
 11
2143.1810423729548
 21
1619.8243072012419
 31
0.0
  0
LINE
  5
14110
  8
HIDE
 10
2135.6310423729542
 20
1609.8243072012419
 30
0.0
 11
2143.1810423729548
 21
1609.8243072012419
 31
0.0
  0
LINE
  5
14111
  8
HIDE
 10
2143.4810423729541
 20
1607.1243072012419
 30
0.0
 11
2141.4984664731369
 21
1607.1243072012419
 31
0.0
  0
LINE
  5
14112
  8
HIDE
 10
2135.4810423729541
 20
1604.524307201242
 30
0.0
 11
2137.4636182727709
 21
1604.524307201242
 31
0.0
  0
LINE
  5
14113
  8
HIDE
 10
2143.331042372954
 20
1601.8243072012419
 30
0.0
 11
2135.7810423729538
 21
1601.8243072012419
 31
0.0
  0
LINE
  5
14114
  8
HIDE
 10
2140.3343178630462
 20
1603.581112840958
 30
0.0
 11
2143.4810423729541
 21
1603.274307201242
 31
0.0
  0
LINE
  5
14115
  8
HIDE
 10
2135.4810423729541
 20
1602.1243072012419
 30
0.0
 11
2135.4810423729541
 21
1627.524307201242
 31
0.0
  0
LINE
  5
14116
  8
HIDE
 10
2143.4810423729541
 20
1627.6743072012421
 30
0.0
 11
2143.4810423729541
 21
1601.974307201242
 31
0.0
  0
ARC
  5
14117
  8
HIDE
 10
2143.6310423729542
 20
1601.974307201242
 30
0.0
 40
0.1500000000000003
 50
180.0
 51
270.0
  0
ARC
  5
14118
  8
HIDE
 10
2151.1810423729539
 20
1602.1243072012419
 30
0.0
 40
0.3000000000000007
 50
270.0
 51
0.0
  0
ARC
  5
14119
  8
HIDE
 10
2143.7810423729552
 20
1609.524307201242
 30
0.0
 40
0.2999999999999998
 50
90.0
 51
180.0
  0
ARC
  5
1411A
  8
HIDE
 10
2143.7810423729552
 20
1620.1243072012419
 30
0.0
 40
0.2999999999999998
 50
180.0
 51
270.0
  0
ARC
  5
1411B
  8
HIDE
 10
2151.3310423729549
 20
1609.6743072012421
 30
0.0
 40
0.15
 50
0.0
 51
90.0
  0
ARC
  5
1411C
  8
HIDE
 10
2151.3310423729549
 20
1619.974307201242
 30
0.0
 40
0.1500000000000003
 50
270.0
 51
0.0
  0
ARC
  5
1411D
  8
HIDE
 10
2143.6310423729542
 20
1627.6743072012421
 30
0.0
 40
0.1500000000000003
 50
90.0
 51
180.0
  0
ARC
  5
1411E
  8
HIDE
 10
2151.1810423729539
 20
1627.524307201242
 30
0.0
 40
0.3
 50
0.0
 51
90.0
  0
LINE
  5
1411F
  8
HIDE
 10
2151.4810423729541
 20
1604.524307201242
 30
0.0
 11
2149.4984664731369
 21
1604.524307201242
 31
0.0
  0
LINE
  5
14120
  8
HIDE
 10
2151.1810423729539
 20
1601.8243072012419
 30
0.0
 11
2143.6310423729542
 21
1601.8243072012419
 31
0.0
  0
LINE
  5
14121
  8
HIDE
 10
2143.4810423729541
 20
1607.1243072012419
 30
0.0
 11
2145.4636182727709
 21
1607.1243072012419
 31
0.0
  0
LINE
  5
14122
  8
HIDE
 10
2146.6277668828629
 20
1603.581112840958
 30
0.0
 11
2143.4810423729541
 21
1603.274307201242
 31
0.0
  0
LINE
  5
14123
  8
HIDE
 10
2151.4810423729541
 20
1607.1243072012419
 30
0.0
 11
2149.4984664731369
 21
1607.1243072012419
 31
0.0
  0
LINE
  5
14124
  8
HIDE
 10
2151.4810423729541
 20
1622.524307201242
 30
0.0
 11
2149.4984664731369
 21
1622.524307201242
 31
0.0
  0
LINE
  5
14125
  8
HIDE
 10
2151.331042372954
 20
1609.8243072012419
 30
0.0
 11
2143.7810423729552
 21
1609.8243072012419
 31
0.0
  0
LINE
  5
14126
  8
HIDE
 10
2151.3310423729549
 20
1619.8243072012419
 30
0.0
 11
2143.7810423729552
 21
1619.8243072012419
 31
0.0
  0
LINE
  5
14127
  8
HIDE
 10
2143.4810423729541
 20
1622.524307201242
 30
0.0
 11
2145.4636182727709
 21
1622.524307201242
 31
0.0
  0
LINE
  5
14128
  8
HIDE
 10
2151.4810423729541
 20
1625.1243072012419
 30
0.0
 11
2149.4984664731369
 21
1625.1243072012419
 31
0.0
  0
LINE
  5
14129
  8
HIDE
 10
2143.6310423729542
 20
1627.8243072012419
 30
0.0
 11
2151.1810423729539
 21
1627.8243072012419
 31
0.0
  0
LINE
  5
1412A
  8
HIDE
 10
2146.6277668828629
 20
1626.0675015615259
 30
0.0
 11
2143.4810423729541
 21
1626.3743072012419
 31
0.0
  0
LINE
  5
1412B
  8
HIDE
 10
2151.4810423729541
 20
1627.524307201242
 30
0.0
 11
2151.4810423729541
 21
1602.1243072012419
 31
0.0
  0
LINE
  5
1412C
  8
HIDE
 10
2128.4810483729539
 20
1604.8243072012419
 30
0.0
 11
2129.9810423729541
 21
1604.8243072012419
 31
0.0
  0
LINE
  5
1412D
  8
HIDE
 10
2128.4810483729539
 20
1613.4100936388661
 30
0.0
 11
2129.9810423729541
 21
1613.4100936388661
 31
0.0
  0
LINE
  5
1412E
  8
HIDE
 10
2128.4810483729539
 20
1616.238520763618
 30
0.0
 11
2129.9810423729541
 21
1616.238520763618
 31
0.0
  0
LINE
  5
1412F
  8
HIDE
 10
2128.4810483729539
 20
1624.8243072012419
 30
0.0
 11
2129.9810423729541
 21
1624.8243072012419
 31
0.0
  0
ARC
  5
14133
  8
CENTER
 10
2073.5326309955071
 20
1614.8243072012419
 30
0.0
 40
17.0
 50
12.42914399999967
 51
38.653003000005612
  0
ARC
  5
14134
  8
CENTER
 10
2073.5326309955071
 20
1614.8243072012419
 30
0.0
 40
17.0
 50
282.27846400000902
 51
308.30470899998511
  0
ARC
  5
14135
  8
CENTER
 10
2073.5326309955071
 20
1614.8243072012419
 30
0.0
 40
17.0
 50
191.4631379999912
 51
217.37493499999391
  0
CIRCLE
  5
14136
  8
0
 10
2058.1253969955069
 20
1607.639800201242
 30
0.0
 40
2.75
  0
CIRCLE
  5
14137
  8
0
 10
2080.7171559955068
 20
1599.4170812012419
 30
0.0
 40
2.75
  0
CIRCLE
  5
14138
  8
0
 10
2088.9398619955068
 20
1622.0088202012421
 30
0.0
 40
2.75
  0
ARC
  5
14139
  8
CENTER
 10
2073.5326309955071
 20
1614.8243072012419
 30
0.0
 40
17.0
 50
103.01695099999461
 51
127.0253859999887
  0
CIRCLE
  5
1413A
  8
0
 10
2066.348105995507
 20
1630.2315322012421
 30
0.0
 40
2.75
  0
ARC
  5
1413B
  8
CENTER
 10
2073.5326309955071
 20
1614.8243072012419
 30
0.0
 40
21.0
 50
74.881722999991439
 51
103.1582249999899
  0
ARC
  5
1413C
  8
CENTER
 10
2073.5326309955071
 20
1614.8243072012419
 30
0.0
 40
21.0
 50
346.21805499999613
 51
14.126428000001351
  0
ARC
  5
1413D
  8
CENTER
 10
2073.5326309955071
 20
1614.8243072012419
 30
0.0
 40
21.0
 50
254.62176200000101
 51
283.85585899999552
  0
CIRCLE
  5
1413E
  8
0
 10
2094.5326169955069
 20
1614.8243072012419
 30
0.0
 40
2.25
  0
CIRCLE
  5
1413F
  8
0
 10
2073.5326309955071
 20
1593.824299201242
 30
0.0
 40
2.25
  0
CIRCLE
  5
14140
  8
0
 10
2052.532631995507
 20
1614.8243072012419
 30
0.0
 40
2.25
  0
CIRCLE
  5
14141
  8
0
 10
2073.5326309955071
 20
1635.8243032012419
 30
0.0
 40
2.25
  0
CIRCLE
  5
14142
  8
0
 10
2094.5326169955069
 20
1614.8243072012419
 30
0.0
 40
4.0
  0
CIRCLE
  5
14143
  8
0
 10
2073.5326309955071
 20
1593.824299201242
 30
0.0
 40
4.0
  0
CIRCLE
  5
14144
  8
0
 10
2052.532631995507
 20
1614.8243072012419
 30
0.0
 40
4.0
  0
CIRCLE
  5
14145
  8
0
 10
2073.5326309955071
 20
1635.8243032012419
 30
0.0
 40
4.0
  0
ARC
  5
14146
  8
CENTER
 10
2073.5326309955071
 20
1614.8243072012419
 30
0.0
 40
21.0
 50
165.508617000002
 51
194.0324990000066
  0
ARC
  5
14147
  8
0
 10
2073.5326309955071
 20
1614.8243072012419
 30
0.0
 40
26.0
 50
81.128932000013364
 51
98.87097699999525
  0
ARC
  5
14148
  8
0
 10
2073.5326309955071
 20
1614.8243072012419
 30
0.0
 40
26.0
 50
351.12892999998951
 51
8.8710570000126001
  0
ARC
  5
14149
  8
0
 10
2073.5326309955071
 20
1614.8243072012419
 30
0.0
 40
26.0
 50
261.12891000000991
 51
278.8710700000085
  0
ARC
  5
1414A
  8
0
 10
2073.5326309955071
 20
1614.8243072012419
 30
0.0
 40
26.0
 50
171.12902000001151
 51
188.87107000001049
  0
LINE
  5
1414B
  8
CENTER
 10
2082.3528109955068
 20
1595.9093332012419
 30
0.0
 11
2079.035527995507
 21
1603.0232692012421
 31
0.0
  0
LINE
  5
1414C
  8
CENTER
 10
2067.8252089955072
 20
1627.0638752012419
 30
0.0
 11
2064.8722869955068
 21
1633.396437201242
 31
0.0
  0
LINE
  5
1414D
  8
CENTER
 10
2054.6683689955071
 20
1606.0277612012419
 30
0.0
 11
2061.581592995507
 21
1609.2514502012421
 31
0.0
  0
LINE
  5
1414E
  8
CENTER
 10
2085.7149579955071
 20
1620.505023201242
 30
0.0
 11
2092.108091995507
 21
1623.4861902012419
 31
0.0
  0
LINE
  5
1414F
  8
0
 10
2090.1222119955069
 20
1621.180909201242
 30
0.0
 11
2090.2480189955072
 21
1622.6188812012419
 31
0.0
  0
LINE
  5
14150
  8
0
 10
2087.6317329955068
 20
1621.3988892012419
 30
0.0
 11
2087.7575249955071
 21
1622.836695201242
 31
0.0
  0
LINE
  5
14151
  8
0
 10
2090.2479769955071
 20
1622.618873201242
 30
0.0
 11
2089.065646995507
 21
1623.446749201242
 31
0.0
  0
LINE
  5
14152
  8
0
 10
2088.8140809955071
 20
1620.571055201242
 30
0.0
 11
2087.6317499955071
 21
1621.3989322012419
 31
0.0
  0
LINE
  5
14153
  8
0
 10
2089.0658099955072
 20
1623.4467852012419
 30
0.0
 11
2087.757529995507
 21
1622.836725201242
 31
0.0
  0
LINE
  5
14154
  8
0
 10
2090.1222049955072
 20
1621.1809452012419
 30
0.0
 11
2088.8142279955068
 21
1620.5710262012419
 31
0.0
  0
LINE
  5
14155
  8
0
 10
2087.7575119955068
 20
1622.836727201242
 30
0.0
 11
2087.6317059955072
 21
1621.3987542012419
 31
0.0
  0
LINE
  5
14156
  8
0
 10
2090.2479909955068
 20
1622.6187462012419
 30
0.0
 11
2090.122198995507
 21
1621.180940201242
 31
0.0
  0
LINE
  5
14157
  8
0
 10
2087.631715995507
 20
1621.3987232012421
 30
0.0
 11
2088.813995995507
 21
1620.5708812012419
 31
0.0
  0
LINE
  5
14158
  8
0
 10
2089.0655629955072
 20
1623.4466032012419
 30
0.0
 11
2090.247969995507
 21
1622.6186742012419
 31
0.0
  0
LINE
  5
14159
  8
0
 10
2088.813944995507
 20
1620.5708762012421
 30
0.0
 11
2090.122210995507
 21
1621.1809312012419
 31
0.0
  0
LINE
  5
1415A
  8
0
 10
2087.7575369955071
 20
1622.8367102012421
 30
0.0
 11
2089.065525995507
 21
1623.446636201242
 31
0.0
  0
LINE
  5
1415B
  8
0
 10
2079.8892419955068
 20
1598.2347132012419
 30
0.0
 11
2081.3271999955068
 21
1598.108908201242
 31
0.0
  0
LINE
  5
1415C
  8
0
 10
2080.1072069955062
 20
1600.7251932012421
 30
0.0
 11
2081.5450139955069
 21
1600.599401201242
 31
0.0
  0
LINE
  5
1415D
  8
0
 10
2081.3271739955071
 20
1598.1089422012419
 30
0.0
 11
2082.1550509955068
 21
1599.2912732012419
 31
0.0
  0
LINE
  5
1415E
  8
0
 10
2079.279368995507
 20
1599.5428312012421
 30
0.0
 11
2080.1072459955071
 21
1600.725162201242
 31
0.0
  0
LINE
  5
1415F
  8
CENTER
 10
2082.1551149955071
 20
1599.291108201242
 30
0.0
 11
2081.5450549955071
 21
1600.5993872012421
 31
0.0
  0
LINE
  5
14160
  8
0
 10
2079.8892749955062
 20
1598.2347132012419
 30
0.0
 11
2079.2793559955071
 21
1599.5426902012421
 31
0.0
  0
LINE
  5
14161
  8
0
 10
2081.5450449955069
 20
1600.599413201242
 30
0.0
 11
2080.1070719955069
 21
1600.7252202012421
 31
0.0
  0
LINE
  5
14162
  8
0
 10
2081.3270799955071
 20
1598.1089332012421
 30
0.0
 11
2079.8892739955072
 21
1598.234726201242
 31
0.0
  0
LINE
  5
14163
  8
0
 10
2080.1070309955062
 20
1600.7252002012419
 30
0.0
 11
2079.2791929955069
 21
1599.5429262012419
 31
0.0
  0
LINE
  5
14164
  8
0
 10
2082.1549219955068
 20
1599.2913552012419
 30
0.0
 11
2081.3269929955072
 21
1598.1089482012419
 31
0.0
  0
LINE
  5
14165
  8
0
 10
2079.279199995507
 20
1599.5429872012421
 30
0.0
 11
2079.8892609955069
 21
1598.2347072012419
 31
0.0
  0
LINE
  5
14166
  8
CENTER
 10
2081.5450399955071
 20
1600.5993812012421
 30
0.0
 11
2082.1549599955069
 21
1599.291405201242
 31
0.0
  0
LINE
  5
14167
  8
0
 10
2056.9430249955071
 20
1608.4676932012419
 30
0.0
 11
2056.817219995507
 21
1607.0297272012419
 31
0.0
  0
LINE
  5
14168
  8
0
 10
2059.4335039955058
 20
1608.2497202012421
 30
0.0
 11
2059.3077129955068
 21
1606.811914201242
 31
0.0
  0
LINE
  5
14169
  8
0
 10
2056.8172449955068
 20
1607.029746201242
 30
0.0
 11
2057.9995749955069
 21
1606.2018692012421
 31
0.0
  0
LINE
  5
1416A
  8
0
 10
2058.2511369955068
 20
1609.0775572012419
 30
0.0
 11
2059.4334679955068
 21
1608.249680201242
 31
0.0
  0
LINE
  5
1416B
  8
0
 10
2057.9994309955068
 20
1606.201815201242
 30
0.0
 11
2059.3077109955061
 21
1606.8118772012419
 31
0.0
  0
LINE
  5
1416C
  8
0
 10
2056.943037995507
 20
1608.467655201242
 30
0.0
 11
2058.2510129955072
 21
1609.0775752012421
 31
0.0
  0
LINE
  5
1416D
  8
0
 10
2065.7380479955068
 20
1631.5396772012421
 30
0.0
 11
2064.9101709955062
 21
1630.3573462012421
 31
0.0
  0
LINE
  5
1416E
  8
0
 10
2067.7858649955069
 20
1630.1057792012421
 30
0.0
 11
2066.9579879955072
 21
1628.9234482012421
 31
0.0
  0
LINE
  5
1416F
  8
0
 10
2066.9580299955069
 20
1628.9234162012419
 30
0.0
 11
2065.520223995507
 21
1629.0492072012421
 31
0.0
  0
LINE
  5
14170
  8
0
 10
2077.5421339955069
 20
1589.1353112012421
 30
0.0
 11
2099.2216099955072
 21
1610.814788201242
 31
0.0
  0
LINE
  5
14171
  8
0
 10
2064.9101509955071
 20
1630.3574732012421
 30
0.0
 11
2065.5202059955068
 21
1629.0492072012421
 31
0.0
  0
LINE
  5
14172
  8
0
 10
2058.2513169955068
 20
1609.077717201242
 30
0.0
 11
2056.943037995507
 21
1608.467655201242
 31
0.0
  0
LINE
  5
14173
  8
0
 10
2067.1760109955071
 20
1631.413893201242
 30
0.0
 11
2065.7380519955068
 21
1631.5396982012419
 31
0.0
  0
LINE
  5
14174
  8
0
 10
2059.3077109955061
 20
1606.8118772012419
 30
0.0
 11
2057.999734995507
 21
1606.2019572012421
 31
0.0
  0
LINE
  5
14175
  8
0
 10
2067.1759859955068
 20
1631.4138802012419
 30
0.0
 11
2067.7859119955069
 21
1630.105891201242
 31
0.0
  0
LINE
  5
14176
  8
0
 10
2065.5201919955061
 20
1629.0491952012419
 30
0.0
 11
2066.9581809955071
 21
1628.9233872012419
 31
0.0
  0
LINE
  5
14177
  8
0
 10
2066.9582029955068
 20
1628.9234102012419
 30
0.0
 11
2067.7860359955062
 21
1630.105678201242
 31
0.0
  0
LINE
  5
14178
  8
0
 10
2065.7381729955068
 20
1631.5396732012421
 30
0.0
 11
2067.1759789955072
 21
1631.4138822012419
 31
0.0
  0
LINE
  5
14179
  8
0
 10
2064.910312995507
 20
1630.357255201242
 30
0.0
 11
2065.738241995507
 21
1631.539662201242
 31
0.0
  0
LINE
  5
1417A
  8
0
 10
2067.7860469955071
 20
1630.1056012012421
 30
0.0
 11
2067.1759859955068
 21
1631.4138802012419
 31
0.0
  0
LINE
  5
1417B
  8
0
 10
2077.542101995507
 20
1640.513295201242
 30
0.0
 11
2099.2216099955072
 21
1618.833786201242
 31
0.0
  0
LINE
  5
1417C
  8
0
 10
2047.8436169955071
 20
1610.814809201242
 30
0.0
 11
2069.5231149955071
 21
1589.1353112012421
 31
0.0
  0
LINE
  5
1417D
  8
0
 10
2047.8436379955069
 20
1618.833764201242
 30
0.0
 11
2069.5231579955071
 21
1640.5132832012421
 31
0.0
  0
LINE
  5
1417E
  8
0
 10
2056.8172599955069
 20
1607.0298532012421
 30
0.0
 11
2056.9430529955071
 21
1608.4676602012421
 31
0.0
  0
LINE
  5
1417F
  8
0
 10
2059.3077399955068
 20
1606.811880201242
 30
0.0
 11
2059.4335459955068
 21
1608.249854201242
 31
0.0
  0
LINE
  5
14180
  8
0
 10
2057.9996669955071
 20
1606.2020002012421
 30
0.0
 11
2056.8172619955071
 21
1607.0299292012421
 31
0.0
  0
LINE
  5
14181
  8
0
 10
2059.4335069955068
 20
1608.249895201242
 30
0.0
 11
2058.2512379955069
 21
1609.0777292012419
 31
0.0
  0
LINE
  5
14182
  8
0
 10
2065.5202059955068
 20
1629.0492072012421
 30
0.0
 11
2064.9102869955068
 21
1630.3571832012419
 31
0.0
  0
LINE
  5
14183
  8
CENTER
 10
2062.5054800137818
 20
1614.8243072012419
 30
0.0
 11
2084.5597819772311
 21
1614.8243072012419
 31
0.0
  0
LINE
  5
14184
  8
CENTER
 10
2073.5326309955071
 20
1625.851458182967
 30
0.0
 11
2073.5326309955071
 21
1603.7971562195171
 31
0.0
  0
ARC
  5
14185
  8
0
 10
2073.5326309955071
 20
1614.8243072012419
 30
0.0
 40
10.0
 50
81.869897645832978
 51
98.130102354167036
  0
ARC
  5
14186
  8
0
 10
2073.5326309955071
 20
1614.8243072012419
 30
0.0
 40
10.0
 50
171.86989764583291
 51
188.13010235416701
  0
ARC
  5
14187
  8
0
 10
2073.5326309955071
 20
1614.8243072012419
 30
0.0
 40
10.0
 50
261.86989764583291
 51
278.13010235416698
  0
ARC
  5
14188
  8
0
 10
2073.5326309955071
 20
1614.8243072012419
 30
0.0
 40
10.0
 50
351.86989764583302
 51
8.1301023541670325
  0
POLYLINE
  5
14189
  8
0
 66
     1
 10
0.0
 20
0.0
 30
0.0
  0
VERTEX
  5
14275
  8
0
 10
2083.4321259321182
 20
1616.238520763615
 30
0.0
  0
VERTEX
  5
14276
  8
0
 10
2074.94684455788
 20
1624.723802137853
 30
0.0
  0
SEQEND
  5
14277
  8
0
  0
POLYLINE
  5
1418A
  8
0
 66
     1
 10
0.0
 20
0.0
 30
0.0
  0
VERTEX
  5
14278
  8
0
 10
2072.1184174331329
 20
1624.723802137856
 30
0.0
  0
VERTEX
  5
14279
  8
0
 10
2063.6331360588952
 20
1616.238520763615
 30
0.0
  0
SEQEND
  5
1427A
  8
0
  0
POLYLINE
  5
1418B
  8
0
 66
     1
 10
0.0
 20
0.0
 30
0.0
  0
VERTEX
  5
1427B
  8
0
 10
2063.6331360588952
 20
1613.4100936388691
 30
0.0
  0
VERTEX
  5
1427C
  8
0
 10
2072.1184174331329
 20
1604.9248122646311
 30
0.0
  0
SEQEND
  5
1427D
  8
0
  0
POLYLINE
  5
1418C
  8
0
 66
     1
 10
0.0
 20
0.0
 30
0.0
  0
VERTEX
  5
1427E
  8
0
 10
2074.94684455788
 20
1604.9248122646311
 30
0.0
  0
VERTEX
  5
1427F
  8
0
 10
2083.4321259321182
 20
1613.4100936388691
 30
0.0
  0
SEQEND
  5
14280
  8
0
  0
ARC
  5
1418D
  8
HIDE
 10
2073.5326309955071
 20
1614.8243072012419
 30
0.0
 40
5.0
 50
270.0
 51
180.0
  0
CIRCLE
  5
1418E
  8
0
 10
2073.5326309955071
 20
1614.8243072012419
 30
0.0
 40
4.5
  0
LINE
  5
1418F
  8
HIDE
 10
2075.0326309955071
 20
1624.638015700227
 30
0.0
 11
2075.0326309955071
 21
1619.066947888361
 31
0.0
  0
LINE
  5
14190
  8
HIDE
 10
2074.7826309955071
 20
1624.7458746177349
 30
0.0
 11
2074.7826309955071
 21
1619.1472113176901
 31
0.0
  0
LINE
  5
14191
  8
HIDE
 10
2072.032630995508
 20
1624.63801570023
 30
0.0
 11
2072.0326309955112
 21
1619.0669478883631
 31
0.0
  0
LINE
  5
14192
  8
HIDE
 10
2072.2826309955071
 20
1624.7458746177349
 30
0.0
 11
2072.2826309955049
 21
1619.1472113176901
 31
0.0
  0
LINE
  5
14193
  8
HIDE
 10
2072.0326309955112
 20
1621.2973323350791
 30
0.0
 11
2075.0326309955099
 21
1621.2973323350791
 31
0.0
  0
LINE
  5
14194
  8
HIDE
 10
2072.0326309955112
 20
1624.2973323350791
 30
0.0
 11
2075.0326309955099
 21
1624.2973323350791
 31
0.0
  0
LINE
  5
14195
  8
HIDE
 10
2072.0326309955112
 20
1621.297332335077
 30
0.0
 11
2072.2826309955071
 21
1621.152994767782
 31
0.0
  0
LINE
  5
14196
  8
HIDE
 10
2075.0326309955071
 20
1621.297332335078
 30
0.0
 11
2074.7826309955071
 21
1621.1529947677809
 31
0.0
  0
LINE
  5
14197
  8
HIDE
 10
2072.2826309955071
 20
1621.152994767782
 30
0.0
 11
2074.7826309955071
 21
1621.1529947677809
 31
0.0
  0
LINE
  5
14198
  8
CENTER
 10
2043.5326309955069
 20
1614.8243072012419
 30
0.0
 11
2103.5326309955071
 21
1614.8243072012419
 31
0.0
  0
LINE
  5
14199
  8
CENTER
 10
2073.5326309955071
 20
1584.8243072012419
 30
0.0
 11
2073.5326309955071
 21
1644.8243072012419
 31
0.0
  0
CIRCLE
  5
1419A
  8
0
 10
2073.5326309955071
 20
1614.8243072012419
 30
0.0
 40
11.0
  0
ENDSEC
  0
EOF
