  0
SECTION
  2
HEADER
  9
$ACADVER
  1
AC1009
  9
$INSBASE
 10
0.0
 20
0.0
 30
0.0
  9
$EXTMIN
 10
1903.0405749290021
 20
1433.173578249188
 30
0.0
  9
$EXTMAX
 10
2348.540574929003
 20
1748.173578249188
 30
0.0
  9
$LIMMIN
 10
0.0
 20
0.0
  9
$LIMMAX
 10
12.0
 20
9.0
  9
$ORTHOMODE
 70
     1
  9
$REGENMODE
 70
     1
  9
$FILLMODE
 70
     1
  9
$QTEXTMODE
 70
     0
  9
$MIRRTEXT
 70
     0
  9
$DRAGMODE
 70
     2
  9
$LTSCALE
 40
5.0
  9
$OSMODE
 70
  2239
  9
$ATTMODE
 70
     1
  9
$TEXTSIZE
 40
2.5
  9
$TRACEWID
 40
0.05
  9
$TEXTSTYLE
  7
BIG
  9
$CLAYER
  8
0
  9
$CELTYPE
  6
BYLAYER
  9
$CECOLOR
 62
   256
  9
$DIMSCALE
 40
1.0
  9
$DIMASZ
 40
3.0
  9
$DIMEXO
 40
1.0
  9
$DIMDLI
 40
0.0
  9
$DIMRND
 40
0.0
  9
$DIMDLE
 40
0.0
  9
$DIMEXE
 40
1.0
  9
$DIMTP
 40
0.0
  9
$DIMTM
 40
0.0
  9
$DIMTXT
 40
3.0
  9
$DIMCEN
 40
0.0
  9
$DIMTSZ
 40
0.0
  9
$DIMTOL
 70
     0
  9
$DIMLIM
 70
     0
  9
$DIMTIH
 70
     0
  9
$DIMTOH
 70
     0
  9
$DIMSE1
 70
     0
  9
$DIMSE2
 70
     0
  9
$DIMTAD
 70
     1
  9
$DIMZIN
 70
     8
  9
$DIMBLK
  1

  9
$DIMASO
 70
     1
  9
$DIMSHO
 70
     1
  9
$DIMPOST
  1

  9
$DIMAPOST
  1

  9
$DIMALT
 70
     0
  9
$DIMALTD
 70
     2
  9
$DIMALTF
 40
25.399999999999999
  9
$DIMLFAC
 40
1.0
  9
$DIMTOFL
 70
     1
  9
$DIMTVP
 40
0.0
  9
$DIMTIX
 70
     1
  9
$DIMSOXD
 70
     0
  9
$DIMSAH
 70
     0
  9
$DIMBLK1
  1

  9
$DIMBLK2
  1

  9
$DIMSTYLE
  2
DUKITEC
  9
$DIMCLRD
 70
     5
  9
$DIMCLRE
 70
     5
  9
$DIMCLRT
 70
     0
  9
$DIMTFAC
 40
1.0
  9
$DIMGAP
 40
1.0
  9
$LUNITS
 70
     2
  9
$LUPREC
 70
     4
  9
$SKETCHINC
 40
0.1
  9
$FILLETRAD
 40
0.2
  9
$AUNITS
 70
     0
  9
$AUPREC
 70
     0
  9
$MENU
  1
.
  9
$ELEVATION
 40
0.0
  9
$PELEVATION
 40
0.0
  9
$THICKNESS
 40
0.0
  9
$LIMCHECK
 70
     0
  9
$BLIPMODE
 70
     0
  9
$CHAMFERA
 40
0.5
  9
$CHAMFERB
 40
0.5
  9
$SKPOLY
 70
     0
  9
$TDCREATE
 40
2454396.719384213
  9
$TDUPDATE
 40
2456630.7788964231
  9
$TDINDWG
 40
0.0019077199
  9
$TDUSRTIMER
 40
0.0019076505
  9
$USRTIMER
 70
     1
  9
$ANGBASE
 50
0.0
  9
$ANGDIR
 70
     0
  9
$PDMODE
 70
     0
  9
$PDSIZE
 40
0.0
  9
$PLINEWID
 40
0.0
  9
$COORDS
 70
     1
  9
$SPLFRAME
 70
     0
  9
$SPLINETYPE
 70
     6
  9
$SPLINESEGS
 70
     8
  9
$ATTDIA
 70
     0
  9
$ATTREQ
 70
     1
  9
$HANDLING
 70
     1
  9
$HANDSEED
  5
143C9
  9
$SURFTAB1
 70
     6
  9
$SURFTAB2
 70
     6
  9
$SURFTYPE
 70
     6
  9
$SURFU
 70
     6
  9
$SURFV
 70
     6
  9
$UCSNAME
  2

  9
$UCSORG
 10
0.0
 20
0.0
 30
0.0
  9
$UCSXDIR
 10
1.0
 20
0.0
 30
0.0
  9
$UCSYDIR
 10
0.0
 20
1.0
 30
0.0
  9
$PUCSNAME
  2

  9
$PUCSORG
 10
0.0
 20
0.0
 30
0.0
  9
$PUCSXDIR
 10
1.0
 20
0.0
 30
0.0
  9
$PUCSYDIR
 10
0.0
 20
1.0
 30
0.0
  9
$USERI1
 70
     0
  9
$USERI2
 70
     0
  9
$USERI3
 70
     0
  9
$USERI4
 70
     0
  9
$USERI5
 70
     0
  9
$USERR1
 40
0.0
  9
$USERR2
 40
0.0
  9
$USERR3
 40
0.0
  9
$USERR4
 40
0.0
  9
$USERR5
 40
0.0
  9
$WORLDVIEW
 70
     1
  9
$SHADEDGE
 70
     3
  9
$SHADEDIF
 70
    70
  9
$TILEMODE
 70
     1
  9
$MAXACTVP
 70
    64
  9
$PLIMCHECK
 70
     0
  9
$PEXTMIN
 10
0.0
 20
0.0
 30
0.0
  9
$PEXTMAX
 10
0.0
 20
0.0
 30
0.0
  9
$PLIMMIN
 10
0.0
 20
0.0
  9
$PLIMMAX
 10
12.0
 20
9.0
  9
$UNITMODE
 70
     0
  9
$VISRETAIN
 70
     1
  9
$PLINEGEN
 70
     0
  9
$PSLTSCALE
 70
     1
  0
ENDSEC
  0
SECTION
  2
TABLES
  0
TABLE
  2
VPORT
 70
     1
  0
VPORT
  2
*ACTIVE
 70
     0
 10
0.0
 20
0.0
 11
1.0
 21
1.0
 12
2106.9405617972639
 22
1614.106483494081
 13
0.0
 23
0.0
 14
0.5
 24
0.5
 15
0.5
 25
0.5
 16
0.0
 26
0.0
 36
1.0
 17
0.0
 27
0.0
 37
0.0
 40
146.4881992007908
 41
2.1408934707903771
 42
50.0
 43
0.0
 44
0.0
 50
0.0
 51
0.0
 71
     0
 72
  2000
 73
     1
 74
     3
 75
     0
 76
     0
 77
     0
 78
     0
  0
ENDTAB
  0
TABLE
  2
LTYPE
 70
     5
  0
LTYPE
  2
CONTINUOUS
 70
     0
  3
Solid line
 72
    65
 73
     0
 40
0.0
  0
LTYPE
  2
PHANTOM2
 70
     0
  3
Phantom (.5x) ___ _ _ ___ _ _ ___ _ _ ___ _ _
 72
    65
 73
     6
 40
1.25
 49
0.625
 49
-0.125
 49
0.125
 49
-0.125
 49
0.125
 49
-0.125
  0
LTYPE
  2
CENTER
 70
     0
  3
___ _ ___ _ ___ _ ___ _ ___ _ ___ _ ___ _ ___ _
 72
    65
 73
     4
 40
0.95
 49
0.625
 49
-0.125
 49
0.075
 49
-0.125
  0
LTYPE
  2
DASHED2
 70
     0
  3
Dashed (.5x) _ _ _ _ _ _ _ _ _ _ _ _ _ _ _ _ _
 72
    65
 73
     2
 40
0.375
 49
0.25
 49
-0.125
  0
ENDTAB
  0
TABLE
  2
LAYER
 70
     4
  0
LAYER
  2
0
 70
     0
 62
     7
  6
CONTINUOUS
  0
LAYER
  2
HIDE
 70
     0
 62
     1
  6
DASHED2
  0
LAYER
  2
CENTER
 70
     0
 62
     3
  6
CENTER
  0
ENDTAB
  0
TABLE
  2
STYLE
 70
     3
  0
STYLE
  2
STANDARD
 70
     0
 40
5.0
 41
1.0
 50
0.0
 71
     0
 42
5.0
  3
txt.shx
  4
whgtxt.shx
  0
STYLE
  2
BIG
 70
     0
 40
20.0
 41
1.0
 50
0.0
 71
     0
 42
2.5
  3
txt
  4

  0
ENDTAB
  0
TABLE
  2
VIEW
 70
     0
  0
ENDTAB
  0
TABLE
  2
UCS
 70
     0
  0
ENDTAB
  0
TABLE
  2
APPID
 70
    11
  0
APPID
  2
ACAD
 70
     0
  0
APPID
  2
ACADANNOTATIVE
 70
     0
  0
APPID
  2
ACAD_EXEMPT_FROM_CAD_STANDARDS
 70
     0
  0
APPID
  2
ACAD_DSTYLE_DIMJOGGED_JOGA
 70
     0
  0
APPID
  2
ACAD_PSEXT
 70
     0
  0
APPID
  2
ACAECLAYERSTANDARD
 70
     0
  0
APPID
  2
DCO15
 70
     0
  0
APPID
  2
CONTENTBLOCKICON
 70
     0
  0
APPID
  2
ACAD_DSTYLE_DIMRADIAL_EXTENSION
 70
     0
  0
APPID
  2
ACAD_NAV_VCDISPLAY
 70
     0
  0
APPID
  2
ACAD_MLEADERVER
 70
     0
  0
ENDTAB
  0
TABLE
  2
DIMSTYLE
 70
     4
  0
DIMSTYLE
  2
DUKITEC
 70
     0
  3

  4

  5

  6

  7

 40
1.0
 41
3.0
 42
1.0
 43
0.0
 44
1.0
 45
0.0
 46
0.0
 47
0.0
 48
0.0
140
3.0
141
0.0
142
0.0
143
25.399999999999999
144
1.0
145
0.0
146
1.0
147
1.0
 71
     0
 72
     0
 73
     0
 74
     0
 75
     0
 76
     0
 77
     1
 78
     8
170
     0
171
     2
172
     1
173
     0
174
     1
175
     0
176
     5
177
     5
178
     0
  0
ENDTAB
  0
ENDSEC
  0
SECTION
  2
BLOCKS
  0
BLOCK
  8
0
  2
$MODEL_SPACE
 70
     0
 10
0.0
 20
0.0
 30
0.0
  3
$MODEL_SPACE
  1

  0
ENDBLK
  5
14195
  8
0
  0
BLOCK
 67
     1
  8
0
  2
$PAPER_SPACE
 70
     0
 10
0.0
 20
0.0
 30
0.0
  3
$PAPER_SPACE
  1

  0
ENDBLK
  5
14191
 67
     1
  8
0
  0
ENDSEC
  0
SECTION
  2
ENTITIES
  0
TEXT
  5
140E2
  8
0
 10
2076.7441664971602
 20
1544.401000839734
 30
0.0
 40
20.0
  1
FK 17
  7
BIG
  0
LINE
  5
141B7
  8
HIDE
 10
2152.0986934533048
 20
1604.1562928708379
 30
0.0
 11
2164.0986934533039
 21
1604.1562928708379
 31
0.0
  0
LINE
  5
141B8
  8
HIDE
 10
2142.0986934533039
 20
1606.3562928708379
 30
0.0
 11
2152.0986934533048
 21
1606.3562928708379
 31
0.0
  0
LINE
  5
141B9
  8
HIDE
 10
2142.0986934533039
 20
1595.3562928708379
 30
0.0
 11
2152.0986934533048
 21
1595.3562928708379
 31
0.0
  0
LINE
  5
141BA
  8
HIDE
 10
2152.0986934533048
 20
1597.5562928708371
 30
0.0
 11
2164.0986934533039
 21
1597.5562928708371
 31
0.0
  0
LINE
  5
141BB
  8
HIDE
 10
2142.0986934533039
 20
1657.3562928708379
 30
0.0
 11
2152.0986934533048
 21
1657.3562928708379
 31
0.0
  0
LINE
  5
141BC
  8
HIDE
 10
2152.0986934533048
 20
1659.556292870838
 30
0.0
 11
2164.0986934533039
 21
1659.556292870838
 31
0.0
  0
LINE
  5
141BD
  8
HIDE
 10
2152.0986934533048
 20
1666.1562928708379
 30
0.0
 11
2164.0986934533039
 21
1666.1562928708379
 31
0.0
  0
LINE
  5
141BE
  8
HIDE
 10
2142.0986934533039
 20
1668.3562928708379
 30
0.0
 11
2152.0986934533048
 21
1668.3562928708379
 31
0.0
  0
LINE
  5
141BF
  8
CENTER
 10
2167.2220814479401
 20
1600.8562928708379
 30
0.0
 11
2139.11806038534
 21
1600.8562928708379
 31
0.0
  0
LINE
  5
141C0
  8
CENTER
 10
2167.2220814479401
 20
1662.8562928708379
 30
0.0
 11
2139.11806038534
 21
1662.8562928708379
 31
0.0
  0
LINE
  5
141C1
  8
0
 10
2152.0986934533048
 20
1670.3562928708379
 30
0.0
 11
2164.0986934533039
 21
1670.3562928708379
 31
0.0
  0
LINE
  5
141C2
  8
0
 10
2142.0986934533039
 20
1670.3562928708379
 30
0.0
 11
2152.0986934533048
 21
1670.3562928708379
 31
0.0
  0
LINE
  5
141C3
  8
0
 10
2152.0986934533048
 20
1593.3562928708379
 30
0.0
 11
2164.0986934533039
 21
1593.3562928708379
 31
0.0
  0
LINE
  5
141C4
  8
0
 10
2142.0986934533039
 20
1593.3562928708379
 30
0.0
 11
2152.0986934533048
 21
1593.3562928708379
 31
0.0
  0
LINE
  5
141C5
  8
0
 10
2135.0986934533039
 20
1617.8562928708379
 30
0.0
 11
2142.0986934533039
 21
1617.8562928708379
 31
0.0
  0
LINE
  5
141C6
  8
0
 10
2135.0986934533039
 20
1645.8562928708379
 30
0.0
 11
2142.0986934533039
 21
1645.8562928708379
 31
0.0
  0
LINE
  5
141C7
  8
CENTER
 10
2192.1090034476661
 20
1631.8562928708379
 30
0.0
 11
2130.7765637998141
 21
1631.8562928708379
 31
0.0
  0
LINE
  5
141C8
  8
HIDE
 10
2187.0986934533039
 20
1623.356292870837
 30
0.0
 11
2178.098693453303
 21
1623.356292870837
 31
0.0
  0
LINE
  5
141C9
  8
HIDE
 10
2154.0986934533039
 20
1623.356292870837
 30
0.0
 11
2145.0986934533039
 21
1623.3562928708379
 31
0.0
  0
LINE
  5
141CA
  8
HIDE
 10
2187.0986934533039
 20
1640.356292870837
 30
0.0
 11
2178.098693453303
 21
1640.3562928708379
 31
0.0
  0
LINE
  5
141CB
  8
HIDE
 10
2154.0986934533039
 20
1640.3562928708379
 30
0.0
 11
2145.0986934533039
 21
1640.3562928708379
 31
0.0
  0
LINE
  5
141CC
  8
HIDE
 10
2187.0986934533039
 20
1621.3562928708379
 30
0.0
 11
2178.098693453303
 21
1621.3562928708379
 31
0.0
  0
LINE
  5
141CD
  8
HIDE
 10
2154.0986934533039
 20
1621.3562928708379
 30
0.0
 11
2145.0986934533039
 21
1621.3562928708379
 31
0.0
  0
LINE
  5
141CE
  8
HIDE
 10
2187.0986934533039
 20
1642.356292870837
 30
0.0
 11
2178.098693453303
 21
1642.356292870837
 31
0.0
  0
LINE
  5
141CF
  8
HIDE
 10
2154.0986934533039
 20
1642.356292870837
 30
0.0
 11
2145.0986934533039
 21
1642.3562928708379
 31
0.0
  0
LINE
  5
141D0
  8
0
 10
2142.0986934533039
 20
1637.8667298708381
 30
0.0
 11
2164.0986934533039
 21
1637.8667298708381
 31
0.0
  0
LINE
  5
141D1
  8
0
 10
2142.0986934533039
 20
1625.845855870838
 30
0.0
 11
2164.0986934533039
 21
1625.845855870838
 31
0.0
  0
LINE
  5
141D2
  8
0
 10
2187.0986934533039
 20
1656.8562928708379
 30
0.0
 11
2187.0986934533039
 21
1606.8562928708379
 31
0.0
  0
LINE
  5
141D3
  8
0
 10
2152.0986934533048
 20
1670.3562928708379
 30
0.0
 11
2152.0986934533048
 21
1593.3562928708379
 31
0.0
  0
LINE
  5
141D4
  8
0
 10
2187.0986934533039
 20
1656.8562928708379
 30
0.0
 11
2164.0986934533039
 21
1656.8562928708379
 31
0.0
  0
LINE
  5
141D5
  8
0
 10
2187.0986934533039
 20
1606.8562928708379
 30
0.0
 11
2164.0986934533039
 21
1606.8562928708379
 31
0.0
  0
LINE
  5
141D6
  8
0
 10
2164.0986934533039
 20
1670.3562928708379
 30
0.0
 11
2164.0986934533039
 21
1593.3562928708379
 31
0.0
  0
LINE
  5
141D7
  8
0
 10
2142.0986934533039
 20
1670.3562928708379
 30
0.0
 11
2142.0986934533039
 21
1593.3562928708379
 31
0.0
  0
LINE
  5
141DA
  8
0
 10
2135.0986934533039
 20
1617.8562928708379
 30
0.0
 11
2135.0986934533039
 21
1645.8562928708379
 31
0.0
  0
POINT
  5
141DB
  8
0
 10
2187.0986934533039
 20
1631.8562928708379
 30
0.0
  0
POINT
  5
141DC
  8
0
 10
2187.0986934533039
 20
1631.8562928708379
 30
0.0
  0
LINE
  5
141DD
  8
HIDE
 10
2145.0986934533039
 20
1643.3562928708379
 30
0.0
 11
2145.0986934533039
 21
1620.3562928708379
 31
0.0
  0
LINE
  5
141DE
  8
CENTER
 10
2140.0986934533048
 20
1647.0975975027179
 30
0.0
 11
2140.0986934533048
 21
1638.3816669609
 31
0.0
  0
LINE
  5
141DF
  8
HIDE
 10
2137.5986934533021
 20
1645.8562928708379
 30
0.0
 11
2137.5986934533012
 21
1639.8562928708379
 31
0.0
  0
LINE
  5
141E0
  8
HIDE
 10
2137.9986934533022
 20
1645.8562928708379
 30
0.0
 11
2137.9986934533022
 21
1639.8562928708379
 31
0.0
  0
LINE
  5
141E1
  8
HIDE
 10
2142.598693453303
 20
1645.8562928708379
 30
0.0
 11
2142.5986934533012
 21
1639.8562928708379
 31
0.0
  0
LINE
  5
141E2
  8
HIDE
 10
2142.1986934533029
 20
1645.8562928708379
 30
0.0
 11
2142.1986934533029
 21
1639.8562928708379
 31
0.0
  0
LINE
  5
141E3
  8
HIDE
 10
2144.5986934533039
 20
1645.8562928708379
 30
0.0
 11
2144.5986934533039
 21
1617.8562928708379
 31
0.0
  0
LINE
  5
141E4
  8
0
 10
2135.0986934533039
 20
1645.8562928708379
 30
0.0
 11
2135.0986934533039
 21
1617.8562928708379
 31
0.0
  0
LINE
  5
141E5
  8
0
 10
2142.0986934533039
 20
1645.8562928708379
 30
0.0
 11
2135.0986934533039
 21
1645.8562928708379
 31
0.0
  0
LINE
  5
141E6
  8
CENTER
 10
2147.553144700888
 20
1631.8562928708379
 30
0.0
 11
2134.0834921756591
 21
1631.8562928708379
 31
0.0
  0
LINE
  5
141E7
  8
HIDE
 10
2145.0986934533039
 20
1643.3562928708379
 30
0.0
 11
2144.5986934533039
 21
1643.6449680054341
 31
0.0
  0
LINE
  5
141E8
  8
HIDE
 10
2145.0986934533039
 20
1639.8562928708379
 30
0.0
 11
2135.0986934533039
 21
1639.8562928708379
 31
0.0
  0
LINE
  5
141E9
  8
HIDE
 10
2145.0986934533039
 20
1640.3562928708379
 30
0.0
 11
2135.0986934533039
 21
1640.3562928708379
 31
0.0
  0
LINE
  5
141EA
  8
HIDE
 10
2142.598693453303
 20
1645.570783806179
 30
0.0
 11
2137.5986934533021
 21
1645.570783806181
 31
0.0
  0
LINE
  5
141EB
  8
HIDE
 10
2142.5986934533012
 20
1641.570783806179
 30
0.0
 11
2137.5986934533012
 21
1641.570783806181
 31
0.0
  0
LINE
  5
141EC
  8
HIDE
 10
2142.5986934533012
 20
1641.570783806179
 30
0.0
 11
2142.1986934533029
 21
1641.339843698504
 31
0.0
  0
LINE
  5
141ED
  8
HIDE
 10
2137.5986934533098
 20
1641.570783806186
 30
0.0
 11
2137.9986934533058
 21
1641.339843698511
 31
0.0
  0
LINE
  5
141EE
  8
HIDE
 10
2142.1986934533029
 20
1641.339843698504
 30
0.0
 11
2137.9986934533022
 21
1641.339843698504
 31
0.0
  0
LINE
  5
141EF
  8
0
 10
2142.0986934533039
 20
1635.2425547314831
 30
0.0
 11
2135.0986934533039
 21
1635.2425547314831
 31
0.0
  0
LINE
  5
141F0
  8
CENTER
 10
2140.0986934533048
 20
1616.6149882389579
 30
0.0
 11
2140.0986934533048
 21
1625.3309187807749
 31
0.0
  0
LINE
  5
141F1
  8
HIDE
 10
2137.5986934533021
 20
1617.8562928708379
 30
0.0
 11
2137.5986934533012
 21
1623.8562928708379
 31
0.0
  0
LINE
  5
141F2
  8
HIDE
 10
2137.9986934533022
 20
1617.8562928708379
 30
0.0
 11
2137.9986934533022
 21
1623.8562928708379
 31
0.0
  0
LINE
  5
141F3
  8
HIDE
 10
2142.598693453303
 20
1617.8562928708379
 30
0.0
 11
2142.5986934533012
 21
1623.8562928708379
 31
0.0
  0
LINE
  5
141F4
  8
HIDE
 10
2142.1986934533029
 20
1617.8562928708379
 30
0.0
 11
2142.1986934533029
 21
1623.8562928708379
 31
0.0
  0
LINE
  5
141F5
  8
0
 10
2142.0986934533039
 20
1617.8562928708379
 30
0.0
 11
2135.0986934533039
 21
1617.8562928708379
 31
0.0
  0
LINE
  5
141F6
  8
HIDE
 10
2145.0986934533039
 20
1620.3562928708379
 30
0.0
 11
2144.5986934533039
 21
1620.067617736242
 31
0.0
  0
LINE
  5
141F7
  8
HIDE
 10
2145.0986934533039
 20
1623.8562928708379
 30
0.0
 11
2135.0986934533039
 21
1623.8562928708379
 31
0.0
  0
LINE
  5
141F8
  8
HIDE
 10
2145.0986934533039
 20
1623.3562928708379
 30
0.0
 11
2135.0986934533039
 21
1623.3562928708379
 31
0.0
  0
LINE
  5
141F9
  8
HIDE
 10
2142.598693453303
 20
1618.1418019354969
 30
0.0
 11
2137.5986934533021
 21
1618.1418019354951
 31
0.0
  0
LINE
  5
141FA
  8
HIDE
 10
2142.5986934533012
 20
1622.1418019354969
 30
0.0
 11
2137.5986934533012
 21
1622.1418019354951
 31
0.0
  0
LINE
  5
141FB
  8
HIDE
 10
2142.5986934533012
 20
1622.1418019354969
 30
0.0
 11
2142.1986934533029
 21
1622.372742043171
 31
0.0
  0
LINE
  5
141FC
  8
HIDE
 10
2137.5986934533098
 20
1622.141801935489
 30
0.0
 11
2137.9986934533058
 21
1622.3727420431651
 31
0.0
  0
LINE
  5
141FD
  8
HIDE
 10
2142.1986934533029
 20
1622.372742043171
 30
0.0
 11
2137.9986934533022
 21
1622.372742043171
 31
0.0
  0
LINE
  5
141FE
  8
0
 10
2142.0986934533039
 20
1628.4700310101921
 30
0.0
 11
2135.0986934533039
 21
1628.4700310101921
 31
0.0
  0
CIRCLE
  5
141FF
  8
HIDE
 10
2172.0986934533048
 20
1617.6062928708379
 30
0.0
 40
3.4500000000000002
  0
CIRCLE
  5
14200
  8
HIDE
 10
2172.0986934533048
 20
1646.1062928708379
 30
0.0
 40
3.4500000000000002
  0
CIRCLE
  5
14201
  8
HIDE
 10
2160.0986934533048
 20
1617.6062928708379
 30
0.0
 40
3.449999999999998
  0
CIRCLE
  5
14202
  8
HIDE
 10
2160.0986934533048
 20
1646.1062928708379
 30
0.0
 40
3.449999999999998
  0
ARC
  5
14203
  8
HIDE
 10
2165.7986934533042
 20
1651.556292870838
 30
0.0
 40
0.3000000000000007
 50
0.0
 51
90.0
  0
ARC
  5
14204
  8
HIDE
 10
2154.6986934533052
 20
1651.256292870838
 30
0.0
 40
0.6000000000000015
 50
90.0
 51
180.0
  0
ARC
  5
14205
  8
HIDE
 10
2165.4986934533049
 20
1640.9562928708381
 30
0.0
 40
0.5999999999999996
 50
270.0
 51
0.0
  0
ARC
  5
14206
  8
HIDE
 10
2165.4986934533049
 20
1622.7562928708369
 30
0.0
 40
0.5999999999999996
 50
0.0
 51
90.0
  0
ARC
  5
14207
  8
HIDE
 10
2154.398693453305
 20
1640.6562928708379
 30
0.0
 40
0.3000000000000007
 50
180.0
 51
270.0
  0
ARC
  5
14208
  8
HIDE
 10
2154.398693453305
 20
1623.056292870838
 30
0.0
 40
0.3000000000000007
 50
90.0
 51
180.0
  0
ARC
  5
14209
  8
HIDE
 10
2165.7986934533042
 20
1612.1562928708379
 30
0.0
 40
0.3000000000000007
 50
270.0
 51
0.0
  0
ARC
  5
1420A
  8
HIDE
 10
2154.6986934533052
 20
1612.4562928708381
 30
0.0
 40
0.6000000000000015
 50
180.0
 51
270.0
  0
LINE
  5
1420B
  8
HIDE
 10
2154.0986934533039
 20
1647.756292870838
 30
0.0
 11
2157.0688419717958
 21
1647.756292870838
 31
0.0
  0
LINE
  5
1420C
  8
HIDE
 10
2154.6986934533052
 20
1651.8562928708379
 30
0.0
 11
2165.7986934533042
 21
1651.8562928708379
 31
0.0
  0
LINE
  5
1420D
  8
HIDE
 10
2166.0986934533039
 20
1644.4562928708381
 30
0.0
 11
2163.1285449348129
 21
1644.4562928708381
 31
0.0
  0
LINE
  5
1420E
  8
HIDE
 10
2161.3644343448668
 20
1649.3157164943921
 30
0.0
 11
2166.0986934533039
 21
1649.7062928708381
 31
0.0
  0
LINE
  5
1420F
  8
HIDE
 10
2154.0986934533039
 20
1644.4562928708381
 30
0.0
 11
2157.0688419717958
 21
1644.4562928708381
 31
0.0
  0
LINE
  5
14210
  8
HIDE
 10
2154.0986934533039
 20
1619.256292870838
 30
0.0
 11
2157.0688419717958
 21
1619.256292870838
 31
0.0
  0
LINE
  5
14211
  8
HIDE
 10
2154.398693453305
 20
1640.3562928708379
 30
0.0
 11
2165.4986934533049
 21
1640.3562928708379
 31
0.0
  0
LINE
  5
14212
  8
HIDE
 10
2154.398693453305
 20
1623.3562928708379
 30
0.0
 11
2165.4986934533049
 21
1623.3562928708379
 31
0.0
  0
LINE
  5
14213
  8
HIDE
 10
2166.0986934533039
 20
1619.256292870838
 30
0.0
 11
2163.1285449348129
 21
1619.256292870838
 31
0.0
  0
LINE
  5
14214
  8
HIDE
 10
2154.0986934533039
 20
1615.9562928708381
 30
0.0
 11
2157.0688419717958
 21
1615.9562928708381
 31
0.0
  0
LINE
  5
14215
  8
HIDE
 10
2165.7986934533042
 20
1611.8562928708379
 30
0.0
 11
2154.6986934533052
 21
1611.8562928708379
 31
0.0
  0
LINE
  5
14216
  8
HIDE
 10
2161.3644343448668
 20
1614.396869247284
 30
0.0
 11
2166.0986934533039
 21
1614.0062928708369
 31
0.0
  0
LINE
  5
14217
  8
HIDE
 10
2154.0986934533039
 20
1612.4562928708381
 30
0.0
 11
2154.0986934533039
 21
1651.256292870838
 31
0.0
  0
LINE
  5
14218
  8
HIDE
 10
2166.0986934533039
 20
1651.556292870838
 30
0.0
 11
2166.0986934533039
 21
1612.1562928708379
 31
0.0
  0
ARC
  5
14219
  8
HIDE
 10
2166.398693453305
 20
1612.1562928708379
 30
0.0
 40
0.3000000000000007
 50
180.0
 51
270.0
  0
ARC
  5
1421A
  8
HIDE
 10
2177.498693453304
 20
1612.4562928708381
 30
0.0
 40
0.6000000000000015
 50
270.0
 51
0.0
  0
ARC
  5
1421B
  8
HIDE
 10
2166.6986934533052
 20
1622.756292870838
 30
0.0
 40
0.5999999999999996
 50
90.0
 51
180.0
  0
ARC
  5
1421C
  8
HIDE
 10
2166.6986934533052
 20
1640.9562928708381
 30
0.0
 40
0.5999999999999996
 50
180.0
 51
270.0
  0
ARC
  5
1421D
  8
HIDE
 10
2177.7986934533042
 20
1623.056292870838
 30
0.0
 40
0.3
 50
0.0
 51
90.0
  0
ARC
  5
1421E
  8
HIDE
 10
2177.7986934533051
 20
1640.6562928708379
 30
0.0
 40
0.3000000000000007
 50
270.0
 51
0.0
  0
ARC
  5
1421F
  8
HIDE
 10
2166.398693453305
 20
1651.556292870838
 30
0.0
 40
0.3000000000000007
 50
90.0
 51
180.0
  0
ARC
  5
14220
  8
HIDE
 10
2177.4986934533049
 20
1651.256292870838
 30
0.0
 40
0.6
 50
0.0
 51
90.0
  0
LINE
  5
14221
  8
HIDE
 10
2178.0986934533039
 20
1615.9562928708381
 30
0.0
 11
2175.1285449348129
 21
1615.9562928708381
 31
0.0
  0
LINE
  5
14222
  8
HIDE
 10
2177.498693453304
 20
1611.8562928708379
 30
0.0
 11
2166.398693453305
 21
1611.8562928708379
 31
0.0
  0
LINE
  5
14223
  8
HIDE
 10
2166.0986934533039
 20
1619.256292870838
 30
0.0
 11
2169.0688419717958
 21
1619.256292870838
 31
0.0
  0
LINE
  5
14224
  8
HIDE
 10
2170.8329525617419
 20
1614.396869247284
 30
0.0
 11
2166.0986934533039
 21
1614.006292870838
 31
0.0
  0
LINE
  5
14225
  8
HIDE
 10
2178.0986934533039
 20
1619.256292870838
 30
0.0
 11
2175.1285449348129
 21
1619.256292870838
 31
0.0
  0
LINE
  5
14226
  8
HIDE
 10
2178.0986934533039
 20
1644.4562928708381
 30
0.0
 11
2175.1285449348129
 21
1644.4562928708381
 31
0.0
  0
LINE
  5
14227
  8
HIDE
 10
2177.7986934533042
 20
1623.3562928708379
 30
0.0
 11
2166.6986934533052
 21
1623.3562928708379
 31
0.0
  0
LINE
  5
14228
  8
HIDE
 10
2177.7986934533051
 20
1640.3562928708379
 30
0.0
 11
2166.6986934533052
 21
1640.3562928708379
 31
0.0
  0
LINE
  5
14229
  8
HIDE
 10
2166.0986934533039
 20
1644.4562928708381
 30
0.0
 11
2169.0688419717958
 21
1644.4562928708381
 31
0.0
  0
LINE
  5
1422A
  8
HIDE
 10
2178.0986934533039
 20
1647.756292870838
 30
0.0
 11
2175.1285449348129
 21
1647.756292870838
 31
0.0
  0
LINE
  5
1422B
  8
HIDE
 10
2166.398693453305
 20
1651.8562928708379
 30
0.0
 11
2177.4986934533049
 21
1651.8562928708379
 31
0.0
  0
LINE
  5
1422C
  8
HIDE
 10
2170.8329525617419
 20
1649.3157164943921
 30
0.0
 11
2166.0986934533039
 21
1649.7062928708381
 31
0.0
  0
LINE
  5
1422D
  8
HIDE
 10
2178.0986934533039
 20
1651.256292870838
 30
0.0
 11
2178.0986934533039
 21
1612.4562928708381
 31
0.0
  0
LINE
  5
1422E
  8
HIDE
 10
2142.0986934533039
 20
1628.4700310101921
 30
0.0
 11
2144.5986934533039
 21
1628.4700310101921
 31
0.0
  0
LINE
  5
1422F
  8
HIDE
 10
2142.0986934533039
 20
1635.2425547314831
 30
0.0
 11
2144.5986934533039
 21
1635.2425547314831
 31
0.0
  0
LINE
  5
14230
  8
HIDE
 10
2142.0986934533039
 20
1645.8562928708379
 30
0.0
 11
2144.5986934533039
 21
1645.8562928708379
 31
0.0
  0
LINE
  5
14231
  8
HIDE
 10
2142.0986934533039
 20
1617.8562928708379
 30
0.0
 11
2144.5986934533039
 21
1617.8562928708379
 31
0.0
  0
CIRCLE
  5
14235
  8
0
 10
2064.7802862412709
 20
1631.8562928708379
 30
0.0
 40
16.0
  0
ARC
  5
14236
  8
CENTER
 10
2064.7802862412709
 20
1631.8562928708379
 30
0.0
 40
25.0
 50
100.0818779999979
 51
129.79999599998891
  0
ARC
  5
14237
  8
CENTER
 10
2064.7802862412709
 20
1631.8562928708379
 30
0.0
 40
25.0
 50
10.565070000002461
 51
39.764172999992248
  0
ARC
  5
14238
  8
CENTER
 10
2064.7802862412709
 20
1631.8562928708379
 30
0.0
 40
25.0
 50
280.12520999998918
 51
310.35023900000471
  0
LINE
  5
14239
  8
CENTER
 10
2056.546904241271
 20
1649.512837870838
 30
0.0
 11
2051.654561241271
 21
1660.0045018708381
 31
0.0
  0
CIRCLE
  5
1423A
  8
0
 10
2075.3457432412711
 20
1609.1985978708381
 30
0.0
 40
4.75
  0
LINE
  5
1423B
  8
CENTER
 10
2072.674033241271
 20
1614.9280968708381
 30
0.0
 11
2077.7422922412711
 21
1604.0591818708381
 31
0.0
  0
CIRCLE
  5
1423C
  8
0
 10
2054.2148292412712
 20
1654.513987870838
 30
0.0
 40
4.75
  0
CIRCLE
  5
1423D
  8
0
 10
2087.4379812412708
 20
1642.4217498708381
 30
0.0
 40
4.75
  0
CIRCLE
  5
1423E
  8
0
 10
2042.122591241271
 20
1621.290835870838
 30
0.0
 40
4.75
  0
LINE
  5
1423F
  8
0
 10
2078.221565241271
 20
1608.947056870838
 30
0.0
 11
2077.001575241271
 21
1611.563341870838
 31
0.0
  0
LINE
  5
14240
  8
0
 10
2072.470086241271
 20
1609.4502898708381
 30
0.0
 11
2074.1258442412709
 21
1611.8149498708381
 31
0.0
  0
LINE
  5
14241
  8
0
 10
2074.1257442412711
 20
1611.814844870838
 30
0.0
 11
2077.001477241271
 21
1611.5632488708379
 31
0.0
  0
LINE
  5
14242
  8
0
 10
2073.689959241271
 20
1606.8338728708379
 30
0.0
 11
2076.5656932412712
 21
1606.5822768708381
 31
0.0
  0
LINE
  5
14243
  8
0
 10
2073.6900232412709
 20
1606.8339698708371
 30
0.0
 11
2072.4700332412708
 21
1609.450255870838
 31
0.0
  0
LINE
  5
14244
  8
0
 10
2076.565844241271
 20
1606.5824018708381
 30
0.0
 11
2078.2216012412709
 21
1608.947062870837
 31
0.0
  0
LINE
  5
14245
  8
0
 10
2044.738838241271
 20
1622.5108348708379
 30
0.0
 11
2044.4872422412709
 21
1619.6351018708369
 31
0.0
  0
LINE
  5
14246
  8
0
 10
2039.7578662412709
 20
1622.946619870838
 30
0.0
 11
2039.5062702412711
 21
1620.0708858708381
 31
0.0
  0
LINE
  5
14247
  8
0
 10
2039.5063952412711
 20
1620.0707348708379
 30
0.0
 11
2041.8710562412709
 21
1618.4149778708379
 31
0.0
  0
LINE
  5
14248
  8
0
 10
2041.871050241271
 20
1618.415013870838
 30
0.0
 11
2044.487335241271
 21
1619.6350038708381
 31
0.0
  0
LINE
  5
14249
  8
0
 10
2039.757963241271
 20
1622.946555870838
 30
0.0
 11
2042.3742492412709
 21
1624.166545870838
 31
0.0
  0
LINE
  5
1424A
  8
0
 10
2042.3742832412711
 20
1624.1664928708381
 30
0.0
 11
2044.738943241271
 21
1622.510734870838
 31
0.0
  0
LINE
  5
1424B
  8
CENTER
 10
2036.7381152412711
 20
1618.780013870838
 30
0.0
 11
2047.7593142412711
 21
1623.9192828708381
 31
0.0
  0
LINE
  5
1424C
  8
0
 10
2090.0541772412712
 20
1643.641850870838
 30
0.0
 11
2087.6895162412711
 21
1645.297607870838
 31
0.0
  0
LINE
  5
1424D
  8
0
 10
2087.6895222412709
 20
1645.2975718708381
 30
0.0
 11
2085.0732372412708
 21
1644.077581870838
 31
0.0
  0
LINE
  5
1424E
  8
0
 10
2089.8026092412711
 20
1640.7660298708381
 30
0.0
 11
2087.1863232412711
 21
1639.5460398708381
 31
0.0
  0
LINE
  5
1424F
  8
0
 10
2087.186289241271
 20
1639.546092870838
 30
0.0
 11
2084.8216292412708
 21
1641.2018508708379
 31
0.0
  0
LINE
  5
14250
  8
0
 10
2084.8217342412709
 20
1641.2017508708379
 30
0.0
 11
2085.0733302412709
 21
1644.077483870838
 31
0.0
  0
LINE
  5
14251
  8
0
 10
2089.8027062412712
 20
1640.765965870838
 30
0.0
 11
2090.0543022412712
 21
1643.641699870838
 31
0.0
  0
LINE
  5
14252
  8
0
 10
2055.8706132412708
 20
1656.878712870837
 30
0.0
 11
2052.9948792412711
 21
1657.130308870838
 31
0.0
  0
LINE
  5
14253
  8
0
 10
2055.870549241271
 20
1656.8786158708381
 30
0.0
 11
2057.090539241271
 21
1654.2623298708379
 31
0.0
  0
LINE
  5
14254
  8
0
 10
2055.4348282412711
 20
1651.8977408708381
 30
0.0
 11
2052.5590952412708
 21
1652.1493368708379
 31
0.0
  0
LINE
  5
14255
  8
0
 10
2057.0904862412708
 20
1654.262295870838
 30
0.0
 11
2055.4347282412709
 21
1651.897635870838
 31
0.0
  0
LINE
  5
14256
  8
0
 10
2052.9947282412709
 20
1657.130183870838
 30
0.0
 11
2051.3389712412709
 21
1654.7655228708379
 31
0.0
  0
LINE
  5
14257
  8
0
 10
2051.3390072412708
 20
1654.7655288708379
 30
0.0
 11
2052.5589972412708
 21
1652.1492438708381
 31
0.0
  0
LINE
  5
14258
  8
CENTER
 10
2082.1432972412708
 20
1639.9527978708379
 30
0.0
 11
2092.7225902412711
 21
1644.886002870838
 31
0.0
  0
ARC
  5
14259
  8
CENTER
 10
2064.7802862412709
 20
1631.8562928708379
 30
0.0
 40
25.0
 50
191.2148630000068
 51
218.9722439999895
  0
ARC
  5
1425A
  8
CENTER
 10
2064.7802862412709
 20
1631.8562928708379
 30
0.0
 40
31.0
 50
74.535846000004028
 51
104.18992799998949
  0
ARC
  5
1425B
  8
CENTER
 10
2064.7802862412709
 20
1631.8562928708379
 30
0.0
 40
31.0
 50
345.93317799999409
 51
15.52591300000671
  0
ARC
  5
1425C
  8
CENTER
 10
2064.7802862412709
 20
1631.8562928708379
 30
0.0
 40
31.0
 50
254.93013499998889
 51
285.44116299998637
  0
CIRCLE
  5
1425D
  8
0
 10
2095.7802862412709
 20
1631.8562928708379
 30
0.0
 40
3.299999999999998
  0
CIRCLE
  5
1425E
  8
0
 10
2095.7802862412709
 20
1631.8562928708379
 30
0.0
 40
5.5
  0
CIRCLE
  5
1425F
  8
0
 10
2064.7802862412709
 20
1600.8562928708379
 30
0.0
 40
3.299999999999998
  0
CIRCLE
  5
14260
  8
0
 10
2064.7802862412709
 20
1600.8562928708379
 30
0.0
 40
5.5
  0
CIRCLE
  5
14261
  8
0
 10
2033.7802862412709
 20
1631.8562928708379
 30
0.0
 40
3.299999999999998
  0
CIRCLE
  5
14262
  8
0
 10
2033.7802862412709
 20
1631.8562928708379
 30
0.0
 40
5.5
  0
CIRCLE
  5
14263
  8
0
 10
2064.7802862412709
 20
1662.8562928708379
 30
0.0
 40
5.5
  0
CIRCLE
  5
14264
  8
0
 10
2064.7802862412709
 20
1662.8562928708379
 30
0.0
 40
3.299999999999998
  0
ARC
  5
14265
  8
CENTER
 10
2064.7802862412709
 20
1631.8562928708379
 30
0.0
 40
31.0
 50
165.61986900001079
 51
194.58355500000621
  0
ARC
  5
14266
  8
0
 10
2064.7802862412709
 20
1631.8562928708379
 30
0.0
 40
38.5
 50
262.60768600000341
 51
277.39231399999659
  0
ARC
  5
14267
  8
0
 10
2064.7802862412709
 20
1631.8562928708379
 30
0.0
 40
38.5
 50
172.60768600000509
 51
187.39231399999491
  0
ARC
  5
14268
  8
0
 10
2064.7802862412709
 20
1631.8562928708379
 30
0.0
 40
38.5
 50
82.607686000003426
 51
97.39231399999656
  0
ARC
  5
14269
  8
0
 10
2064.7802862412709
 20
1631.8562928708379
 30
0.0
 40
38.5
 50
352.60768600000512
 51
7.3923139999949017
  0
LINE
  5
1426A
  8
0
 10
2059.826777241271
 20
1593.676287870838
 30
0.0
 11
2026.600281241271
 21
1626.902783870838
 31
0.0
  0
LINE
  5
1426B
  8
0
 10
2102.9602912412711
 20
1626.902783870838
 30
0.0
 11
2069.7337952412709
 21
1593.676287870838
 31
0.0
  0
LINE
  5
1426C
  8
0
 10
2069.7337952412709
 20
1670.0362978708381
 30
0.0
 11
2102.9602912412711
 21
1636.8098018708381
 31
0.0
  0
LINE
  5
1426D
  8
0
 10
2026.600281241271
 20
1636.8098018708381
 30
0.0
 11
2059.826777241271
 21
1670.0362978708381
 31
0.0
  0
ARC
  5
1426E
  8
0
 10
2064.7802862412709
 20
1631.8562928708379
 30
0.0
 40
14.0
 50
166.0027191339004
 51
193.99728086609949
  0
ARC
  5
1426F
  8
0
 10
2064.7802862412709
 20
1631.8562928708379
 30
0.0
 40
14.0
 50
256.0027191338973
 51
283.9972808661027
  0
ARC
  5
14270
  8
0
 10
2064.7802862412709
 20
1631.8562928708379
 30
0.0
 40
14.0
 50
346.00271913390043
 51
13.997280866099549
  0
ARC
  5
14271
  8
0
 10
2064.7802862412709
 20
1631.8562928708379
 30
0.0
 40
14.0
 50
76.002719133897301
 51
103.9972808661027
  0
ARC
  5
14272
  8
HIDE
 10
2064.7802862412709
 20
1631.8562928708379
 30
0.0
 40
8.5
 50
270.0
 51
180.0
  0
CIRCLE
  5
14273
  8
0
 10
2064.7802862412709
 20
1631.8562928708379
 30
0.0
 40
8.0
  0
POLYLINE
  5
14274
  8
0
 66
     1
 10
0.0
 20
0.0
 30
0.0
  0
VERTEX
  5
143BA
  8
0
 10
2061.3940243806242
 20
1645.4405937586689
 30
0.0
  0
VERTEX
  5
143BB
  8
0
 10
2051.1959853534381
 20
1635.2425547314831
 30
0.0
  0
SEQEND
  5
143BC
  8
0
  0
POLYLINE
  5
14275
  8
0
 66
     1
 10
0.0
 20
0.0
 30
0.0
  0
VERTEX
  5
143BD
  8
0
 10
2051.1959853534399
 20
1628.470031010191
 30
0.0
  0
VERTEX
  5
143BE
  8
0
 10
2061.3940243806242
 20
1618.271991983007
 30
0.0
  0
SEQEND
  5
143BF
  8
0
  0
POLYLINE
  5
14276
  8
0
 66
     1
 10
0.0
 20
0.0
 30
0.0
  0
VERTEX
  5
143C0
  8
0
 10
2068.1665481019159
 20
1618.271991983007
 30
0.0
  0
VERTEX
  5
143C1
  8
0
 10
2078.3645871291019
 20
1628.470031010191
 30
0.0
  0
SEQEND
  5
143C2
  8
0
  0
POLYLINE
  5
14277
  8
0
 66
     1
 10
0.0
 20
0.0
 30
0.0
  0
VERTEX
  5
143C3
  8
0
 10
2078.3645871291019
 20
1635.2425547314831
 30
0.0
  0
VERTEX
  5
143C4
  8
0
 10
2068.1665481019159
 20
1645.4405937586689
 30
0.0
  0
SEQEND
  5
143C5
  8
0
  0
LINE
  5
14278
  8
HIDE
 10
2067.2802862412709
 20
1645.6312701847939
 30
0.0
 11
2067.2802862412741
 21
1639.455634947622
 31
0.0
  0
LINE
  5
14279
  8
HIDE
 10
2066.8802862412731
 20
1645.6978968241369
 30
0.0
 11
2066.8802862412731
 21
1639.5757488102149
 31
0.0
  0
LINE
  5
1427A
  8
HIDE
 10
2062.2802862412709
 20
1645.6312701847939
 30
0.0
 11
2062.280286241275
 21
1639.455634947624
 31
0.0
  0
LINE
  5
1427B
  8
HIDE
 10
2062.6802862412719
 20
1645.6978968241369
 30
0.0
 11
2062.6802862412719
 21
1639.5757488102161
 31
0.0
  0
LINE
  5
1427C
  8
HIDE
 10
2062.2802862412732
 20
1645.570783806179
 30
0.0
 11
2067.2802862412732
 21
1645.570783806181
 31
0.0
  0
LINE
  5
1427D
  8
HIDE
 10
2062.280286241275
 20
1641.570783806179
 30
0.0
 11
2067.2802862412741
 21
1641.570783806181
 31
0.0
  0
LINE
  5
1427E
  8
HIDE
 10
2062.280286241275
 20
1641.570783806179
 30
0.0
 11
2062.6802862412719
 21
1641.339843698504
 31
0.0
  0
LINE
  5
1427F
  8
HIDE
 10
2067.2802862412659
 20
1641.570783806186
 30
0.0
 11
2066.8802862412699
 21
1641.339843698511
 31
0.0
  0
LINE
  5
14280
  8
HIDE
 10
2062.6802862412719
 20
1641.339843698504
 30
0.0
 11
2066.8802862412731
 21
1641.339843698504
 31
0.0
  0
LINE
  5
14281
  8
HIDE
 10
2067.2802862412732
 20
1618.0813155568819
 30
0.0
 11
2067.2802862412741
 21
1624.2569507940541
 31
0.0
  0
LINE
  5
14282
  8
HIDE
 10
2066.8802862412731
 20
1618.014688917538
 30
0.0
 11
2066.8802862412731
 21
1624.1368369314609
 31
0.0
  0
LINE
  5
14283
  8
HIDE
 10
2062.2802862412732
 20
1618.081315556881
 30
0.0
 11
2062.2802862412768
 21
1624.2569507940509
 31
0.0
  0
LINE
  5
14284
  8
HIDE
 10
2062.6802862412719
 20
1618.014688917538
 30
0.0
 11
2062.6802862412719
 21
1624.1368369314589
 31
0.0
  0
LINE
  5
14285
  8
HIDE
 10
2062.2802862412732
 20
1618.1418019354969
 30
0.0
 11
2067.2802862412732
 21
1618.1418019354951
 31
0.0
  0
LINE
  5
14286
  8
HIDE
 10
2062.280286241275
 20
1622.1418019354969
 30
0.0
 11
2067.2802862412741
 21
1622.1418019354951
 31
0.0
  0
LINE
  5
14287
  8
HIDE
 10
2062.280286241275
 20
1622.1418019354969
 30
0.0
 11
2062.6802862412719
 21
1622.372742043171
 31
0.0
  0
LINE
  5
14288
  8
HIDE
 10
2067.2802862412659
 20
1622.141801935489
 30
0.0
 11
2066.8802862412699
 21
1622.3727420431651
 31
0.0
  0
LINE
  5
14289
  8
HIDE
 10
2062.6802862412719
 20
1622.372742043171
 30
0.0
 11
2066.8802862412731
 21
1622.372742043171
 31
0.0
  0
LINE
  5
1428A
  8
CENTER
 10
2016.7802862412709
 20
1631.8562928708379
 30
0.0
 11
2112.7802862412709
 21
1631.8562928708379
 31
0.0
  0
LINE
  5
1428B
  8
CENTER
 10
2064.7802862412709
 20
1583.8562928708379
 30
0.0
 11
2064.7802862412709
 21
1679.856292870837
 31
0.0
  0
ENDSEC
  0
EOF
