  0
SECTION
  2
HEADER
  9
$ACADVER
  1
AC1009
  9
$INSBASE
 10
0.0
 20
0.0
 30
0.0
  9
$EXTMIN
 10
1903.0405749290021
 20
1433.173578249188
 30
0.0
  9
$EXTMAX
 10
2348.540574929003
 20
1748.173578249188
 30
0.0
  9
$LIMMIN
 10
0.0
 20
0.0
  9
$LIMMAX
 10
12.0
 20
9.0
  9
$ORTHOMODE
 70
     1
  9
$REGENMODE
 70
     1
  9
$FILLMODE
 70
     1
  9
$QTEXTMODE
 70
     0
  9
$MIRRTEXT
 70
     0
  9
$DRAGMODE
 70
     2
  9
$LTSCALE
 40
5.0
  9
$OSMODE
 70
  2239
  9
$ATTMODE
 70
     1
  9
$TEXTSIZE
 40
2.5
  9
$TRACEWID
 40
0.05
  9
$TEXTSTYLE
  7
BIG
  9
$CLAYER
  8
0
  9
$CELTYPE
  6
BYLAYER
  9
$CECOLOR
 62
   256
  9
$DIMSCALE
 40
1.0
  9
$DIMASZ
 40
3.0
  9
$DIMEXO
 40
1.0
  9
$DIMDLI
 40
0.0
  9
$DIMRND
 40
0.0
  9
$DIMDLE
 40
0.0
  9
$DIMEXE
 40
1.0
  9
$DIMTP
 40
0.0
  9
$DIMTM
 40
0.0
  9
$DIMTXT
 40
3.0
  9
$DIMCEN
 40
0.0
  9
$DIMTSZ
 40
0.0
  9
$DIMTOL
 70
     0
  9
$DIMLIM
 70
     0
  9
$DIMTIH
 70
     0
  9
$DIMTOH
 70
     0
  9
$DIMSE1
 70
     0
  9
$DIMSE2
 70
     0
  9
$DIMTAD
 70
     1
  9
$DIMZIN
 70
     8
  9
$DIMBLK
  1

  9
$DIMASO
 70
     1
  9
$DIMSHO
 70
     1
  9
$DIMPOST
  1

  9
$DIMAPOST
  1

  9
$DIMALT
 70
     0
  9
$DIMALTD
 70
     2
  9
$DIMALTF
 40
25.399999999999999
  9
$DIMLFAC
 40
1.0
  9
$DIMTOFL
 70
     1
  9
$DIMTVP
 40
0.0
  9
$DIMTIX
 70
     1
  9
$DIMSOXD
 70
     0
  9
$DIMSAH
 70
     0
  9
$DIMBLK1
  1

  9
$DIMBLK2
  1

  9
$DIMSTYLE
  2
DUKITEC
  9
$DIMCLRD
 70
     5
  9
$DIMCLRE
 70
     5
  9
$DIMCLRT
 70
     0
  9
$DIMTFAC
 40
1.0
  9
$DIMGAP
 40
1.0
  9
$LUNITS
 70
     2
  9
$LUPREC
 70
     4
  9
$SKETCHINC
 40
0.1
  9
$FILLETRAD
 40
0.2
  9
$AUNITS
 70
     0
  9
$AUPREC
 70
     0
  9
$MENU
  1
.
  9
$ELEVATION
 40
0.0
  9
$PELEVATION
 40
0.0
  9
$THICKNESS
 40
0.0
  9
$LIMCHECK
 70
     0
  9
$BLIPMODE
 70
     0
  9
$CHAMFERA
 40
0.5
  9
$CHAMFERB
 40
0.5
  9
$SKPOLY
 70
     0
  9
$TDCREATE
 40
2454396.730383391
  9
$TDUPDATE
 40
2456631.3876015861
  9
$TDINDWG
 40
0.0033587384
  9
$TDUSRTIMER
 40
0.003358588
  9
$USRTIMER
 70
     1
  9
$ANGBASE
 50
0.0
  9
$ANGDIR
 70
     0
  9
$PDMODE
 70
     0
  9
$PDSIZE
 40
0.0
  9
$PLINEWID
 40
0.0
  9
$COORDS
 70
     1
  9
$SPLFRAME
 70
     0
  9
$SPLINETYPE
 70
     6
  9
$SPLINESEGS
 70
     8
  9
$ATTDIA
 70
     0
  9
$ATTREQ
 70
     1
  9
$HANDLING
 70
     1
  9
$HANDSEED
  5
1449B
  9
$SURFTAB1
 70
     6
  9
$SURFTAB2
 70
     6
  9
$SURFTYPE
 70
     6
  9
$SURFU
 70
     6
  9
$SURFV
 70
     6
  9
$UCSNAME
  2

  9
$UCSORG
 10
0.0
 20
0.0
 30
0.0
  9
$UCSXDIR
 10
1.0
 20
0.0
 30
0.0
  9
$UCSYDIR
 10
0.0
 20
1.0
 30
0.0
  9
$PUCSNAME
  2

  9
$PUCSORG
 10
0.0
 20
0.0
 30
0.0
  9
$PUCSXDIR
 10
1.0
 20
0.0
 30
0.0
  9
$PUCSYDIR
 10
0.0
 20
1.0
 30
0.0
  9
$USERI1
 70
     0
  9
$USERI2
 70
     0
  9
$USERI3
 70
     0
  9
$USERI4
 70
     0
  9
$USERI5
 70
     0
  9
$USERR1
 40
0.0
  9
$USERR2
 40
0.0
  9
$USERR3
 40
0.0
  9
$USERR4
 40
0.0
  9
$USERR5
 40
0.0
  9
$WORLDVIEW
 70
     1
  9
$SHADEDGE
 70
     3
  9
$SHADEDIF
 70
    70
  9
$TILEMODE
 70
     1
  9
$MAXACTVP
 70
    64
  9
$PLIMCHECK
 70
     0
  9
$PEXTMIN
 10
0.0
 20
0.0
 30
0.0
  9
$PEXTMAX
 10
0.0
 20
0.0
 30
0.0
  9
$PLIMMIN
 10
0.0
 20
0.0
  9
$PLIMMAX
 10
12.0
 20
9.0
  9
$UNITMODE
 70
     0
  9
$VISRETAIN
 70
     1
  9
$PLINEGEN
 70
     0
  9
$PSLTSCALE
 70
     1
  0
ENDSEC
  0
SECTION
  2
TABLES
  0
TABLE
  2
VPORT
 70
     1
  0
VPORT
  2
*ACTIVE
 70
     0
 10
0.0
 20
0.0
 11
1.0
 21
1.0
 12
2122.7623292246089
 22
1573.1122902440511
 13
0.0
 23
0.0
 14
0.5
 24
0.5
 15
0.5
 25
0.5
 16
0.0
 26
0.0
 36
1.0
 17
0.0
 27
0.0
 37
0.0
 40
225.4818537559776
 41
2.1408934707903771
 42
50.0
 43
0.0
 44
0.0
 50
0.0
 51
0.0
 71
     0
 72
  2000
 73
     1
 74
     3
 75
     0
 76
     0
 77
     0
 78
     0
  0
ENDTAB
  0
TABLE
  2
LTYPE
 70
     4
  0
LTYPE
  2
CONTINUOUS
 70
     0
  3
Solid line
 72
    65
 73
     0
 40
0.0
  0
LTYPE
  2
PHANTOM2
 70
     0
  3
Phantom (.5x) ___ _ _ ___ _ _ ___ _ _ ___ _ _
 72
    65
 73
     6
 40
1.25
 49
0.625
 49
-0.125
 49
0.125
 49
-0.125
 49
0.125
 49
-0.125
  0
LTYPE
  2
CENTER
 70
     0
  3
___ _ ___ _ ___ _ ___ _ ___ _ ___ _ ___ _ ___ _
 72
    65
 73
     4
 40
0.95
 49
0.625
 49
-0.125
 49
0.075
 49
-0.125
  0
LTYPE
  2
DASHED2
 70
     0
  3
Dashed (.5x) _ _ _ _ _ _ _ _ _ _ _ _ _ _ _ _ _
 72
    65
 73
     2
 40
0.375
 49
0.25
 49
-0.125
  0
ENDTAB
  0
TABLE
  2
LAYER
 70
     4
  0
LAYER
  2
0
 70
     0
 62
     7
  6
CONTINUOUS
  0
LAYER
  2
HIDE
 70
     0
 62
     1
  6
DASHED2
  0
LAYER
  2
CENTER
 70
     0
 62
     3
  6
CENTER
  0
LAYER
  2
DEFPOINTS
 70
     0
 62
     7
  6
CONTINUOUS
  0
ENDTAB
  0
TABLE
  2
STYLE
 70
     3
  0
STYLE
  2
STANDARD
 70
     0
 40
5.0
 41
1.0
 50
0.0
 71
     0
 42
5.0
  3
txt.shx
  4
whgtxt.shx
  0
STYLE
  2
ANNOTATIVE
 70
     0
 40
0.0
 41
1.0
 50
0.0
 71
     0
 42
0.2
  3
txt
  4

  0
STYLE
  2
BIG
 70
     0
 40
20.0
 41
1.0
 50
0.0
 71
     0
 42
2.5
  3
txt
  4

  0
ENDTAB
  0
TABLE
  2
VIEW
 70
     0
  0
ENDTAB
  0
TABLE
  2
UCS
 70
     0
  0
ENDTAB
  0
TABLE
  2
APPID
 70
    11
  0
APPID
  2
ACAD
 70
     0
  0
APPID
  2
ACADANNOTATIVE
 70
     0
  0
APPID
  2
ACAD_EXEMPT_FROM_CAD_STANDARDS
 70
     0
  0
APPID
  2
ACAD_DSTYLE_DIMJOGGED_JOGA
 70
     0
  0
APPID
  2
ACAD_PSEXT
 70
     0
  0
APPID
  2
ACAECLAYERSTANDARD
 70
     0
  0
APPID
  2
DCO15
 70
     0
  0
APPID
  2
CONTENTBLOCKICON
 70
     0
  0
APPID
  2
ACAD_DSTYLE_DIMRADIAL_EXTENSION
 70
     0
  0
APPID
  2
ACAD_NAV_VCDISPLAY
 70
     0
  0
APPID
  2
ACAD_MLEADERVER
 70
     0
  0
ENDTAB
  0
TABLE
  2
DIMSTYLE
 70
     3
  0
DIMSTYLE
  2
STANDARD
 70
     0
  3

  4

  5

  6

  7

 40
1.0
 41
0.18
 42
0.0625
 43
0.38
 44
0.18
 45
0.0
 46
0.0
 47
0.0
 48
0.0
140
0.18
141
0.09
142
0.0
143
25.399999999999999
144
1.0
145
0.0
146
1.0
147
0.09
 71
     0
 72
     0
 73
     1
 74
     1
 75
     0
 76
     0
 77
     0
 78
     0
170
     0
171
     2
172
     0
173
     0
174
     0
175
     0
176
     0
177
     0
178
     0
  0
DIMSTYLE
  2
ANNOTATIVE
 70
     0
  3

  4

  5

  6

  7

 40
1.0
 41
0.18
 42
0.0625
 43
0.38
 44
0.18
 45
0.0
 46
0.0
 47
0.0
 48
0.0
140
0.18
141
0.09
142
0.0
143
25.399999999999999
144
1.0
145
0.0
146
1.0
147
0.09
 71
     0
 72
     0
 73
     1
 74
     1
 75
     0
 76
     0
 77
     0
 78
     0
170
     0
171
     2
172
     0
173
     0
174
     0
175
     0
176
     0
177
     0
178
     0
  0
DIMSTYLE
  2
DUKITEC
 70
     0
  3

  4

  5

  6

  7

 40
1.0
 41
3.0
 42
1.0
 43
0.0
 44
1.0
 45
0.0
 46
0.0
 47
0.0
 48
0.0
140
3.0
141
0.0
142
0.0
143
25.399999999999999
144
1.0
145
0.0
146
1.0
147
1.0
 71
     0
 72
     0
 73
     0
 74
     0
 75
     0
 76
     0
 77
     1
 78
     8
170
     0
171
     2
172
     1
173
     0
174
     1
175
     0
176
     5
177
     5
178
     0
  0
ENDTAB
  0
ENDSEC
  0
SECTION
  2
BLOCKS
  0
BLOCK
  8
0
  2
$MODEL_SPACE
 70
     0
 10
0.0
 20
0.0
 30
0.0
  3
$MODEL_SPACE
  1

  0
ENDBLK
  5
142DF
  8
0
  0
BLOCK
 67
     1
  8
0
  2
$PAPER_SPACE
 70
     0
 10
0.0
 20
0.0
 30
0.0
  3
$PAPER_SPACE
  1

  0
ENDBLK
  5
142DB
 67
     1
  8
0
  0
BLOCK
  8
0
  2
FK20F
 70
     0
 10
0.0
 20
0.0
 30
0.0
  3
FK20F
  1

  0
CIRCLE
  5
13F24
  8
HIDE
 10
0.0
 20
0.0
 30
0.0
 40
28.5
  0
ARC
  5
13F25
  8
0
 10
0.0
 20
0.0
 30
0.0
 40
42.5
 50
351.86989764582921
 51
8.1301023541707185
  0
ARC
  5
13F26
  8
0
 10
0.0
 20
0.0
 30
0.0
 40
42.5
 50
261.86989764583291
 51
278.13010235416698
  0
ARC
  5
13F27
  8
0
 10
0.0
 20
0.0
 30
0.0
 40
42.5
 50
171.86989764582921
 51
188.1301023541707
  0
LINE
  5
13F28
  8
0
 10
-6.0104076400857593
 20
-42.072853480599392
 30
0.0
 11
-42.072853480599392
 21
-6.0104076400857593
 31
0.0
  0
LINE
  5
13F29
  8
0
 10
42.072853480599392
 20
-6.0104076400857593
 30
0.0
 11
6.0104076400857593
 21
-42.072853480599392
 31
0.0
  0
LINE
  5
13F2A
  8
0
 10
6.0104076400857593
 20
42.072853480599392
 30
0.0
 11
42.072853480599392
 21
6.0104076400857593
 31
0.0
  0
LINE
  5
13F2B
  8
0
 10
-42.072853480599392
 20
6.0104076400857593
 30
0.0
 11
-6.0104076400857593
 21
42.072853480599392
 31
0.0
  0
ARC
  5
13F2C
  8
0
 10
0.0
 20
0.0
 30
0.0
 40
42.5
 50
81.869897645833007
 51
98.13010235416705
  0
CIRCLE
  5
13F2D
  8
0
 10
-11.833333999999921
 20
25.376608000000029
 30
0.0
 40
4.75
  0
CIRCLE
  5
13F2E
  8
0
 10
25.376607999999582
 20
11.833333999999921
 30
0.0
 40
4.75
  0
CIRCLE
  5
13F2F
  8
0
 10
11.833333999999921
 20
-25.376608000000029
 30
0.0
 40
4.75
  0
CIRCLE
  5
13F30
  8
0
 10
-25.376607999999582
 20
-11.833333999999921
 30
0.0
 40
4.75
  0
ARC
  5
13F31
  8
CENTER
 10
0.0
 20
0.0
 30
0.0
 40
28.0
 50
101.3597930000016
 51
127.9420700000191
  0
ARC
  5
13F32
  8
CENTER
 10
0.0
 20
0.0
 30
0.0
 40
28.0
 50
12.94491500000804
 51
38.454222999994712
  0
ARC
  5
13F33
  8
CENTER
 10
0.0
 20
0.0
 30
0.0
 40
28.0
 50
281.10061099999467
 51
308.86757400002642
  0
ARC
  5
13F34
  8
CENTER
 10
0.0
 20
0.0
 30
0.0
 40
35.0
 50
78.987026999982618
 51
101.4911119999859
  0
ARC
  5
13F35
  8
CENTER
 10
0.0
 20
0.0
 30
0.0
 40
35.0
 50
348.15416899999008
 51
11.56222499999574
  0
ARC
  5
13F36
  8
CENTER
 10
0.0
 20
0.0
 30
0.0
 40
35.0
 50
257.95517099997892
 51
281.75333999997667
  0
CIRCLE
  5
13F37
  8
0
 10
0.0
 20
0.0
 30
0.0
 40
19.0
  0
ARC
  5
13F38
  8
CENTER
 10
0.0
 20
0.0
 30
0.0
 40
28.0
 50
191.4976890000037
 51
218.91298399997049
  0
CIRCLE
  5
13F39
  8
0
 10
0.0
 20
-35.0
 30
0.0
 40
3.299999999999998
  0
CIRCLE
  5
13F3A
  8
0
 10
-35.0
 20
0.0
 30
0.0
 40
3.299999999999998
  0
CIRCLE
  5
13F3B
  8
0
 10
0.0
 20
35.0
 30
0.0
 40
3.299999999999998
  0
CIRCLE
  5
13F3C
  8
0
 10
35.0
 20
0.0
 30
0.0
 40
3.299999999999998
  0
CIRCLE
  5
13F3D
  8
0
 10
35.0
 20
0.0
 30
0.0
 40
5.5
  0
CIRCLE
  5
13F3E
  8
0
 10
0.0
 20
-35.0
 30
0.0
 40
5.5
  0
CIRCLE
  5
13F3F
  8
0
 10
-35.0
 20
0.0
 30
0.0
 40
5.5
  0
CIRCLE
  5
13F40
  8
0
 10
0.0
 20
35.0
 30
0.0
 40
5.5
  0
ARC
  5
13F41
  8
CENTER
 10
0.0
 20
0.0
 30
0.0
 40
35.0
 50
168.11090400000501
 51
192.4316929999946
  0
LINE
  5
13F42
  8
0
 10
-10.17755000000033
 20
27.741332999999951
 30
0.0
 11
-13.05328399999962
 21
27.992929000000011
 31
0.0
  0
LINE
  5
13F43
  8
CENTER
 10
-14.407363000000259
 20
30.896631999999951
 30
0.0
 11
-9.3559720000002908
 21
20.063886999999799
 31
0.0
  0
LINE
  5
13F44
  8
0
 10
-13.05343499999981
 20
27.992803999999978
 30
0.0
 11
-14.70919200000025
 21
25.628142999999909
 31
0.0
  0
LINE
  5
13F45
  8
0
 10
-8.9576779999997598
 20
25.124916000000209
 30
0.0
 11
-10.61343500000021
 21
22.760256000000041
 31
0.0
  0
LINE
  5
13F46
  8
0
 10
-14.70915599999989
 20
25.628149000000121
 30
0.0
 11
-13.48916600000029
 21
23.011864000000049
 31
0.0
  0
LINE
  5
13F47
  8
0
 10
-10.613334999999999
 20
22.760361000000088
 30
0.0
 11
-13.489067999999859
 21
23.011957000000159
 31
0.0
  0
LINE
  5
13F48
  8
0
 10
-10.177614000000171
 20
27.741235999999851
 30
0.0
 11
-8.9576239999996652
 21
25.124949999999899
 31
0.0
  0
LINE
  5
13F49
  8
CENTER
 10
30.99917199999982
 20
14.45517900000004
 30
0.0
 11
19.763732999999771
 21
9.2160079999998743
 31
0.0
  0
LINE
  5
13F4A
  8
0
 10
27.992804000000429
 20
13.05343499999981
 30
0.0
 11
25.628142999999909
 21
14.709191999999801
 31
0.0
  0
LINE
  5
13F4B
  8
0
 10
25.124915999999761
 20
8.9576780000002145
 30
0.0
 11
22.760255999999568
 21
10.61343500000021
 31
0.0
  0
LINE
  5
13F4C
  8
0
 10
25.628149000000121
 20
14.70915599999989
 30
0.0
 11
23.011864000000049
 21
13.489165999999839
 31
0.0
  0
LINE
  5
13F4D
  8
0
 10
27.741332999999951
 20
10.177549999999879
 30
0.0
 11
27.992929000000011
 21
13.053284000000071
 31
0.0
  0
LINE
  5
13F4E
  8
0
 10
22.760360999999651
 20
10.613334999999999
 30
0.0
 11
23.011956999999711
 21
13.489067999999859
 31
0.0
  0
LINE
  5
13F4F
  8
0
 10
27.741235999999851
 20
10.177614000000171
 30
0.0
 11
25.12495000000035
 21
8.9576240000001235
 31
0.0
  0
LINE
  5
13F50
  8
CENTER
 10
15.002956000000269
 20
-32.173885000000162
 30
0.0
 11
8.6636820000003336
 21
-18.579266000000189
 31
0.0
  0
LINE
  5
13F51
  8
0
 10
13.05343499999981
 20
-27.992803999999978
 30
0.0
 11
14.70919200000025
 21
-25.628142999999909
 31
0.0
  0
LINE
  5
13F52
  8
0
 10
8.9576779999997598
 20
-25.124916000000209
 30
0.0
 11
10.61343500000021
 21
-22.760256000000041
 31
0.0
  0
LINE
  5
13F53
  8
0
 10
14.70915599999989
 20
-25.628149000000121
 30
0.0
 11
13.48916600000029
 21
-23.011864000000049
 31
0.0
  0
LINE
  5
13F54
  8
0
 10
10.177614000000171
 20
-27.741235999999851
 30
0.0
 11
8.9576239999996652
 21
-25.124949999999899
 31
0.0
  0
LINE
  5
13F55
  8
0
 10
10.17755000000033
 20
-27.741332999999951
 30
0.0
 11
13.05328399999962
 21
-27.992929000000011
 31
0.0
  0
LINE
  5
13F56
  8
0
 10
10.613334999999999
 20
-22.760361000000088
 30
0.0
 11
13.489067999999859
 21
-23.011957000000159
 31
0.0
  0
LINE
  5
13F57
  8
CENTER
 10
-30.761083999999759
 20
-14.34415600000011
 30
0.0
 11
-19.739884999999958
 21
-9.2048869999998715
 31
0.0
  0
LINE
  5
13F58
  8
0
 10
-27.992804000000429
 20
-13.05343499999981
 30
0.0
 11
-25.628142999999909
 21
-14.709191999999801
 31
0.0
  0
LINE
  5
13F59
  8
0
 10
-25.124915999999761
 20
-8.9576780000002145
 30
0.0
 11
-22.760255999999568
 21
-10.61343500000021
 31
0.0
  0
LINE
  5
13F5A
  8
0
 10
-25.628149000000121
 20
-14.70915599999989
 30
0.0
 11
-23.011864000000049
 21
-13.489165999999839
 31
0.0
  0
LINE
  5
13F5B
  8
0
 10
-27.741235999999851
 20
-10.177614000000171
 30
0.0
 11
-25.12495000000035
 21
-8.9576240000001235
 31
0.0
  0
LINE
  5
13F5C
  8
0
 10
-27.741332999999951
 20
-10.177549999999879
 30
0.0
 11
-27.992929000000011
 21
-13.053284000000071
 31
0.0
  0
LINE
  5
13F5D
  8
0
 10
-22.760360999999651
 20
-10.613334999999999
 30
0.0
 11
-23.011956999999711
 21
-13.489067999999859
 31
0.0
  0
ARC
  5
13F5E
  8
0
 10
0.0
 20
0.0
 30
0.0
 40
16.0
 50
163.95502437185911
 51
196.0449756281408
  0
ARC
  5
13F5F
  8
0
 10
0.0
 20
0.0
 30
0.0
 40
16.0
 50
253.9550243718592
 51
286.04497562814089
  0
ARC
  5
13F60
  8
0
 10
0.0
 20
0.0
 30
0.0
 40
16.0
 50
343.95502437185911
 51
16.044975628140929
  0
ARC
  5
13F61
  8
0
 10
0.0
 20
0.0
 30
0.0
 40
16.0
 50
73.955024371859068
 51
106.0449756281409
  0
POLYLINE
  5
13F62
  8
0
 66
     1
 10
0.0
 20
0.0
 30
0.0
  0
VERTEX
  5
14428
  8
0
 10
-4.422269361559299
 20
15.376720511663731
 30
0.0
  0
VERTEX
  5
14429
  8
0
 10
-15.376720511663731
 20
4.422269361559299
 30
0.0
  0
SEQEND
  5
1442A
  8
0
  0
POLYLINE
  5
13F63
  8
0
 66
     1
 10
0.0
 20
0.0
 30
0.0
  0
VERTEX
  5
1442B
  8
0
 10
-15.376720511663731
 20
-4.4222693615611179
 30
0.0
  0
VERTEX
  5
1442C
  8
0
 10
-4.422269361559299
 20
-15.376720511663731
 30
0.0
  0
SEQEND
  5
1442D
  8
0
  0
POLYLINE
  5
13F64
  8
0
 66
     1
 10
0.0
 20
0.0
 30
0.0
  0
VERTEX
  5
1442E
  8
0
 10
4.422269361559299
 20
-15.376720511663731
 30
0.0
  0
VERTEX
  5
1442F
  8
0
 10
15.376720511663731
 20
-4.422269361559299
 30
0.0
  0
SEQEND
  5
14430
  8
0
  0
POLYLINE
  5
13F65
  8
0
 66
     1
 10
0.0
 20
0.0
 30
0.0
  0
VERTEX
  5
14431
  8
0
 10
15.376720511663731
 20
4.422269361559299
 30
0.0
  0
VERTEX
  5
14432
  8
0
 10
4.422269361559299
 20
15.376720511663731
 30
0.0
  0
SEQEND
  5
14433
  8
0
  0
ARC
  5
13F66
  8
HIDE
 10
0.0
 20
0.0
 30
0.0
 40
10.0
 50
270.0
 51
180.0
  0
CIRCLE
  5
13F67
  8
0
 10
0.0
 20
0.0
 30
0.0
 40
9.5
  0
LINE
  5
13F68
  8
HIDE
 10
2.5
 20
15.80348062927896
 30
0.0
 11
2.5000000000036362
 21
9.1651513899105304
 31
0.0
  0
LINE
  5
13F69
  8
HIDE
 10
2.100000000000362
 20
15.86158882331801
 30
0.0
 11
2.100000000002181
 21
9.2649878575202802
 31
0.0
  0
LINE
  5
13F6A
  8
HIDE
 10
-2.5
 20
15.80348062927896
 30
0.0
 11
-2.4999999999963598
 21
9.1651513899123511
 31
0.0
  0
LINE
  5
13F6B
  8
HIDE
 10
-2.100000000000362
 20
15.86158882331801
 30
0.0
 11
-2.099999999998543
 21
9.2649878575211915
 31
0.0
  0
LINE
  5
13F6C
  8
HIDE
 10
-2.499999999998181
 20
15.71449093534102
 30
0.0
 11
2.5000000000018181
 21
15.71449093534283
 31
0.0
  0
LINE
  5
13F6D
  8
HIDE
 10
-2.4999999999963598
 20
11.71449093534102
 30
0.0
 11
2.5000000000036362
 21
11.714490935342839
 31
0.0
  0
LINE
  5
13F6E
  8
HIDE
 10
-2.4999999999963598
 20
11.71449093534102
 30
0.0
 11
-2.099999999998543
 21
11.48355082766647
 31
0.0
  0
LINE
  5
13F6F
  8
HIDE
 10
2.499999999994543
 20
11.71449093534828
 30
0.0
 11
2.099999999998543
 21
11.48355082767284
 31
0.0
  0
LINE
  5
13F70
  8
HIDE
 10
-2.099999999998543
 20
11.48355082766647
 30
0.0
 11
2.100000000002181
 21
11.48355082766647
 31
0.0
  0
LINE
  5
13F71
  8
HIDE
 10
2.5
 20
-15.80348062927896
 30
0.0
 11
2.5000000000036362
 21
-9.1651513899105304
 31
0.0
  0
LINE
  5
13F72
  8
HIDE
 10
2.100000000000362
 20
-15.86158882331801
 30
0.0
 11
2.100000000002181
 21
-9.2649878575202802
 31
0.0
  0
LINE
  5
13F73
  8
HIDE
 10
-2.5
 20
-15.80348062927896
 30
0.0
 11
-2.4999999999963598
 21
-9.1651513899123511
 31
0.0
  0
LINE
  5
13F74
  8
HIDE
 10
-2.100000000000362
 20
-15.86158882331801
 30
0.0
 11
-2.099999999998543
 21
-9.2649878575211915
 31
0.0
  0
LINE
  5
13F75
  8
HIDE
 10
-2.499999999998181
 20
-15.71449093534102
 30
0.0
 11
2.5000000000018181
 21
-15.71449093534283
 31
0.0
  0
LINE
  5
13F76
  8
HIDE
 10
-2.4999999999963598
 20
-11.71449093534102
 30
0.0
 11
2.5000000000036362
 21
-11.714490935342839
 31
0.0
  0
LINE
  5
13F77
  8
HIDE
 10
-2.4999999999963598
 20
-11.71449093534102
 30
0.0
 11
-2.099999999998543
 21
-11.48355082766647
 31
0.0
  0
LINE
  5
13F78
  8
HIDE
 10
2.499999999994543
 20
-11.71449093534828
 30
0.0
 11
2.099999999998543
 21
-11.48355082767284
 31
0.0
  0
LINE
  5
13F79
  8
HIDE
 10
-2.099999999998543
 20
-11.48355082766647
 30
0.0
 11
2.100000000002181
 21
-11.48355082766647
 31
0.0
  0
LINE
  5
13F7A
  8
CENTER
 10
-48.0
 20
0.0
 30
0.0
 11
48.0
 21
0.0
 31
0.0
  0
LINE
  5
13F7B
  8
CENTER
 10
0.0
 20
-48.0
 30
0.0
 11
0.0
 21
48.0
 31
0.0
  0
ENDBLK
  5
13F7C
  8
0
  0
BLOCK
  8
0
  2
*D3
 70
     1
 10
0.0
 20
0.0
 30
0.0
  3
*D3
  1

  0
LINE
  5
14300
  8
0
 62
     5
 10
2132.6230841653278
 20
1604.8841319169439
 30
0.0
 11
2132.6230841653278
 21
1640.1654530941439
 31
0.0
  0
LINE
  5
14301
  8
0
 62
     5
 10
2192.6230841653278
 20
1601.634131916943
 30
0.0
 11
2192.6230841653278
 21
1640.1654530941439
 31
0.0
  0
LINE
  5
14302
  8
0
 62
     5
 10
2135.6230841653278
 20
1639.1654530941439
 30
0.0
 11
2189.6230841653278
 21
1639.1654530941439
 31
0.0
  0
SOLID
  5
14303
  8
0
 62
     5
 10
2135.6230841653278
 20
1639.6654530941439
 30
0.0
 11
2135.6230841653278
 21
1638.6654530941439
 31
0.0
 12
2132.6230841653278
 22
1639.1654530941439
 32
0.0
 13
2132.6230841653278
 23
1639.1654530941439
 33
0.0
  0
SOLID
  5
14304
  8
0
 62
     5
 10
2189.6230841653278
 20
1639.6654530941439
 30
0.0
 11
2189.6230841653278
 21
1638.6654530941439
 31
0.0
 12
2192.6230841653278
 22
1639.1654530941439
 32
0.0
 13
2192.6230841653278
 23
1639.1654530941439
 33
0.0
  0
INSERT
  5
14305
  8
0
  2
*U11
 10
0.0
 20
0.0
 30
0.0
  0
POINT
  5
14306
  8
DEFPOINTS
 62
     0
 10
2132.6230841653278
 20
1603.8841319169439
 30
0.0
  0
POINT
  5
14307
  8
DEFPOINTS
 62
     0
 10
2192.6230841653278
 20
1600.634131916943
 30
0.0
  0
POINT
  5
14308
  8
DEFPOINTS
 62
     0
 10
2192.6230841653278
 20
1639.1654530941439
 30
0.0
  0
ENDBLK
  5
142FF
  8
0
  0
BLOCK
  8
0
  2
*D4
 70
     1
 10
0.0
 20
0.0
 30
0.0
  3
*D4
  1

  0
LINE
  5
1430D
  8
0
 62
     5
 10
2181.6230841653291
 20
1601.634131916943
 30
0.0
 11
2181.6230841653291
 21
1622.8679619752429
 31
0.0
  0
LINE
  5
1430E
  8
0
 62
     5
 10
2192.6230841653278
 20
1601.634131916943
 30
0.0
 11
2192.6230841653278
 21
1622.8679619752429
 31
0.0
  0
LINE
  5
1430F
  8
0
 62
     5
 10
2184.6230841653291
 20
1621.8679619752429
 30
0.0
 11
2189.6230841653278
 21
1621.8679619752429
 31
0.0
  0
SOLID
  5
14310
  8
0
 62
     5
 10
2184.6230841653291
 20
1622.3679619752429
 30
0.0
 11
2184.6230841653291
 21
1621.367961975242
 31
0.0
 12
2181.6230841653291
 22
1621.8679619752429
 32
0.0
 13
2181.6230841653291
 23
1621.8679619752429
 33
0.0
  0
SOLID
  5
14311
  8
0
 62
     5
 10
2189.6230841653278
 20
1622.3679619752429
 30
0.0
 11
2189.6230841653278
 21
1621.367961975242
 31
0.0
 12
2192.6230841653278
 22
1621.8679619752429
 32
0.0
 13
2192.6230841653278
 23
1621.8679619752429
 33
0.0
  0
INSERT
  5
14312
  8
0
  2
*U12
 10
0.0
 20
0.0
 30
0.0
  0
POINT
  5
14313
  8
DEFPOINTS
 62
     0
 10
2181.6230841653291
 20
1600.6341319169439
 30
0.0
  0
POINT
  5
14314
  8
DEFPOINTS
 62
     0
 10
2192.6230841653278
 20
1600.634131916943
 30
0.0
  0
POINT
  5
14315
  8
DEFPOINTS
 62
     0
 10
2192.6230841653278
 20
1621.8679619752429
 30
0.0
  0
ENDBLK
  5
1430C
  8
0
  0
BLOCK
  8
0
  2
*D5
 70
     1
 10
0.0
 20
0.0
 30
0.0
  3
*D5
  1

  0
LINE
  5
1431A
  8
0
 62
     5
 10
2142.6230841653278
 20
1601.634131916943
 30
0.0
 11
2142.6230841653278
 21
1632.778434278212
 31
0.0
  0
LINE
  5
1431B
  8
0
 62
     5
 10
2153.6230841653278
 20
1601.634131916943
 30
0.0
 11
2153.6230841653278
 21
1632.778434278212
 31
0.0
  0
LINE
  5
1431C
  8
0
 62
     5
 10
2145.6230841653278
 20
1631.778434278212
 30
0.0
 11
2150.6230841653278
 21
1631.778434278212
 31
0.0
  0
SOLID
  5
1431D
  8
0
 62
     5
 10
2145.6230841653278
 20
1632.278434278212
 30
0.0
 11
2145.6230841653278
 21
1631.278434278212
 31
0.0
 12
2142.6230841653278
 22
1631.778434278212
 32
0.0
 13
2142.6230841653278
 23
1631.778434278212
 33
0.0
  0
SOLID
  5
1431E
  8
0
 62
     5
 10
2150.6230841653278
 20
1632.278434278212
 30
0.0
 11
2150.6230841653278
 21
1631.278434278212
 31
0.0
 12
2153.6230841653278
 22
1631.778434278212
 32
0.0
 13
2153.6230841653278
 23
1631.778434278212
 33
0.0
  0
INSERT
  5
1431F
  8
0
  2
*U13
 10
0.0
 20
0.0
 30
0.0
  0
POINT
  5
14320
  8
DEFPOINTS
 62
     0
 10
2142.6230841653278
 20
1600.6341319169439
 30
0.0
  0
POINT
  5
14321
  8
DEFPOINTS
 62
     0
 10
2153.6230841653278
 20
1600.6341319169439
 30
0.0
  0
POINT
  5
14322
  8
DEFPOINTS
 62
     0
 10
2153.6230841653278
 20
1631.778434278212
 30
0.0
  0
ENDBLK
  5
14319
  8
0
  0
BLOCK
  8
0
  2
*D6
 70
     1
 10
0.0
 20
0.0
 30
0.0
  3
*D6
  1

  0
LINE
  5
14327
  8
0
 62
     5
 10
1994.3380868949371
 20
1578.1249047107631
 30
0.0
 11
2012.455890290242
 21
1580.9278159188041
 31
0.0
  0
LINE
  5
14328
  8
0
 62
     5
 10
2102.386078052396
 20
1594.840447915084
 30
0.0
 11
2105.3508095170819
 21
1595.299106112763
 31
0.0
  0
INSERT
  5
14329
  8
0
  2
*U14
 10
0.0
 20
0.0
 30
0.0
  0
LINE
  5
1432A
  8
0
 62
     5
 10
2099.4213465877092
 20
1594.381789717404
 30
0.0
 11
2015.420621754929
 21
1581.3864741164839
 31
0.0
  0
SOLID
  5
1432B
  8
0
 62
     5
 10
2102.3096350194492
 20
1595.3345698258649
 30
0.0
 11
2102.4625210853419
 21
1594.346326004302
 31
0.0
 12
2099.4213465877092
 22
1594.381789717404
 32
0.0
 13
2099.4213465877092
 23
1594.381789717404
 33
0.0
  0
SOLID
  5
1432C
  8
0
 62
     5
 10
2012.3794472572961
 20
1581.421937829585
 30
0.0
 11
2012.5323333231891
 21
1580.4336940080229
 31
0.0
 12
2015.420621754929
 22
1581.3864741164839
 32
0.0
 13
2015.420621754929
 23
1581.3864741164839
 33
0.0
  0
ARC
  5
1432D
  8
0
 62
     5
 10
2057.4209841713191
 20
1587.8841319169439
 30
0.0
 40
42.5
 50
188.13010235416701
 51
190.14235151831059
  0
POINT
  5
1432E
  8
DEFPOINTS
 62
     0
 10
2015.420621754929
 20
1581.3864741164839
 30
0.0
  0
POINT
  5
1432F
  8
DEFPOINTS
 62
     0
 10
2099.4213465877092
 20
1594.381789717404
 30
0.0
  0
ENDBLK
  5
14326
  8
0
  0
BLOCK
  8
0
  2
*D7
 70
     1
 10
0.0
 20
0.0
 30
0.0
  3
*D7
  1

  0
LINE
  5
14334
  8
0
 62
     5
 10
2005.086722140546
 20
1569.4077952212031
 30
0.0
 11
2021.5885164745739
 21
1575.233667152293
 31
0.0
  0
LINE
  5
14335
  8
0
 62
     5
 10
2093.253451868065
 20
1600.5345966815951
 30
0.0
 11
2096.0823308967551
 21
1601.5333175840669
 31
0.0
  0
INSERT
  5
14336
  8
0
  2
*U15
 10
0.0
 20
0.0
 30
0.0
  0
LINE
  5
14337
  8
0
 62
     5
 10
2090.4245728393739
 20
1599.5358757791221
 30
0.0
 11
2024.4173955032641
 21
1576.2323880547649
 31
0.0
  0
SOLID
  5
14338
  8
0
 62
     5
 10
2093.086998384319
 20
1601.0060765197099
 30
0.0
 11
2093.41990535181
 21
1600.06311684348
 31
0.0
 12
2090.4245728393739
 22
1599.5358757791221
 32
0.0
 13
2090.4245728393739
 23
1599.5358757791221
 33
0.0
  0
SOLID
  5
14339
  8
0
 62
     5
 10
2021.422062990828
 20
1575.7051469904079
 30
0.0
 11
2021.754969958319
 21
1574.7621873141779
 31
0.0
 12
2024.4173955032641
 22
1576.2323880547649
 32
0.0
 13
2024.4173955032641
 23
1576.2323880547649
 33
0.0
  0
ARC
  5
1433A
  8
0
 62
     5
 10
2057.4209841713191
 20
1587.8841319169439
 30
0.0
 40
34.999999999999773
 50
194.06871527179129
 51
201.08233414806841
  0
POINT
  5
1433B
  8
DEFPOINTS
 62
     0
 10
2024.4173955032641
 20
1576.2323880547649
 30
0.0
  0
POINT
  5
1433C
  8
DEFPOINTS
 62
     0
 10
2090.4245728393739
 20
1599.5358757791221
 30
0.0
  0
ENDBLK
  5
14333
  8
0
  0
BLOCK
  8
0
  2
*D8
 70
     1
 10
0.0
 20
0.0
 30
0.0
  3
*D8
  1

  0
LINE
  5
14341
  8
0
 62
     5
 10
2014.641023909533
 20
1593.187432775843
 30
0.0
 11
1995.0543149056259
 21
1573.6007237719321
 31
0.0
  0
LINE
  5
14342
  8
0
 62
     5
 10
2062.7242850302259
 20
1545.1041716551581
 30
0.0
 11
2043.1375760263199
 21
1525.5174626512469
 31
0.0
  0
LINE
  5
14343
  8
0
 62
     5
 10
1997.8827420303719
 20
1572.1865102095589
 30
0.0
 11
2041.7233624639459
 21
1528.345889775994
 31
0.0
  0
SOLID
  5
14344
  8
0
 62
     5
 10
1998.236295420965
 20
1572.5400636001521
 30
0.0
 11
1997.529188639779
 21
1571.8329568189649
 31
0.0
 12
1995.7614216868119
 22
1574.307830553118
 32
0.0
 13
1995.7614216868119
 23
1574.307830553118
 33
0.0
  0
SOLID
  5
14345
  8
0
 62
     5
 10
2042.076915854539
 20
1528.6994431665869
 30
0.0
 11
2041.3698090733531
 21
1527.9923363854
 31
0.0
 12
2043.8446828075059
 22
1526.224569432434
 32
0.0
 13
2043.8446828075059
 23
1526.224569432434
 33
0.0
  0
INSERT
  5
14346
  8
0
  2
*U16
 10
0.0
 20
0.0
 30
0.0
  0
POINT
  5
14347
  8
DEFPOINTS
 62
     0
 10
2015.348130690719
 20
1593.894539557029
 30
0.0
  0
POINT
  5
14348
  8
DEFPOINTS
 62
     0
 10
2063.4313918114131
 20
1545.811278436345
 30
0.0
  0
POINT
  5
14349
  8
DEFPOINTS
 62
     0
 10
2043.8446828075059
 20
1526.224569432434
 30
0.0
  0
ENDBLK
  5
14340
  8
0
  0
BLOCK
  8
0
  2
*D9
 70
     1
 10
0.0
 20
0.0
 30
0.0
  3
*D9
  1

  0
LINE
  5
1434E
  8
0
 62
     5
 10
2035.426540026077
 20
1544.6079959380099
 30
0.0
 11
2049.4655469272948
 21
1549.8906359245641
 31
0.0
  0
LINE
  5
1434F
  8
0
 62
     5
 10
2065.376421415343
 20
1555.877627909324
 30
0.0
 11
2068.1842227955872
 21
1556.9341559066349
 31
0.0
  0
INSERT
  5
14350
  8
0
  2
*U17
 10
0.0
 20
0.0
 30
0.0
  0
LINE
  5
14351
  8
0
 62
     5
 10
2062.5686200350988
 20
1554.8210999120131
 30
0.0
 11
2052.2733483075399
 21
1550.947163921875
 31
0.0
  0
SOLID
  5
14352
  8
0
 62
     5
 10
2065.2003334157912
 20
1556.3455948060309
 30
0.0
 11
2065.5525094148952
 21
1555.4096610126171
 31
0.0
 12
2062.5686200350988
 22
1554.8210999120131
 32
0.0
 13
2062.5686200350988
 23
1554.8210999120131
 33
0.0
  0
SOLID
  5
14353
  8
0
 62
     5
 10
2049.2894589277439
 20
1550.358602821271
 30
0.0
 11
2049.6416349268479
 21
1549.422669027856
 31
0.0
 12
2052.2733483075399
 22
1550.947163921875
 32
0.0
 13
2052.2733483075399
 23
1550.947163921875
 33
0.0
  0
POINT
  5
14354
  8
DEFPOINTS
 62
     0
 10
2052.2733483075399
 20
1550.947163921875
 30
0.0
  0
POINT
  5
14355
  8
DEFPOINTS
 62
     0
 10
2062.5686200350988
 20
1554.8210999120131
 30
0.0
  0
ENDBLK
  5
1434D
  8
0
  0
BLOCK
  8
0
  2
*D10
 70
     1
 10
0.0
 20
0.0
 30
0.0
  3
*D10
  1

  0
LINE
  5
14362
  8
0
 62
     5
 10
2032.631464342594
 20
1535.0299208713991
 30
0.0
 11
2052.3088808128232
 21
1549.202230335959
 31
0.0
  0
LINE
  5
14363
  8
0
 62
     5
 10
2062.533087529815
 20
1556.5660334979291
 30
0.0
 11
2064.9674224624318
 21
1558.3193199650641
 31
0.0
  0
INSERT
  5
14364
  8
0
  2
*U18
 10
0.0
 20
0.0
 30
0.0
  0
LINE
  5
14365
  8
0
 62
     5
 10
2060.0987525971982
 20
1554.8127470307929
 30
0.0
 11
2054.7432157454409
 21
1550.955516803095
 31
0.0
  0
SOLID
  5
14366
  8
0
 62
     5
 10
2062.240873118626
 20
1556.9717559866981
 30
0.0
 11
2062.8253019410049
 21
1556.1603110091589
 31
0.0
 12
2060.0987525971982
 22
1554.8127470307929
 32
0.0
 13
2060.0987525971982
 23
1554.8127470307929
 33
0.0
  0
SOLID
  5
14367
  8
0
 62
     5
 10
2052.0166664016342
 20
1549.607952824729
 30
0.0
 11
2052.6010952240122
 21
1548.79650784719
 31
0.0
 12
2054.7432157454409
 22
1550.955516803095
 32
0.0
 13
2054.7432157454409
 23
1550.955516803095
 33
0.0
  0
POINT
  5
14368
  8
DEFPOINTS
 62
     0
 10
2054.7432157454409
 20
1550.955516803095
 30
0.0
  0
POINT
  5
14369
  8
DEFPOINTS
 62
     0
 10
2060.0987525971982
 20
1554.8127470307929
 30
0.0
  0
ENDBLK
  5
14359
  8
0
  0
BLOCK
  8
0
  2
*U11
 70
     1
 10
0.0
 20
0.0
 30
0.0
  3
*U11
  1

  0
TEXT
  5
14470
  8
0
 62
     0
 10
2158.8730841653278
 20
1640.1654530941439
 30
0.0
 40
5.0
  1
60
  0
ENDBLK
  5
14472
  8
0
  0
BLOCK
  8
0
  2
*U12
 70
     1
 10
0.0
 20
0.0
 30
0.0
  3
*U12
  1

  0
TEXT
  5
14474
  8
0
 62
     0
 10
2184.6230841653291
 20
1622.8679619752429
 30
0.0
 40
5.0
  1
11
  0
ENDBLK
  5
14476
  8
0
  0
BLOCK
  8
0
  2
*U13
 70
     1
 10
0.0
 20
0.0
 30
0.0
  3
*U13
  1

  0
TEXT
  5
14478
  8
0
 62
     0
 10
2145.6230841653278
 20
1632.778434278212
 30
0.0
 40
5.0
  1
11
  0
ENDBLK
  5
1447A
  8
0
  0
BLOCK
  8
0
  2
*U14
 70
     1
 10
0.0
 20
0.0
 30
0.0
  3
*U14
  1

  0
TEXT
  5
1447C
  8
0
 62
     0
 10
1995.1734446506059
 20
1579.2660345982181
 30
0.0
 40
5.0
  1
\U+220585
 50
8.7942155297675253
  0
ENDBLK
  5
1447E
  8
0
  0
BLOCK
  8
0
  2
*U15
 70
     1
 10
0.0
 20
0.0
 30
0.0
  3
*U15
  1

  0
TEXT
  5
14480
  8
0
 62
     0
 10
2005.696774849285
 20
1570.683661864924
 30
0.0
 40
5.0
  1
\U+220570
 50
19.445311876266299
  0
ENDBLK
  5
14482
  8
0
  0
BLOCK
  8
0
  2
*U16
 70
     1
 10
0.0
 20
0.0
 30
0.0
  3
*U16
  1

  0
TEXT
  5
14484
  8
0
 62
     0
 10
2017.563880773401
 20
1553.9195850289061
 30
0.0
 40
5.0
  1
68
 50
315.0000000000058
  0
ENDBLK
  5
14486
  8
0
  0
BLOCK
  8
0
  2
*U17
 70
     1
 10
0.0
 20
0.0
 30
0.0
  3
*U17
  1

  0
TEXT
  5
14488
  8
0
 62
     0
 10
2036.0102978203879
 20
1545.896105730528
 30
0.0
 40
5.0
  1
\U+220511
 50
20.62046682904294
  0
ENDBLK
  5
1448A
  8
0
  0
BLOCK
  8
0
  2
*U18
 70
     1
 10
0.0
 20
0.0
 30
0.0
  3
*U18
  1

  0
TEXT
  5
1448C
  8
0
 62
     0
 10
2032.858480497755
 20
1536.425794671316
 30
0.0
 40
5.0
  1
\U+22056.6
 50
35.762649174590869
  0
ENDBLK
  5
1448E
  8
0
  0
ENDSEC
  0
SECTION
  2
ENTITIES
  0
TEXT
  5
14004
  8
0
 10
2063.275924759846
 20
1487.695621573132
 30
0.0
 40
20.0
  1
FK 20
  7
BIG
  0
LINE
  5
140D8
  8
HIDE
 10
2139.6230841653278
 20
1547.3841319169439
 30
0.0
 11
2149.6230841653278
 21
1547.3841319169439
 31
0.0
  0
LINE
  5
140D9
  8
HIDE
 10
2139.6230841653278
 20
1558.3841319169439
 30
0.0
 11
2149.6230841653278
 21
1558.3841319169439
 31
0.0
  0
LINE
  5
140DA
  8
HIDE
 10
2149.6230841653278
 20
1556.1841319169439
 30
0.0
 11
2161.6230841653291
 21
1556.1841319169439
 31
0.0
  0
LINE
  5
140DB
  8
HIDE
 10
2149.6230841653278
 20
1549.584131916944
 30
0.0
 11
2161.6230841653291
 21
1549.584131916944
 31
0.0
  0
LINE
  5
140DC
  8
HIDE
 10
2149.6230841653278
 20
1619.584131916944
 30
0.0
 11
2161.6230841653291
 21
1619.584131916944
 31
0.0
  0
LINE
  5
140DD
  8
HIDE
 10
2149.6230841653278
 20
1626.1841319169439
 30
0.0
 11
2161.6230841653291
 21
1626.1841319169439
 31
0.0
  0
LINE
  5
140DE
  8
HIDE
 10
2139.6230841653278
 20
1617.3841319169439
 30
0.0
 11
2149.6230841653278
 21
1617.3841319169439
 31
0.0
  0
LINE
  5
140DF
  8
HIDE
 10
2139.6230841653278
 20
1628.3841319169439
 30
0.0
 11
2149.6230841653278
 21
1628.3841319169439
 31
0.0
  0
LINE
  5
140E0
  8
CENTER
 10
2163.9061468124892
 20
1552.8841319169439
 30
0.0
 11
2137.0507270521889
 21
1552.8841319169439
 31
0.0
  0
LINE
  5
140E1
  8
CENTER
 10
2163.9061468124892
 20
1622.8841319169439
 30
0.0
 11
2137.0507270521889
 21
1622.8841319169439
 31
0.0
  0
LINE
  5
140E2
  8
0
 10
2149.6230841653278
 20
1630.3841319169439
 30
0.0
 11
2161.6230841653291
 21
1630.3841319169439
 31
0.0
  0
LINE
  5
140E3
  8
0
 10
2139.6230841653278
 20
1630.3841319169439
 30
0.0
 11
2149.6230841653278
 21
1630.3841319169439
 31
0.0
  0
LINE
  5
140E4
  8
0
 10
2149.6230841653278
 20
1545.3841319169439
 30
0.0
 11
2161.6230841653291
 21
1545.3841319169439
 31
0.0
  0
LINE
  5
140E5
  8
0
 10
2139.6230841653278
 20
1545.3841319169439
 30
0.0
 11
2149.6230841653278
 21
1545.3841319169439
 31
0.0
  0
LINE
  5
140E6
  8
CENTER
 10
2196.5318173297092
 20
1587.8841319169439
 30
0.0
 11
2128.718132131442
 21
1587.8841319169439
 31
0.0
  0
LINE
  5
140E7
  8
HIDE
 10
2191.6230841653278
 20
1577.8841319169439
 30
0.0
 11
2181.6230841653291
 21
1577.884131916943
 31
0.0
  0
LINE
  5
140E8
  8
HIDE
 10
2153.6230841653278
 20
1577.884131916943
 30
0.0
 11
2142.6230841653278
 21
1577.8841319169439
 31
0.0
  0
LINE
  5
140E9
  8
HIDE
 10
2191.6230841653278
 20
1597.8841319169439
 30
0.0
 11
2181.6230841653291
 21
1597.8841319169439
 31
0.0
  0
LINE
  5
140EA
  8
HIDE
 10
2153.6230841653278
 20
1597.8841319169439
 30
0.0
 11
2142.6230841653278
 21
1597.8841319169439
 31
0.0
  0
LINE
  5
140EB
  8
HIDE
 10
2191.6230841653278
 20
1575.1341319169439
 30
0.0
 11
2181.6230841653291
 21
1575.1341319169439
 31
0.0
  0
LINE
  5
140EC
  8
HIDE
 10
2153.6230841653278
 20
1575.1341319169451
 30
0.0
 11
2142.6230841653278
 21
1575.1341319169439
 31
0.0
  0
LINE
  5
140ED
  8
HIDE
 10
2191.6230841653278
 20
1600.634131916943
 30
0.0
 11
2181.6230841653291
 21
1600.6341319169439
 31
0.0
  0
LINE
  5
140EE
  8
HIDE
 10
2153.6230841653278
 20
1600.6341319169439
 30
0.0
 11
2142.6230841653278
 21
1600.6341319169439
 31
0.0
  0
LINE
  5
140EF
  8
0
 10
2139.6230841653278
 20
1593.8945689169441
 30
0.0
 11
2161.6230841653291
 21
1593.8945689169441
 31
0.0
  0
LINE
  5
140F0
  8
0
 10
2139.6230841653278
 20
1581.873694916944
 30
0.0
 11
2161.6230841653291
 21
1581.873694916944
 31
0.0
  0
LINE
  5
140F1
  8
0
 10
2191.6230841653278
 20
1616.3841319169439
 30
0.0
 11
2191.6230841653278
 21
1559.3841319169439
 31
0.0
  0
LINE
  5
140F2
  8
0
 10
2149.6230841653278
 20
1630.3841319169439
 30
0.0
 11
2149.6230841653278
 21
1545.3841319169439
 31
0.0
  0
LINE
  5
140F3
  8
0
 10
2191.6230841653278
 20
1616.3841319169439
 30
0.0
 11
2161.6230841653291
 21
1616.3841319169439
 31
0.0
  0
LINE
  5
140F4
  8
0
 10
2191.6230841653278
 20
1559.3841319169439
 30
0.0
 11
2161.6230841653291
 21
1559.3841319169439
 31
0.0
  0
LINE
  5
140F5
  8
0
 10
2161.6230841653291
 20
1630.3841319169439
 30
0.0
 11
2161.6230841653291
 21
1545.3841319169439
 31
0.0
  0
LINE
  5
140F6
  8
0
 10
2139.6230841653278
 20
1630.3841319169439
 30
0.0
 11
2139.6230841653278
 21
1545.3841319169439
 31
0.0
  0
POINT
  5
140F7
  8
0
 10
2191.6231041653291
 20
1587.8841319169439
 30
0.0
  0
POINT
  5
140F8
  8
0
 10
2191.6231041653291
 20
1587.8841319169439
 30
0.0
  0
LINE
  5
140F9
  8
HIDE
 10
2142.6230841653278
 20
1600.88164756167
 30
0.0
 11
2142.6230841653278
 21
1574.886616272217
 31
0.0
  0
LINE
  5
140FA
  8
CENTER
 10
2137.6230841653278
 20
1604.931414659851
 30
0.0
 11
2137.6230841653278
 21
1596.741225070738
 31
0.0
  0
LINE
  5
140FB
  8
HIDE
 10
2142.1230841653278
 20
1603.8841319169439
 30
0.0
 11
2142.1230841653278
 21
1571.8841319169439
 31
0.0
  0
LINE
  5
140FC
  8
0
 10
2132.6230841653278
 20
1603.8841319169439
 30
0.0
 11
2132.6230841653278
 21
1571.8841319169439
 31
0.0
  0
LINE
  5
140FD
  8
0
 10
2138.6230841653278
 20
1603.8841319169439
 30
0.0
 11
2132.6230841653278
 21
1603.8841319169439
 31
0.0
  0
LINE
  5
140FE
  8
HIDE
 10
2142.6230841653278
 20
1600.88164756167
 30
0.0
 11
2142.1230841653278
 21
1601.1703226962641
 31
0.0
  0
LINE
  5
140FF
  8
HIDE
 10
2142.6230841653269
 20
1597.3841319169439
 30
0.0
 11
2132.6230841653278
 21
1597.3841319169439
 31
0.0
  0
LINE
  5
14100
  8
HIDE
 10
2142.6230841653269
 20
1597.8841319169439
 30
0.0
 11
2132.6230841653278
 21
1597.8841319169439
 31
0.0
  0
LINE
  5
14101
  8
0
 10
2138.6230841653278
 20
1592.306401278503
 30
0.0
 11
2132.6230841653278
 21
1592.306401278503
 31
0.0
  0
LINE
  5
14102
  8
HIDE
 10
2135.1230841653269
 20
1603.8841319169439
 30
0.0
 11
2135.1230841653251
 21
1597.8841319169439
 31
0.0
  0
LINE
  5
14103
  8
HIDE
 10
2135.5230841653261
 20
1603.8841319169439
 30
0.0
 11
2135.5230841653261
 21
1597.8841319169439
 31
0.0
  0
LINE
  5
14104
  8
HIDE
 10
2140.1230841653269
 20
1603.8841319169439
 30
0.0
 11
2140.1230841653241
 21
1597.8841319169439
 31
0.0
  0
LINE
  5
14105
  8
HIDE
 10
2139.7230841653268
 20
1603.8841319169439
 30
0.0
 11
2139.7230841653268
 21
1597.8841319169439
 31
0.0
  0
LINE
  5
14106
  8
HIDE
 10
2140.1230841653269
 20
1603.598622852285
 30
0.0
 11
2135.1230841653269
 21
1603.598622852287
 31
0.0
  0
LINE
  5
14107
  8
HIDE
 10
2140.1230841653241
 20
1599.598622852285
 30
0.0
 11
2135.1230841653251
 21
1599.598622852287
 31
0.0
  0
LINE
  5
14108
  8
HIDE
 10
2140.1230841653241
 20
1599.598622852285
 30
0.0
 11
2139.7230841653268
 21
1599.36768274461
 31
0.0
  0
LINE
  5
14109
  8
HIDE
 10
2135.1230841653341
 20
1599.5986228522911
 30
0.0
 11
2135.5230841653301
 21
1599.367682744617
 31
0.0
  0
LINE
  5
1410A
  8
HIDE
 10
2139.7230841653268
 20
1599.36768274461
 30
0.0
 11
2135.5230841653261
 21
1599.36768274461
 31
0.0
  0
LINE
  5
1410B
  8
CENTER
 10
2138.6230841653278
 20
1570.8368491740359
 30
0.0
 11
2138.6230841653278
 21
1579.027038763149
 31
0.0
  0
LINE
  5
1410C
  8
0
 10
2138.6230841653278
 20
1571.8841319169439
 30
0.0
 11
2132.6230841653278
 21
1571.8841319169439
 31
0.0
  0
LINE
  5
1410D
  8
HIDE
 10
2142.6230841653278
 20
1574.886616272217
 30
0.0
 11
2142.1230841653278
 21
1574.597941137622
 31
0.0
  0
LINE
  5
1410E
  8
HIDE
 10
2142.6230841653269
 20
1578.3841319169439
 30
0.0
 11
2132.6230841653278
 21
1578.3841319169439
 31
0.0
  0
LINE
  5
1410F
  8
HIDE
 10
2142.6230841653269
 20
1577.8841319169439
 30
0.0
 11
2132.6230841653278
 21
1577.8841319169439
 31
0.0
  0
LINE
  5
14110
  8
0
 10
2138.6230841653278
 20
1583.461862555384
 30
0.0
 11
2132.6230841653278
 21
1583.461862555384
 31
0.0
  0
LINE
  5
14111
  8
HIDE
 10
2135.1230841653269
 20
1571.8841319169439
 30
0.0
 11
2135.1230841653251
 21
1577.8841319169439
 31
0.0
  0
LINE
  5
14112
  8
HIDE
 10
2135.5230841653261
 20
1571.8841319169439
 30
0.0
 11
2135.5230841653261
 21
1577.8841319169439
 31
0.0
  0
LINE
  5
14113
  8
HIDE
 10
2140.1230841653269
 20
1571.8841319169439
 30
0.0
 11
2140.1230841653241
 21
1577.8841319169439
 31
0.0
  0
LINE
  5
14114
  8
HIDE
 10
2139.7230841653268
 20
1571.8841319169439
 30
0.0
 11
2139.7230841653268
 21
1577.8841319169439
 31
0.0
  0
LINE
  5
14115
  8
HIDE
 10
2140.1230841653269
 20
1572.1696409816029
 30
0.0
 11
2135.1230841653269
 21
1572.1696409816011
 31
0.0
  0
LINE
  5
14116
  8
HIDE
 10
2140.1230841653241
 20
1576.1696409816029
 30
0.0
 11
2135.1230841653251
 21
1576.1696409816011
 31
0.0
  0
LINE
  5
14117
  8
HIDE
 10
2140.1230841653241
 20
1576.1696409816029
 30
0.0
 11
2139.7230841653268
 21
1576.400581089277
 31
0.0
  0
LINE
  5
14118
  8
HIDE
 10
2135.1230841653341
 20
1576.169640981595
 30
0.0
 11
2135.5230841653301
 21
1576.4005810892711
 31
0.0
  0
LINE
  5
14119
  8
HIDE
 10
2139.7230841653268
 20
1576.400581089277
 30
0.0
 11
2135.5230841653261
 21
1576.400581089277
 31
0.0
  0
CIRCLE
  5
1411A
  8
HIDE
 10
2174.6230841653278
 20
1571.1341319169439
 30
0.0
 40
4.049999999999998
  0
CIRCLE
  5
1411B
  8
HIDE
 10
2174.6230841653278
 20
1604.6341319169439
 30
0.0
 40
4.049999999999998
  0
CIRCLE
  5
1411C
  8
HIDE
 10
2160.6230841653278
 20
1571.1341319169439
 30
0.0
 40
4.049999999999998
  0
CIRCLE
  5
1411D
  8
HIDE
 10
2160.6230841653278
 20
1604.6341319169439
 30
0.0
 40
4.049999999999998
  0
ARC
  5
1411E
  8
HIDE
 10
2167.0230841653279
 20
1610.7841319169429
 30
0.0
 40
0.5999999999999996
 50
0.0
 51
90.0
  0
ARC
  5
1411F
  8
HIDE
 10
2154.6230841653278
 20
1610.3841319169439
 30
0.0
 40
1.0
 50
90.0
 51
180.0
  0
ARC
  5
14120
  8
HIDE
 10
2166.6230841653278
 20
1598.8841319169439
 30
0.0
 40
1.0
 50
270.0
 51
0.0
  0
ARC
  5
14121
  8
HIDE
 10
2166.6230841653278
 20
1576.8841319169439
 30
0.0
 40
1.0
 50
0.0
 51
90.0
  0
ARC
  5
14122
  8
HIDE
 10
2154.2230841653281
 20
1598.4841319169441
 30
0.0
 40
0.6000000000000015
 50
180.0
 51
270.0
  0
ARC
  5
14123
  8
HIDE
 10
2154.2230841653281
 20
1577.2841319169429
 30
0.0
 40
0.5999999999999996
 50
90.0
 51
180.0
  0
ARC
  5
14124
  8
HIDE
 10
2167.0230841653279
 20
1564.9841319169441
 30
0.0
 40
0.6000000000000015
 50
270.0
 51
0.0
  0
ARC
  5
14125
  8
HIDE
 10
2154.6230841653278
 20
1565.3841319169439
 30
0.0
 40
1.0
 50
180.0
 51
270.0
  0
LINE
  5
14126
  8
HIDE
 10
2153.6230841653278
 20
1606.334131916944
 30
0.0
 11
2156.9471489101861
 21
1606.334131916944
 31
0.0
  0
LINE
  5
14127
  8
HIDE
 10
2154.6230841653278
 20
1611.3841319169439
 30
0.0
 11
2167.0230841653279
 21
1611.3841319169439
 31
0.0
  0
LINE
  5
14128
  8
HIDE
 10
2167.6230841653278
 20
1602.834131916944
 30
0.0
 11
2164.251100152062
 21
1602.834131916944
 31
0.0
  0
LINE
  5
14129
  8
HIDE
 10
2162.096765970899
 20
1608.406500130139
 30
0.0
 11
2167.6230841653278
 21
1608.8841319169439
 31
0.0
  0
LINE
  5
1412A
  8
HIDE
 10
2153.6230841653278
 20
1602.834131916944
 30
0.0
 11
2156.995068178594
 21
1602.834131916944
 31
0.0
  0
LINE
  5
1412B
  8
HIDE
 10
2153.6230841653278
 20
1572.9341319169439
 30
0.0
 11
2156.995068178594
 21
1572.9341319169439
 31
0.0
  0
LINE
  5
1412C
  8
HIDE
 10
2154.2230841653281
 20
1597.8841319169439
 30
0.0
 11
2166.6230841653278
 21
1597.8841319169439
 31
0.0
  0
LINE
  5
1412D
  8
HIDE
 10
2154.2230841653281
 20
1577.8841319169439
 30
0.0
 11
2166.6230841653278
 21
1577.8841319169439
 31
0.0
  0
LINE
  5
1412E
  8
HIDE
 10
2167.6230841653278
 20
1572.9341319169439
 30
0.0
 11
2164.251100152062
 21
1572.9341319169439
 31
0.0
  0
LINE
  5
1412F
  8
HIDE
 10
2153.6230841653278
 20
1569.4341319169439
 30
0.0
 11
2156.9471489101861
 21
1569.4341319169439
 31
0.0
  0
LINE
  5
14130
  8
HIDE
 10
2167.0230841653279
 20
1564.3841319169439
 30
0.0
 11
2154.6230841653278
 21
1564.3841319169439
 31
0.0
  0
LINE
  5
14131
  8
HIDE
 10
2162.096765970899
 20
1567.361763703748
 30
0.0
 11
2167.6230841653278
 21
1566.8841319169439
 31
0.0
  0
LINE
  5
14132
  8
HIDE
 10
2153.6230841653278
 20
1565.3841319169439
 30
0.0
 11
2153.6230841653278
 21
1610.3841319169439
 31
0.0
  0
LINE
  5
14133
  8
HIDE
 10
2167.6230841653278
 20
1610.7841319169429
 30
0.0
 11
2167.6230841653278
 21
1564.9841319169441
 31
0.0
  0
LINE
  5
14134
  8
HIDE
 10
2167.570841709773
 20
1608.8796166761431
 30
0.0
 11
2167.6230841653278
 21
1608.9318591316969
 31
0.0
  0
ARC
  5
14135
  8
HIDE
 10
2168.2230841653281
 20
1564.9841319169441
 30
0.0
 40
0.5999999999999996
 50
180.0
 51
270.0
  0
ARC
  5
14136
  8
HIDE
 10
2180.6230841653269
 20
1565.3841319169439
 30
0.0
 40
1.0
 50
270.0
 51
0.0
  0
ARC
  5
14137
  8
HIDE
 10
2168.6230841653291
 20
1576.8841319169439
 30
0.0
 40
1.0
 50
90.0
 51
180.0
  0
ARC
  5
14138
  8
HIDE
 10
2168.6230841653291
 20
1598.8841319169439
 30
0.0
 40
1.0
 50
180.0
 51
270.0
  0
ARC
  5
14139
  8
HIDE
 10
2181.0230841653279
 20
1577.2841319169429
 30
0.0
 40
0.6
 50
0.0
 51
90.0
  0
ARC
  5
1413A
  8
HIDE
 10
2181.0230841653279
 20
1598.4841319169441
 30
0.0
 40
0.5999999999999996
 50
270.0
 51
0.0
  0
ARC
  5
1413B
  8
HIDE
 10
2168.2230841653281
 20
1610.784131916944
 30
0.0
 40
0.6000000000000015
 50
90.0
 51
180.0
  0
ARC
  5
1413C
  8
HIDE
 10
2180.6230841653278
 20
1610.3841319169439
 30
0.0
 40
1.0
 50
0.0
 51
90.0
  0
LINE
  5
1413D
  8
HIDE
 10
2181.6230841653291
 20
1569.4341319169439
 30
0.0
 11
2178.2990194204708
 21
1569.4341319169439
 31
0.0
  0
LINE
  5
1413E
  8
HIDE
 10
2180.6230841653269
 20
1564.3841319169439
 30
0.0
 11
2168.2230841653281
 21
1564.3841319169439
 31
0.0
  0
LINE
  5
1413F
  8
HIDE
 10
2167.6230841653269
 20
1572.9341319169439
 30
0.0
 11
2170.995068178594
 21
1572.9341319169439
 31
0.0
  0
LINE
  5
14140
  8
HIDE
 10
2173.149402359757
 20
1567.361763703748
 30
0.0
 11
2167.6230841653269
 21
1566.8841319169439
 31
0.0
  0
LINE
  5
14141
  8
HIDE
 10
2181.6230841653291
 20
1572.9341319169439
 30
0.0
 11
2178.251100152062
 21
1572.9341319169439
 31
0.0
  0
LINE
  5
14142
  8
HIDE
 10
2181.6230841653291
 20
1602.834131916944
 30
0.0
 11
2178.251100152062
 21
1602.834131916944
 31
0.0
  0
LINE
  5
14143
  8
HIDE
 10
2181.0230841653279
 20
1577.8841319169439
 30
0.0
 11
2168.6230841653291
 21
1577.8841319169439
 31
0.0
  0
LINE
  5
14144
  8
HIDE
 10
2181.0230841653279
 20
1597.8841319169439
 30
0.0
 11
2168.6230841653291
 21
1597.8841319169439
 31
0.0
  0
LINE
  5
14145
  8
HIDE
 10
2167.6230841653278
 20
1602.834131916944
 30
0.0
 11
2170.995068178594
 21
1602.834131916944
 31
0.0
  0
LINE
  5
14146
  8
HIDE
 10
2181.6230841653291
 20
1606.334131916944
 30
0.0
 11
2178.2990194204699
 21
1606.334131916944
 31
0.0
  0
LINE
  5
14147
  8
HIDE
 10
2168.2230841653281
 20
1611.3841319169439
 30
0.0
 11
2180.6230841653278
 21
1611.3841319169439
 31
0.0
  0
LINE
  5
14148
  8
HIDE
 10
2173.149402359757
 20
1608.406500130139
 30
0.0
 11
2167.6230841653278
 21
1608.8841319169439
 31
0.0
  0
LINE
  5
14149
  8
HIDE
 10
2181.6230841653291
 20
1610.3841319169439
 30
0.0
 11
2181.6230841653291
 21
1565.3841319169439
 31
0.0
  0
LINE
  5
1414A
  8
HIDE
 10
2167.6230841653278
 20
1608.9318591316969
 30
0.0
 11
2167.6753266208821
 21
1608.8796166761431
 31
0.0
  0
LINE
  5
1414B
  8
HIDE
 10
2138.6230841653278
 20
1571.8841319169439
 30
0.0
 11
2142.1230841653278
 21
1571.8841319169439
 31
0.0
  0
LINE
  5
1414C
  8
HIDE
 10
2138.6230841653278
 20
1583.461862555384
 30
0.0
 11
2142.1230841653278
 21
1583.461862555384
 31
0.0
  0
LINE
  5
1414D
  8
HIDE
 10
2138.6230841653278
 20
1592.306401278503
 30
0.0
 11
2142.1230841653278
 21
1592.306401278503
 31
0.0
  0
LINE
  5
1414E
  8
HIDE
 10
2138.6230841653278
 20
1603.8841319169439
 30
0.0
 11
2142.1230841653278
 21
1603.8841319169439
 31
0.0
  0
LINE
  5
14151
  8
0
 10
2192.6230841653278
 20
1600.634131916943
 30
0.0
 11
2192.6230841653278
 21
1575.1341319169439
 31
0.0
  0
LINE
  5
14152
  8
0
 10
2191.6230841653278
 20
1600.634131916943
 30
0.0
 11
2192.6230841653278
 21
1600.634131916943
 31
0.0
  0
LINE
  5
14160
  8
HIDE
 10
2191.6230841653278
 20
1577.8841319169439
 30
0.0
 11
2192.6230841653278
 21
1577.8841319169439
 31
0.0
  0
LINE
  5
14161
  8
0
 10
2191.6230841653278
 20
1575.1341319169439
 30
0.0
 11
2192.6230841653278
 21
1575.1341319169439
 31
0.0
  0
LINE
  5
14162
  8
HIDE
 10
2191.6230841653278
 20
1597.8841319169439
 30
0.0
 11
2192.6230841653278
 21
1597.8841319169439
 31
0.0
  0
ARC
  5
1436B
  8
0
 10
2057.4209841713191
 20
1587.8841319169439
 30
0.0
 40
42.5
 50
351.86989764583302
 51
8.1301023541670325
  0
ARC
  5
1436C
  8
0
 10
2057.4209841713191
 20
1587.8841319169439
 30
0.0
 40
42.5
 50
261.86989764583291
 51
278.13010235416698
  0
ARC
  5
1436D
  8
0
 10
2057.4209841713191
 20
1587.8841319169439
 30
0.0
 40
42.5
 50
171.86989764583291
 51
188.13010235416701
  0
LINE
  5
1436E
  8
0
 10
2051.4105765312338
 20
1545.8112784363441
 30
0.0
 11
2015.348130690719
 21
1581.873724276858
 31
0.0
  0
LINE
  5
1436F
  8
0
 10
2099.493837651919
 20
1581.873724276858
 30
0.0
 11
2063.4313918114049
 21
1545.8112784363441
 31
0.0
  0
LINE
  5
14370
  8
0
 10
2063.4313918114049
 20
1629.9569853975429
 30
0.0
 11
2099.493837651919
 21
1593.8945395570299
 31
0.0
  0
LINE
  5
14371
  8
0
 10
2015.348130690719
 20
1593.8945395570299
 30
0.0
 11
2051.4105765312338
 21
1629.9569853975429
 31
0.0
  0
ARC
  5
14372
  8
0
 10
2057.4209841713191
 20
1587.8841319169439
 30
0.0
 40
42.5
 50
81.869897645832978
 51
98.130102354167036
  0
CIRCLE
  5
14373
  8
0
 10
2045.587650171319
 20
1613.260739916944
 30
0.0
 40
4.75
  0
CIRCLE
  5
14374
  8
0
 10
2082.7975921713191
 20
1599.7174659169441
 30
0.0
 40
4.75
  0
CIRCLE
  5
14375
  8
0
 10
2069.254318171319
 20
1562.5075239169439
 30
0.0
 40
4.75
  0
CIRCLE
  5
14376
  8
0
 10
2032.04437617132
 20
1576.050797916944
 30
0.0
 40
4.75
  0
ARC
  5
14377
  8
CENTER
 10
2057.4209841713191
 20
1587.8841319169439
 30
0.0
 40
28.0
 50
101.3597930000016
 51
127.9420700000191
  0
ARC
  5
14378
  8
CENTER
 10
2057.4209841713191
 20
1587.8841319169439
 30
0.0
 40
28.0
 50
12.94491500001388
 51
38.454222999994712
  0
ARC
  5
14379
  8
CENTER
 10
2057.4209841713191
 20
1587.8841319169439
 30
0.0
 40
28.0
 50
281.10061099999467
 51
308.86757400002642
  0
ARC
  5
1437A
  8
CENTER
 10
2057.4209841713191
 20
1587.8841319169439
 30
0.0
 40
35.0
 50
78.987026999985105
 51
101.4911119999859
  0
ARC
  5
1437B
  8
CENTER
 10
2057.4209841713191
 20
1587.8841319169439
 30
0.0
 40
35.0
 50
348.15416899999019
 51
11.56222499999574
  0
ARC
  5
1437C
  8
CENTER
 10
2057.4209841713191
 20
1587.8841319169439
 30
0.0
 40
35.0
 50
257.95517099997619
 51
281.75333999997667
  0
CIRCLE
  5
1437D
  8
0
 10
2057.4209841713191
 20
1587.8841319169439
 30
0.0
 40
19.0
  0
ARC
  5
1437E
  8
CENTER
 10
2057.4209841713191
 20
1587.8841319169439
 30
0.0
 40
28.0
 50
191.4976889999985
 51
218.91298399997049
  0
CIRCLE
  5
1437F
  8
0
 10
2057.4209841713191
 20
1552.8841319169439
 30
0.0
 40
3.299999999999998
  0
CIRCLE
  5
14380
  8
0
 10
2022.4209841713191
 20
1587.8841319169439
 30
0.0
 40
3.299999999999998
  0
CIRCLE
  5
14381
  8
0
 10
2057.4209841713191
 20
1622.8841319169439
 30
0.0
 40
3.299999999999998
  0
CIRCLE
  5
14382
  8
0
 10
2092.4209841713191
 20
1587.8841319169439
 30
0.0
 40
3.299999999999998
  0
CIRCLE
  5
14383
  8
0
 10
2092.4209841713191
 20
1587.8841319169439
 30
0.0
 40
5.5
  0
CIRCLE
  5
14384
  8
0
 10
2057.4209841713191
 20
1552.8841319169439
 30
0.0
 40
5.5
  0
CIRCLE
  5
14385
  8
0
 10
2022.4209841713191
 20
1587.8841319169439
 30
0.0
 40
5.5
  0
CIRCLE
  5
14386
  8
0
 10
2057.4209841713191
 20
1622.8841319169439
 30
0.0
 40
5.5
  0
ARC
  5
14387
  8
CENTER
 10
2057.4209841713191
 20
1587.8841319169439
 30
0.0
 40
35.0
 50
168.11090399999961
 51
192.431692999989
  0
LINE
  5
14388
  8
0
 10
2047.243434171319
 20
1615.6254649169441
 30
0.0
 11
2044.367700171319
 21
1615.8770609169439
 31
0.0
  0
LINE
  5
14389
  8
CENTER
 10
2043.0136211713191
 20
1618.7807639169439
 30
0.0
 11
2048.0650121713188
 21
1607.948018916944
 31
0.0
  0
LINE
  5
1438A
  8
0
 10
2044.3675491713191
 20
1615.8769359169439
 30
0.0
 11
2042.7117921713191
 21
1613.5122749169441
 31
0.0
  0
LINE
  5
1438B
  8
0
 10
2048.4633061713189
 20
1613.0090479169439
 30
0.0
 11
2046.8075491713189
 21
1610.644387916944
 31
0.0
  0
LINE
  5
1438C
  8
0
 10
2042.711828171319
 20
1613.5122809169441
 30
0.0
 11
2043.931818171319
 21
1610.895995916944
 31
0.0
  0
LINE
  5
1438D
  8
0
 10
2046.8076491713191
 20
1610.644492916944
 30
0.0
 11
2043.931916171319
 21
1610.8960889169441
 31
0.0
  0
LINE
  5
1438E
  8
0
 10
2047.2433701713189
 20
1615.625367916944
 30
0.0
 11
2048.4633601713199
 21
1613.0090819169441
 31
0.0
  0
LINE
  5
1438F
  8
CENTER
 10
2088.4201561713189
 20
1602.339310916944
 30
0.0
 11
2077.1847171713189
 21
1597.100139916944
 31
0.0
  0
LINE
  5
14390
  8
0
 10
2085.41378817132
 20
1600.9375669169431
 30
0.0
 11
2083.049127171319
 21
1602.5933239169431
 31
0.0
  0
LINE
  5
14391
  8
0
 10
2082.5459001713189
 20
1596.8418099169439
 30
0.0
 11
2080.1812401713191
 21
1598.4975669169439
 31
0.0
  0
LINE
  5
14392
  8
0
 10
2083.0491331713201
 20
1602.5932879169441
 30
0.0
 11
2080.4328481713192
 21
1601.373297916944
 31
0.0
  0
LINE
  5
14393
  8
0
 10
2085.162317171319
 20
1598.0616819169441
 30
0.0
 11
2085.4139131713191
 21
1600.937415916944
 31
0.0
  0
LINE
  5
14394
  8
0
 10
2080.1813451713192
 20
1598.4974669169439
 30
0.0
 11
2080.4329411713188
 21
1601.373199916944
 31
0.0
  0
LINE
  5
14395
  8
0
 10
2085.1622201713189
 20
1598.0617459169439
 30
0.0
 11
2082.545934171319
 21
1596.8417559169441
 31
0.0
  0
LINE
  5
14396
  8
CENTER
 10
2072.4239401713198
 20
1555.710246916944
 30
0.0
 11
2066.084666171319
 21
1569.304865916944
 31
0.0
  0
LINE
  5
14397
  8
0
 10
2070.4744191713189
 20
1559.891327916944
 30
0.0
 11
2072.1301761713189
 21
1562.255988916944
 31
0.0
  0
LINE
  5
14398
  8
0
 10
2066.3786621713189
 20
1562.759215916944
 30
0.0
 11
2068.0344191713189
 21
1565.1238759169439
 31
0.0
  0
LINE
  5
14399
  8
0
 10
2072.130140171319
 20
1562.2559829169429
 30
0.0
 11
2070.9101501713199
 21
1564.8722679169441
 31
0.0
  0
LINE
  5
1439A
  8
0
 10
2067.5985981713188
 20
1560.1428959169441
 30
0.0
 11
2066.3786081713188
 21
1562.759181916944
 31
0.0
  0
LINE
  5
1439B
  8
0
 10
2067.598534171319
 20
1560.142798916944
 30
0.0
 11
2070.4742681713192
 21
1559.8912029169439
 31
0.0
  0
LINE
  5
1439C
  8
0
 10
2068.0343191713191
 20
1565.1237709169441
 30
0.0
 11
2070.910052171319
 21
1564.872174916944
 31
0.0
  0
LINE
  5
1439D
  8
CENTER
 10
2026.6599001713189
 20
1573.5399759169441
 30
0.0
 11
2037.6810991713189
 21
1578.6792449169441
 31
0.0
  0
LINE
  5
1439E
  8
0
 10
2029.428180171318
 20
1574.8306969169439
 30
0.0
 11
2031.792841171319
 21
1573.1749399169439
 31
0.0
  0
LINE
  5
1439F
  8
0
 10
2032.2960681713189
 20
1578.926453916944
 30
0.0
 11
2034.66072817132
 21
1577.270696916944
 31
0.0
  0
LINE
  5
143A0
  8
0
 10
2031.792835171319
 20
1573.174975916944
 30
0.0
 11
2034.409120171319
 21
1574.3949659169441
 31
0.0
  0
LINE
  5
143A1
  8
0
 10
2029.679748171319
 20
1577.706517916944
 30
0.0
 11
2032.296034171319
 21
1578.926507916944
 31
0.0
  0
LINE
  5
143A2
  8
0
 10
2029.6796511713189
 20
1577.7065819169441
 30
0.0
 11
2029.4280551713191
 21
1574.8308479169441
 31
0.0
  0
LINE
  5
143A3
  8
0
 10
2034.6606231713199
 20
1577.2707969169439
 30
0.0
 11
2034.4090271713189
 21
1574.3950639169441
 31
0.0
  0
ARC
  5
143A4
  8
0
 10
2057.4209841713191
 20
1587.8841319169439
 30
0.0
 40
16.0
 50
163.95502437185911
 51
196.04497562814089
  0
ARC
  5
143A5
  8
0
 10
2057.4209841713191
 20
1587.8841319169439
 30
0.0
 40
16.0
 50
253.95502437186269
 51
286.04497562813731
  0
ARC
  5
143A6
  8
0
 10
2057.4209841713191
 20
1587.8841319169439
 30
0.0
 40
16.0
 50
343.95502437185911
 51
16.044975628140929
  0
ARC
  5
143A7
  8
0
 10
2057.4209841713191
 20
1587.8841319169439
 30
0.0
 40
16.0
 50
73.955024371862663
 51
106.04497562813729
  0
POLYLINE
  5
143A8
  8
0
 66
     1
 10
0.0
 20
0.0
 30
0.0
  0
VERTEX
  5
1448F
  8
0
 10
2052.9987148097598
 20
1603.260852428607
 30
0.0
  0
VERTEX
  5
14490
  8
0
 10
2042.0442636596561
 20
1592.306401278503
 30
0.0
  0
SEQEND
  5
14491
  8
0
  0
POLYLINE
  5
143A9
  8
0
 66
     1
 10
0.0
 20
0.0
 30
0.0
  0
VERTEX
  5
14492
  8
0
 10
2042.0442636596561
 20
1583.461862555383
 30
0.0
  0
VERTEX
  5
14493
  8
0
 10
2052.9987148097598
 20
1572.50741140528
 30
0.0
  0
SEQEND
  5
14494
  8
0
  0
POLYLINE
  5
143AA
  8
0
 66
     1
 10
0.0
 20
0.0
 30
0.0
  0
VERTEX
  5
14495
  8
0
 10
2061.8432535328789
 20
1572.50741140528
 30
0.0
  0
VERTEX
  5
14496
  8
0
 10
2072.7977046829828
 20
1583.461862555384
 30
0.0
  0
SEQEND
  5
14497
  8
0
  0
POLYLINE
  5
143AB
  8
0
 66
     1
 10
0.0
 20
0.0
 30
0.0
  0
VERTEX
  5
14498
  8
0
 10
2072.7977046829828
 20
1592.306401278503
 30
0.0
  0
VERTEX
  5
14499
  8
0
 10
2061.8432535328789
 20
1603.260852428607
 30
0.0
  0
SEQEND
  5
1449A
  8
0
  0
ARC
  5
143AC
  8
HIDE
 10
2057.4209841713191
 20
1587.8841319169439
 30
0.0
 40
10.0
 50
270.0
 51
180.0
  0
CIRCLE
  5
143AD
  8
0
 10
2057.4209841713191
 20
1587.8841319169439
 30
0.0
 40
9.5
  0
LINE
  5
143AE
  8
HIDE
 10
2059.9209841713191
 20
1603.6876125462229
 30
0.0
 11
2059.9209841713232
 21
1597.049283306854
 31
0.0
  0
LINE
  5
143AF
  8
HIDE
 10
2059.5209841713199
 20
1603.745720740262
 30
0.0
 11
2059.5209841713208
 21
1597.149119774464
 31
0.0
  0
LINE
  5
143B0
  8
HIDE
 10
2054.9209841713191
 20
1603.6876125462229
 30
0.0
 11
2054.9209841713232
 21
1597.0492833068561
 31
0.0
  0
LINE
  5
143B1
  8
HIDE
 10
2055.3209841713192
 20
1603.745720740262
 30
0.0
 11
2055.3209841713201
 21
1597.1491197744649
 31
0.0
  0
LINE
  5
143B2
  8
HIDE
 10
2054.9209841713209
 20
1603.598622852285
 30
0.0
 11
2059.9209841713209
 21
1603.598622852287
 31
0.0
  0
LINE
  5
143B3
  8
HIDE
 10
2054.9209841713232
 20
1599.598622852285
 30
0.0
 11
2059.9209841713232
 21
1599.598622852287
 31
0.0
  0
LINE
  5
143B4
  8
HIDE
 10
2054.9209841713232
 20
1599.598622852285
 30
0.0
 11
2055.3209841713201
 21
1599.36768274461
 31
0.0
  0
LINE
  5
143B5
  8
HIDE
 10
2059.9209841713141
 20
1599.598622852292
 30
0.0
 11
2059.5209841713181
 21
1599.367682744617
 31
0.0
  0
LINE
  5
143B6
  8
HIDE
 10
2055.3209841713201
 20
1599.36768274461
 30
0.0
 11
2059.5209841713208
 21
1599.36768274461
 31
0.0
  0
LINE
  5
143B7
  8
HIDE
 10
2059.9209841713191
 20
1572.080651287665
 30
0.0
 11
2059.9209841713232
 21
1578.718980527033
 31
0.0
  0
LINE
  5
143B8
  8
HIDE
 10
2059.5209841713199
 20
1572.0225430936259
 30
0.0
 11
2059.5209841713208
 21
1578.619144059423
 31
0.0
  0
LINE
  5
143B9
  8
HIDE
 10
2054.9209841713191
 20
1572.080651287665
 30
0.0
 11
2054.9209841713232
 21
1578.7189805270309
 31
0.0
  0
LINE
  5
143BA
  8
HIDE
 10
2055.3209841713192
 20
1572.0225430936259
 30
0.0
 11
2055.3209841713201
 21
1578.619144059423
 31
0.0
  0
LINE
  5
143BB
  8
HIDE
 10
2054.9209841713209
 20
1572.1696409816029
 30
0.0
 11
2059.9209841713209
 21
1572.1696409816011
 31
0.0
  0
LINE
  5
143BC
  8
HIDE
 10
2054.9209841713232
 20
1576.1696409816029
 30
0.0
 11
2059.9209841713232
 21
1576.1696409816011
 31
0.0
  0
LINE
  5
143BD
  8
HIDE
 10
2054.9209841713232
 20
1576.1696409816029
 30
0.0
 11
2055.3209841713201
 21
1576.400581089277
 31
0.0
  0
LINE
  5
143BE
  8
HIDE
 10
2059.9209841713141
 20
1576.169640981595
 30
0.0
 11
2059.5209841713181
 21
1576.4005810892711
 31
0.0
  0
LINE
  5
143BF
  8
HIDE
 10
2055.3209841713201
 20
1576.400581089277
 30
0.0
 11
2059.5209841713208
 21
1576.400581089277
 31
0.0
  0
LINE
  5
143C0
  8
CENTER
 10
2009.4209841713191
 20
1587.8841319169439
 30
0.0
 11
2105.4209841713191
 21
1587.8841319169439
 31
0.0
  0
LINE
  5
143C1
  8
CENTER
 10
2057.4209841713191
 20
1539.8841319169439
 30
0.0
 11
2057.4209841713191
 21
1635.8841319169439
 31
0.0
  0
ENDSEC
  0
EOF
