  0
SECTION
  2
HEADER
  9
$ACADVER
  1
AC1009
  9
$INSBASE
 10
0.0
 20
0.0
 30
0.0
  9
$EXTMIN
 10
82.27631951072631
 20
46.589537178891739
 30
0.0
  9
$EXTMAX
 10
361.45469897566079
 20
238.20588883751799
 30
0.0
  9
$LIMMIN
 10
0.0
 20
0.0
  9
$LIMMAX
 10
12.0
 20
9.0
  9
$ORTHOMODE
 70
     1
  9
$REGENMODE
 70
     1
  9
$FILLMODE
 70
     1
  9
$QTEXTMODE
 70
     0
  9
$MIRRTEXT
 70
     0
  9
$DRAGMODE
 70
     2
  9
$LTSCALE
 40
4.0
  9
$OSMODE
 70
  2239
  9
$ATTMODE
 70
     1
  9
$TEXTSIZE
 40
1.1999999999999991
  9
$TRACEWID
 40
0.05
  9
$TEXTSTYLE
  7
DUKI
  9
$CLAYER
  8
0
  9
$CELTYPE
  6
BYLAYER
  9
$CECOLOR
 62
   256
  9
$DIMSCALE
 40
1.0
  9
$DIMASZ
 40
0.18
  9
$DIMEXO
 40
0.0625
  9
$DIMDLI
 40
0.38
  9
$DIMRND
 40
0.0
  9
$DIMDLE
 40
0.0
  9
$DIMEXE
 40
0.18
  9
$DIMTP
 40
0.0
  9
$DIMTM
 40
0.0
  9
$DIMTXT
 40
0.18
  9
$DIMCEN
 40
0.09
  9
$DIMTSZ
 40
0.0
  9
$DIMTOL
 70
     0
  9
$DIMLIM
 70
     0
  9
$DIMTIH
 70
     1
  9
$DIMTOH
 70
     1
  9
$DIMSE1
 70
     0
  9
$DIMSE2
 70
     0
  9
$DIMTAD
 70
     0
  9
$DIMZIN
 70
     0
  9
$DIMBLK
  1

  9
$DIMASO
 70
     1
  9
$DIMSHO
 70
     1
  9
$DIMPOST
  1

  9
$DIMAPOST
  1

  9
$DIMALT
 70
     0
  9
$DIMALTD
 70
     2
  9
$DIMALTF
 40
25.399999999999999
  9
$DIMLFAC
 40
1.0
  9
$DIMTOFL
 70
     0
  9
$DIMTVP
 40
0.0
  9
$DIMTIX
 70
     0
  9
$DIMSOXD
 70
     0
  9
$DIMSAH
 70
     0
  9
$DIMBLK1
  1

  9
$DIMBLK2
  1

  9
$DIMSTYLE
  2
STANDARD
  9
$DIMCLRD
 70
     0
  9
$DIMCLRE
 70
     0
  9
$DIMCLRT
 70
     0
  9
$DIMTFAC
 40
1.0
  9
$DIMGAP
 40
0.09
  9
$LUNITS
 70
     2
  9
$LUPREC
 70
     4
  9
$SKETCHINC
 40
0.1
  9
$FILLETRAD
 40
0.2
  9
$AUNITS
 70
     0
  9
$AUPREC
 70
     0
  9
$MENU
  1
.
  9
$ELEVATION
 40
0.0
  9
$PELEVATION
 40
0.0
  9
$THICKNESS
 40
0.0
  9
$LIMCHECK
 70
     0
  9
$BLIPMODE
 70
     0
  9
$CHAMFERA
 40
0.5
  9
$CHAMFERB
 40
0.5
  9
$SKPOLY
 70
     0
  9
$TDCREATE
 40
2455131.5259242239
  9
$TDUPDATE
 40
2456631.5459674541
  9
$TDINDWG
 40
0.1452144213
  9
$TDUSRTIMER
 40
0.1452141435
  9
$USRTIMER
 70
     1
  9
$ANGBASE
 50
0.0
  9
$ANGDIR
 70
     0
  9
$PDMODE
 70
     0
  9
$PDSIZE
 40
0.0
  9
$PLINEWID
 40
0.0
  9
$COORDS
 70
     1
  9
$SPLFRAME
 70
     0
  9
$SPLINETYPE
 70
     6
  9
$SPLINESEGS
 70
     8
  9
$ATTDIA
 70
     0
  9
$ATTREQ
 70
     1
  9
$HANDLING
 70
     1
  9
$HANDSEED
  5
1CAD0
  9
$SURFTAB1
 70
     6
  9
$SURFTAB2
 70
     6
  9
$SURFTYPE
 70
     6
  9
$SURFU
 70
     6
  9
$SURFV
 70
     6
  9
$UCSNAME
  2

  9
$UCSORG
 10
0.0
 20
0.0
 30
0.0
  9
$UCSXDIR
 10
1.0
 20
0.0
 30
0.0
  9
$UCSYDIR
 10
0.0
 20
1.0
 30
0.0
  9
$PUCSNAME
  2

  9
$PUCSORG
 10
0.0
 20
0.0
 30
0.0
  9
$PUCSXDIR
 10
1.0
 20
0.0
 30
0.0
  9
$PUCSYDIR
 10
0.0
 20
1.0
 30
0.0
  9
$USERI1
 70
     0
  9
$USERI2
 70
     0
  9
$USERI3
 70
     0
  9
$USERI4
 70
     0
  9
$USERI5
 70
     0
  9
$USERR1
 40
0.0
  9
$USERR2
 40
0.0
  9
$USERR3
 40
0.0
  9
$USERR4
 40
0.0
  9
$USERR5
 40
0.0
  9
$WORLDVIEW
 70
     1
  9
$SHADEDGE
 70
     3
  9
$SHADEDIF
 70
    70
  9
$TILEMODE
 70
     1
  9
$MAXACTVP
 70
    48
  9
$PLIMCHECK
 70
     0
  9
$PEXTMIN
 10
0.0
 20
0.0
 30
0.0
  9
$PEXTMAX
 10
0.0
 20
0.0
 30
0.0
  9
$PLIMMIN
 10
0.0
 20
0.0
  9
$PLIMMAX
 10
12.0
 20
9.0
  9
$UNITMODE
 70
     0
  9
$VISRETAIN
 70
     1
  9
$PLINEGEN
 70
     0
  9
$PSLTSCALE
 70
     1
  0
ENDSEC
  0
SECTION
  2
TABLES
  0
TABLE
  2
VPORT
 70
     1
  0
VPORT
  2
*ACTIVE
 70
     0
 10
0.0
 20
0.0
 11
1.0
 21
1.0
 12
219.88571939075021
 22
145.081208236349
 13
0.0
 23
0.0
 14
0.5
 24
0.5
 15
0.5
 25
0.5
 16
0.0
 26
0.0
 36
1.0
 17
0.0
 27
0.0
 37
0.0
 40
302.255349634715
 41
2.1408934707903771
 42
50.0
 43
0.0
 44
0.0
 50
0.0
 51
0.0
 71
     0
 72
  2000
 73
     1
 74
     3
 75
     0
 76
     0
 77
     0
 78
     0
  0
ENDTAB
  0
TABLE
  2
LTYPE
 70
     3
  0
LTYPE
  2
CONTINUOUS
 70
     0
  3
Solid line
 72
    65
 73
     0
 40
0.0
  0
LTYPE
  2
PHANTOM2
 70
     0
  3
Phantom (.5x) ___ _ _ ___ _ _ ___ _ _ ___ _ _
 72
    65
 73
     6
 40
1.25
 49
0.625
 49
-0.125
 49
0.125
 49
-0.125
 49
0.125
 49
-0.125
  0
LTYPE
  2
CENTER
 70
     0
  3
____ _ ____ _ ____ _ ____ _ ____ _ ____ _ ____ 
 72
    65
 73
     4
 40
2.0
 49
1.25
 49
-0.25
 49
0.25
 49
-0.25
  0
ENDTAB
  0
TABLE
  2
LAYER
 70
     4
  0
LAYER
  2
0
 70
     0
 62
     7
  6
CONTINUOUS
  0
LAYER
  2
CENTER
 70
     0
 62
     3
  6
CENTER
  0
LAYER
  2
HIDE1
 70
     0
 62
     1
  6
CONTINUOUS
  0
ENDTAB
  0
TABLE
  2
STYLE
 70
     3
  0
STYLE
  2
STANDARD
 70
     0
 40
5.0
 41
1.0
 50
0.0
 71
     0
 42
5.0
  3
txt.shx
  4
whgtxt.shx
  0
STYLE
  2
DUKI
 70
     0
 40
1.1999999999999991
 41
1.0
 50
0.0
 71
     0
 42
1.1999999999999991
  3
txt
  4

  0
ENDTAB
  0
TABLE
  2
VIEW
 70
     0
  0
ENDTAB
  0
TABLE
  2
UCS
 70
     0
  0
ENDTAB
  0
TABLE
  2
APPID
 70
    17
  0
APPID
  2
ACAD
 70
     0
  0
APPID
  2
ACADANNOTATIVE
 70
     0
  0
APPID
  2
ACAD_EXEMPT_FROM_CAD_STANDARDS
 70
     0
  0
APPID
  2
ACAD_DSTYLE_DIMJOGGED_JOGA
 70
     0
  0
APPID
  2
ACAD_PSEXT
 70
     0
  0
APPID
  2
ACAECLAYERSTANDARD
 70
     0
  0
APPID
  2
DCO15
 70
     0
  0
APPID
  2
ACAD_MLEADERVER
 70
     0
  0
APPID
  2
ACAD_DSTYLE_DIMJAG
 70
     0
  0
APPID
  2
ACAD_DSTYLE_DIMBREAK
 70
     0
  0
APPID
  2
ACAD_DSTYLE_DIMTALN
 70
     0
  0
APPID
  2
ACAD_DSTYLE_DIMRADIAL_EXTENSION
 70
     0
  0
APPID
  2
ACAD_DSTYLE_DIMTEXT_FILL
 70
     0
  0
APPID
  2
ACADANNOPO
 70
     0
  0
APPID
  2
ACADSTRINGINFO
 70
     0
  0
APPID
  2
CONTENTBLOCKICON
 70
     0
  0
APPID
  2
ACAD_NAV_VCDISPLAY
 70
     0
  0
ENDTAB
  0
TABLE
  2
DIMSTYLE
 70
     2
  0
DIMSTYLE
  2
STANDARD
 70
     0
  3

  4

  5

  6

  7

 40
1.0
 41
0.18
 42
0.0625
 43
0.38
 44
0.18
 45
0.0
 46
0.0
 47
0.0
 48
0.0
140
0.18
141
0.09
142
0.0
143
25.399999999999999
144
1.0
145
0.0
146
1.0
147
0.09
 71
     0
 72
     0
 73
     1
 74
     1
 75
     0
 76
     0
 77
     0
 78
     0
170
     0
171
     2
172
     0
173
     0
174
     0
175
     0
176
     0
177
     0
178
     0
  0
ENDTAB
  0
ENDSEC
  0
SECTION
  2
BLOCKS
  0
BLOCK
  8
0
  2
$MODEL_SPACE
 70
     0
 10
0.0
 20
0.0
 30
0.0
  3
$MODEL_SPACE
  1

  0
ENDBLK
  5
1C8FF
  8
0
  0
BLOCK
 67
     1
  8
0
  2
$PAPER_SPACE
 70
     0
 10
0.0
 20
0.0
 30
0.0
  3
$PAPER_SPACE
  1

  0
ENDBLK
  5
1C8FB
 67
     1
  8
0
  0
BLOCK
  8
0
  2
*U84
 70
     1
 10
0.0
 20
0.0
 30
0.0
  3
*U84
  1

  0
TEXT
  5
1C88B
  8
0
 10
181.1584104016174
 20
46.589537178891753
 30
0.0
 40
20.0
  1
FK30
  7
DUKI
  0
ENDBLK
  5
1C88D
  8
0
  0
ENDSEC
  0
SECTION
  2
ENTITIES
  0
LINE
  5
1C63C
  8
CENTER
 10
244.3218759727979
 20
161.20588883751799
 30
0.0
 11
323.51635906248072
 21
161.20588883751799
 31
0.0
  0
LINE
  5
1C63D
  8
HIDE1
 10
262.67106758496908
 20
146.20588883751981
 30
0.0
 11
273.6710675849618
 21
146.20588883751981
 31
0.0
  0
LINE
  5
1C63E
  8
HIDE1
 10
305.6710675849618
 20
146.20588883751981
 30
0.0
 11
316.67106758496908
 21
146.20588883751981
 31
0.0
  0
LINE
  5
1C63F
  8
HIDE1
 10
262.67106758496908
 20
176.20588883751799
 30
0.0
 11
273.6710675849618
 21
176.20588883751799
 31
0.0
  0
LINE
  5
1C640
  8
HIDE1
 10
305.6710675849618
 20
176.20588883751799
 30
0.0
 11
316.67106758496908
 21
176.20588883751799
 31
0.0
  0
LINE
  5
1C641
  8
HIDE1
 10
262.67106758496908
 20
142.95588883751799
 30
0.0
 11
273.6710675849618
 21
142.95588883751981
 31
0.0
  0
LINE
  5
1C642
  8
HIDE1
 10
305.6710675849618
 20
142.95588883751981
 30
0.0
 11
316.67106758496908
 21
142.95588883751981
 31
0.0
  0
LINE
  5
1C643
  8
HIDE1
 10
262.67106758496908
 20
179.45588883751981
 30
0.0
 11
273.6710675849618
 21
179.45588883751981
 31
0.0
  0
LINE
  5
1C644
  8
HIDE1
 10
305.6710675849618
 20
179.45588883751981
 30
0.0
 11
316.67106758496908
 21
179.45588883751981
 31
0.0
  0
LINE
  5
1C645
  8
0
 10
271.6710675849618
 20
230.20588883751799
 30
0.0
 11
271.6710675849618
 21
92.205888837517989
 31
0.0
  0
LINE
  5
1C646
  8
0
 10
257.6710675849618
 20
209.20588883751799
 30
0.0
 11
257.6710675849618
 21
113.205888837518
 31
0.0
  0
LINE
  5
1C647
  8
0
 10
316.6710675849618
 20
116.205888837518
 30
0.0
 11
316.6710675849618
 21
206.20588883751799
 31
0.0
  0
LINE
  5
1C648
  8
0
 10
286.6710675849618
 20
230.20588883751799
 30
0.0
 11
286.6710675849618
 21
92.205888837517989
 31
0.0
  0
LINE
  5
1C649
  8
0
 10
271.6710675849618
 20
92.205888837517989
 30
0.0
 11
286.6710675849618
 21
92.205888837517989
 31
0.0
  0
LINE
  5
1C64A
  8
HIDE1
 10
271.6710675849618
 20
94.455888837518003
 30
0.0
 11
282.6710675849618
 21
94.455888837518003
 31
0.0
  0
LINE
  5
1C64B
  8
HIDE1
 10
271.6710675849618
 20
111.955888837518
 30
0.0
 11
282.6710675849618
 21
111.955888837518
 31
0.0
  0
LINE
  5
1C64C
  8
CENTER
 10
267.72695401281192
 20
103.205888837518
 30
0.0
 11
290.21740153861282
 21
103.205888837518
 31
0.0
  0
LINE
  5
1C64D
  8
0
 10
257.6710675849618
 20
113.205888837518
 30
0.0
 11
271.6710675849618
 21
113.205888837518
 31
0.0
  0
LINE
  5
1C64E
  8
HIDE1
 10
282.6710675849618
 20
111.955888837518
 30
0.0
 11
282.6710675849618
 21
94.455888837518003
 31
0.0
  0
LINE
  5
1C64F
  8
HIDE1
 10
282.6710675849618
 20
97.705888837518003
 30
0.0
 11
286.6710675849618
 21
97.705888837518003
 31
0.0
  0
LINE
  5
1C650
  8
HIDE1
 10
282.6710675849618
 20
108.705888837518
 30
0.0
 11
286.6710675849618
 21
108.705888837518
 31
0.0
  0
LINE
  5
1C651
  8
0
 10
316.6710675849618
 20
116.205888837518
 30
0.0
 11
286.6710675849618
 21
116.205888837518
 31
0.0
  0
LINE
  5
1C652
  8
0
 10
316.6710675849618
 20
206.20588883751799
 30
0.0
 11
286.6710675849618
 21
206.20588883751799
 31
0.0
  0
LINE
  5
1C653
  8
HIDE1
 10
271.6710675849618
 20
227.95588883751799
 30
0.0
 11
282.6710675849618
 21
227.95588883751799
 31
0.0
  0
LINE
  5
1C654
  8
HIDE1
 10
271.6710675849618
 20
210.45588883751799
 30
0.0
 11
282.6710675849618
 21
210.45588883751799
 31
0.0
  0
LINE
  5
1C655
  8
HIDE1
 10
267.72695401281192
 20
219.20588883751799
 30
0.0
 11
290.21740153861282
 21
219.20588883751799
 31
0.0
  0
LINE
  5
1C656
  8
0
 10
257.6710675849618
 20
209.20588883751799
 30
0.0
 11
271.6710675849618
 21
209.20588883751799
 31
0.0
  0
LINE
  5
1C657
  8
HIDE1
 10
282.6710675849618
 20
227.95588883751799
 30
0.0
 11
282.6710675849618
 21
210.45588883751799
 31
0.0
  0
LINE
  5
1C658
  8
HIDE1
 10
282.6710675849618
 20
213.70588883751799
 30
0.0
 11
286.6710675849618
 21
213.70588883751799
 31
0.0
  0
LINE
  5
1C659
  8
HIDE1
 10
282.6710675849618
 20
224.70588883751799
 30
0.0
 11
286.6710675849618
 21
224.70588883751799
 31
0.0
  0
LINE
  5
1C65A
  8
0
 10
271.6710675849618
 20
230.20588883751799
 30
0.0
 11
286.6710675849618
 21
230.20588883751799
 31
0.0
  0
CIRCLE
  5
1C65B
  8
HIDE1
 10
297.6710675849618
 20
138.20588883751799
 30
0.0
 40
4.799999999999998
  0
CIRCLE
  5
1C65C
  8
HIDE1
 10
297.6710675849618
 20
184.20588883751799
 30
0.0
 40
4.799999999999998
  0
CIRCLE
  5
1C65D
  8
HIDE1
 10
281.6710675849618
 20
138.20588883751799
 30
0.0
 40
4.799999999999998
  0
CIRCLE
  5
1C65E
  8
HIDE1
 10
281.6710675849618
 20
184.20588883751799
 30
0.0
 40
4.799999999999998
  0
ARC
  5
1C65F
  8
HIDE1
 10
289.0710675849632
 20
191.6058888375176
 30
0.0
 40
0.5999999999999996
 50
0.0
 51
90.0
  0
ARC
  5
1C660
  8
HIDE1
 10
274.6710675849618
 20
191.20588883751799
 30
0.0
 40
1.0
 50
90.0
 51
180.0
  0
ARC
  5
1C661
  8
HIDE1
 10
288.6710675849618
 20
177.20588883751799
 30
0.0
 40
1.0
 50
270.0
 51
0.0
  0
ARC
  5
1C662
  8
HIDE1
 10
288.6710675849618
 20
145.20588883751799
 30
0.0
 40
1.0
 50
0.0
 51
90.0
  0
ARC
  5
1C663
  8
HIDE1
 10
274.27106758496041
 20
176.8058888375183
 30
0.0
 40
0.6000000000000015
 50
180.0
 51
270.0
  0
ARC
  5
1C664
  8
HIDE1
 10
274.27106758496041
 20
145.6058888375176
 30
0.0
 40
0.5999999999999996
 50
90.0
 51
180.0
  0
ARC
  5
1C665
  8
HIDE1
 10
289.0710675849632
 20
130.80588883751841
 30
0.0
 40
0.6000000000000015
 50
270.0
 51
0.0
  0
ARC
  5
1C666
  8
HIDE1
 10
274.6710675849618
 20
131.20588883751799
 30
0.0
 40
1.0
 50
180.0
 51
270.0
  0
LINE
  5
1C667
  8
HIDE1
 10
273.6710675849618
 20
186.25588883751911
 30
0.0
 11
277.3308486964753
 21
186.25588883751911
 31
0.0
  0
LINE
  5
1C668
  8
HIDE1
 10
274.6710675849618
 20
192.20588883751799
 30
0.0
 11
289.0710675849632
 21
192.20588883751799
 31
0.0
  0
LINE
  5
1C669
  8
HIDE1
 10
289.6710675849618
 20
182.05588883751841
 30
0.0
 11
285.96262907234728
 21
182.05588883751841
 31
0.0
  0
LINE
  5
1C66A
  8
HIDE1
 10
283.40009650338573
 20
188.683662726324
 30
0.0
 11
289.6710675849618
 21
189.25588883751911
 31
0.0
  0
LINE
  5
1C66B
  8
HIDE1
 10
273.6710675849618
 20
182.05588883751841
 30
0.0
 11
277.37950609757632
 21
182.05588883751841
 31
0.0
  0
LINE
  5
1C66C
  8
HIDE1
 10
273.6710675849618
 20
140.3558888375176
 30
0.0
 11
277.37950609757632
 21
140.3558888375176
 31
0.0
  0
LINE
  5
1C66D
  8
HIDE1
 10
274.27106758496041
 20
176.20588883751799
 30
0.0
 11
288.6710675849618
 21
176.20588883751799
 31
0.0
  0
LINE
  5
1C66E
  8
HIDE1
 10
274.27106758496041
 20
146.20588883751799
 30
0.0
 11
288.6710675849618
 21
146.20588883751799
 31
0.0
  0
LINE
  5
1C66F
  8
HIDE1
 10
289.6710675849618
 20
140.3558888375176
 30
0.0
 11
285.96262907234728
 21
140.3558888375176
 31
0.0
  0
LINE
  5
1C670
  8
HIDE1
 10
273.6710675849618
 20
136.15588883751869
 30
0.0
 11
277.3308486964753
 21
136.15588883751869
 31
0.0
  0
LINE
  5
1C671
  8
HIDE1
 10
289.0710675849632
 20
130.20588883751799
 30
0.0
 11
274.6710675849618
 21
130.20588883751799
 31
0.0
  0
LINE
  5
1C672
  8
HIDE1
 10
283.40009650338573
 20
133.72811494871181
 30
0.0
 11
289.6710675849618
 21
133.15588883751869
 31
0.0
  0
LINE
  5
1C673
  8
HIDE1
 10
273.6710675849618
 20
131.20588883751799
 30
0.0
 11
273.6710675849618
 21
191.20588883751799
 31
0.0
  0
LINE
  5
1C674
  8
HIDE1
 10
289.6710675849618
 20
191.6058888375176
 30
0.0
 11
289.6710675849618
 21
130.80588883751841
 31
0.0
  0
LINE
  5
1C675
  8
HIDE1
 10
286.11623358901949
 20
140.3558888375176
 30
0.0
 11
285.77235845974161
 21
140.69976396679911
 31
0.0
  0
ARC
  5
1C676
  8
HIDE1
 10
290.27106758496041
 20
130.80588883751841
 30
0.0
 40
0.6000000000000015
 50
180.0
 51
270.0
  0
ARC
  5
1C677
  8
HIDE1
 10
304.6710675849618
 20
131.20588883751799
 30
0.0
 40
1.0
 50
270.0
 51
0.0
  0
ARC
  5
1C678
  8
HIDE1
 10
290.6710675849618
 20
145.20588883751799
 30
0.0
 40
1.0
 50
90.0
 51
180.0
  0
ARC
  5
1C679
  8
HIDE1
 10
290.6710675849618
 20
177.20588883751799
 30
0.0
 40
1.0
 50
180.0
 51
270.0
  0
ARC
  5
1C67A
  8
HIDE1
 10
305.07106758496332
 20
145.6058888375176
 30
0.0
 40
0.6
 50
0.0
 51
90.0
  0
ARC
  5
1C67B
  8
HIDE1
 10
305.07106758496332
 20
176.8058888375183
 30
0.0
 40
0.5999999999999996
 50
270.0
 51
0.0
  0
ARC
  5
1C67C
  8
HIDE1
 10
290.27106758496041
 20
191.6058888375195
 30
0.0
 40
0.6000000000000015
 50
90.0
 51
180.0
  0
ARC
  5
1C67D
  8
HIDE1
 10
304.6710675849618
 20
191.20588883751799
 30
0.0
 40
1.0
 50
0.0
 51
90.0
  0
LINE
  5
1C67E
  8
HIDE1
 10
305.6710675849618
 20
136.15588883751869
 30
0.0
 11
302.01128647344842
 21
136.15588883751869
 31
0.0
  0
LINE
  5
1C67F
  8
HIDE1
 10
304.6710675849618
 20
130.20588883751799
 30
0.0
 11
290.27106758496041
 21
130.20588883751799
 31
0.0
  0
LINE
  5
1C680
  8
HIDE1
 10
289.6710675849618
 20
140.3558888375195
 30
0.0
 11
293.37950609757632
 21
140.3558888375195
 31
0.0
  0
LINE
  5
1C681
  8
HIDE1
 10
295.94203866654522
 20
133.72811494871181
 30
0.0
 11
289.6710675849618
 21
133.15588883751869
 31
0.0
  0
LINE
  5
1C682
  8
HIDE1
 10
305.6710675849618
 20
140.3558888375176
 30
0.0
 11
301.96262907234728
 21
140.3558888375176
 31
0.0
  0
LINE
  5
1C683
  8
HIDE1
 10
305.6710675849618
 20
182.05588883751841
 30
0.0
 11
301.96262907234728
 21
182.05588883751841
 31
0.0
  0
LINE
  5
1C684
  8
HIDE1
 10
305.07106758496332
 20
146.20588883751799
 30
0.0
 11
290.6710675849618
 21
146.20588883751799
 31
0.0
  0
LINE
  5
1C685
  8
HIDE1
 10
305.07106758496332
 20
176.20588883751799
 30
0.0
 11
290.6710675849618
 21
176.20588883751799
 31
0.0
  0
LINE
  5
1C686
  8
HIDE1
 10
289.6710675849618
 20
182.05588883751841
 30
0.0
 11
293.37950609757632
 21
182.05588883751841
 31
0.0
  0
LINE
  5
1C687
  8
HIDE1
 10
305.6710675849618
 20
186.25588883751911
 30
0.0
 11
302.01128647344842
 21
186.25588883751911
 31
0.0
  0
LINE
  5
1C688
  8
HIDE1
 10
290.27106758496041
 20
192.20588883751799
 30
0.0
 11
304.6710675849618
 21
192.20588883751799
 31
0.0
  0
LINE
  5
1C689
  8
HIDE1
 10
295.94203866654522
 20
188.683662726324
 30
0.0
 11
289.6710675849618
 21
189.25588883751911
 31
0.0
  0
LINE
  5
1C68A
  8
HIDE1
 10
305.6710675849618
 20
191.20588883751799
 30
0.0
 11
305.6710675849618
 21
131.20588883751799
 31
0.0
  0
LINE
  5
1C68B
  8
HIDE1
 10
293.569776710182
 20
140.69976396680099
 30
0.0
 11
293.22590158090412
 21
140.3558888375195
 31
0.0
  0
LINE
  5
1C68C
  8
CENTER
 10
266.21075367723188
 20
161.20588883751799
 30
0.0
 11
242.66627270208221
 21
161.20588883751799
 31
0.0
  0
LINE
  5
1C68D
  8
HIDE1
 10
262.67106758496908
 20
141.7058888375162
 30
0.0
 11
262.67106758496908
 21
180.70588883751981
 31
0.0
  0
LINE
  5
1C68E
  8
CENTER
 10
254.17106758496911
 20
136.84922738927369
 30
0.0
 11
254.17106758496911
 21
148.9364167755451
 31
0.0
  0
LINE
  5
1C68F
  8
HIDE1
 10
262.17106758496908
 20
138.70588883751799
 30
0.0
 11
262.17106758496908
 21
183.70588883751799
 31
0.0
  0
LINE
  5
1C690
  8
0
 10
246.67106758496911
 20
138.70588883751799
 30
0.0
 11
246.67106758496911
 21
183.70588883751799
 31
0.0
  0
LINE
  5
1C691
  8
0
 10
257.67106758496908
 20
138.70588883751981
 30
0.0
 11
246.67106758496911
 21
138.70588883751799
 31
0.0
  0
LINE
  5
1C692
  8
HIDE1
 10
262.67106758496908
 20
141.7058888375162
 30
0.0
 11
262.17106758496908
 21
141.41721370292211
 31
0.0
  0
LINE
  5
1C693
  8
HIDE1
 10
257.17106758496908
 20
138.70588883751799
 30
0.0
 11
257.17106758496908
 21
146.95588883751799
 31
0.0
  0
LINE
  5
1C694
  8
HIDE1
 10
256.67106758496908
 20
138.70588883751799
 30
0.0
 11
256.67106758496908
 21
146.95588883751799
 31
0.0
  0
LINE
  5
1C695
  8
HIDE1
 10
251.17106758496911
 20
138.70588883751799
 30
0.0
 11
251.17106758496911
 21
146.95588883751799
 31
0.0
  0
LINE
  5
1C696
  8
HIDE1
 10
251.67106758496911
 20
138.70588883751799
 30
0.0
 11
251.67106758496911
 21
146.95588883751799
 31
0.0
  0
LINE
  5
1C697
  8
HIDE1
 10
257.17106758496908
 20
139.00113453132539
 30
0.0
 11
251.17106758496911
 21
139.00113453132539
 31
0.0
  0
LINE
  5
1C698
  8
HIDE1
 10
257.17106758496908
 20
144.00113453132539
 30
0.0
 11
251.17106758496911
 21
144.00113453132539
 31
0.0
  0
LINE
  5
1C699
  8
HIDE1
 10
257.17106758496908
 20
144.00113453132539
 30
0.0
 11
256.67106758496908
 21
144.28980966591951
 31
0.0
  0
LINE
  5
1C69A
  8
HIDE1
 10
251.17106758496911
 20
144.00113453132539
 30
0.0
 11
251.67106758496911
 21
144.28980966591951
 31
0.0
  0
LINE
  5
1C69B
  8
HIDE1
 10
251.67106758496911
 20
144.28980966591951
 30
0.0
 11
256.67106758496908
 21
144.28980966591951
 31
0.0
  0
LINE
  5
1C69C
  8
HIDE1
 10
262.67106758496908
 20
146.20588883751799
 30
0.0
 11
246.67106758496911
 21
146.20588883751799
 31
0.0
  0
LINE
  5
1C69D
  8
HIDE1
 10
262.67106758496908
 20
146.95588883751799
 30
0.0
 11
246.67106758496911
 21
146.95588883751799
 31
0.0
  0
LINE
  5
1C69E
  8
0
 10
257.67106758496908
 20
153.26763834750301
 30
0.0
 11
246.67106758496911
 21
153.26763834750301
 31
0.0
  0
LINE
  5
1C69F
  8
CENTER
 10
254.17106758496911
 20
185.56255028576231
 30
0.0
 11
254.17106758496911
 21
173.47536089949091
 31
0.0
  0
LINE
  5
1C6A0
  8
0
 10
257.67106758496908
 20
183.70588883751981
 30
0.0
 11
246.67106758496911
 21
183.70588883751799
 31
0.0
  0
LINE
  5
1C6A1
  8
HIDE1
 10
262.67106758496908
 20
180.70588883751981
 30
0.0
 11
262.17106758496908
 21
180.99456397211381
 31
0.0
  0
LINE
  5
1C6A2
  8
HIDE1
 10
257.17106758496908
 20
183.70588883751799
 30
0.0
 11
257.17106758496908
 21
175.45588883751799
 31
0.0
  0
LINE
  5
1C6A3
  8
HIDE1
 10
256.67106758496908
 20
183.70588883751799
 30
0.0
 11
256.67106758496908
 21
175.45588883751799
 31
0.0
  0
LINE
  5
1C6A4
  8
HIDE1
 10
251.17106758496911
 20
183.70588883751799
 30
0.0
 11
251.17106758496911
 21
175.45588883751799
 31
0.0
  0
LINE
  5
1C6A5
  8
HIDE1
 10
251.67106758496911
 20
183.70588883751799
 30
0.0
 11
251.67106758496911
 21
175.45588883751799
 31
0.0
  0
LINE
  5
1C6A6
  8
HIDE1
 10
257.17106758496908
 20
183.4106431437105
 30
0.0
 11
251.17106758496911
 21
183.4106431437105
 31
0.0
  0
LINE
  5
1C6A7
  8
HIDE1
 10
257.17106758496908
 20
178.41064314371059
 30
0.0
 11
251.17106758496911
 21
178.41064314371059
 31
0.0
  0
LINE
  5
1C6A8
  8
HIDE1
 10
257.17106758496908
 20
178.41064314371059
 30
0.0
 11
256.67106758496908
 21
178.1219680091165
 31
0.0
  0
LINE
  5
1C6A9
  8
HIDE1
 10
251.17106758496911
 20
178.41064314371059
 30
0.0
 11
251.67106758496911
 21
178.1219680091165
 31
0.0
  0
LINE
  5
1C6AA
  8
HIDE1
 10
251.67106758496911
 20
178.1219680091165
 30
0.0
 11
256.67106758496908
 21
178.1219680091165
 31
0.0
  0
LINE
  5
1C6AB
  8
HIDE1
 10
262.67106758496908
 20
176.20588883751799
 30
0.0
 11
246.67106758496911
 21
176.20588883751799
 31
0.0
  0
LINE
  5
1C6AC
  8
HIDE1
 10
262.67106758496908
 20
175.45588883751799
 30
0.0
 11
246.67106758496911
 21
175.45588883751799
 31
0.0
  0
LINE
  5
1C6AD
  8
0
 10
257.67106758496908
 20
169.144139327533
 30
0.0
 11
246.67106758496911
 21
169.14413932753121
 31
0.0
  0
LINE
  5
1C6AE
  8
HIDE1
 10
257.67106758496908
 20
183.70588883751981
 30
0.0
 11
262.17106758496908
 21
183.70588883751799
 31
0.0
  0
LINE
  5
1C6AF
  8
HIDE1
 10
257.67106758496908
 20
138.70588883751981
 30
0.0
 11
262.17106758496908
 21
138.70588883751981
 31
0.0
  0
LINE
  5
1C6B0
  8
HIDE1
 10
257.6710675849618
 20
169.144139327533
 30
0.0
 11
262.17106758496908
 21
169.144139327533
 31
0.0
  0
LINE
  5
1C6B1
  8
HIDE1
 10
257.67106758496908
 20
153.26763834750301
 30
0.0
 11
262.17106758496908
 21
153.26763834750301
 31
0.0
  0
LINE
  5
1C6B5
  8
CENTER
 10
142.2763195107263
 20
84.205888837518017
 30
0.0
 11
142.2763195107263
 21
238.20588883751799
 31
0.0
  0
CIRCLE
  5
1C6B6
  8
0
 10
142.2763195107263
 20
161.20588883751799
 30
0.0
 40
25.5
  0
CIRCLE
  5
1C6B7
  8
0
 10
142.2763195107263
 20
161.20588883751799
 30
0.0
 40
48.0
  0
LINE
  5
1C6B8
  8
0
 10
89.276319510726324
 20
205.3873329062684
 30
0.0
 11
89.276319510726324
 21
117.0244447687695
 31
0.0
  0
LINE
  5
1C6B9
  8
0
 10
195.2763195107263
 20
205.3873329062684
 30
0.0
 11
195.2763195107263
 21
117.0244447687695
 31
0.0
  0
LINE
  5
1C6BA
  8
CENTER
 10
82.27631951072631
 20
161.20588883751799
 30
0.0
 11
202.2763195107263
 21
161.20588883751799
 31
0.0
  0
LINE
  5
1C6BB
  8
CENTER
 10
117.2275799010612
 20
146.74399228101379
 30
0.0
 11
101.67646638024679
 21
137.7655527035752
 31
0.0
  0
ARC
  5
1C6BC
  8
CENTER
 10
142.2763195107263
 20
161.20588883751799
 30
0.0
 40
38.5
 50
195.6985967712381
 51
223.2899017746401
  0
LINE
  5
1C6BD
  8
0
 10
114.246912965028
 20
143.37939483751899
 30
0.0
 11
112.8234089650295
 21
138.06680483751759
 31
0.0
  0
CIRCLE
  5
1C6BE
  8
0
 10
108.93434146502931
 20
141.95588883751799
 30
0.0
 40
6.75
  0
LINE
  5
1C6BF
  8
0
 10
105.0452419650327
 20
145.84498983751871
 30
0.0
 11
110.3578039650246
 21
147.26848583751811
 31
0.0
  0
LINE
  5
1C6C0
  8
0
 10
105.0452379650314
 20
145.844974837519
 30
0.0
 11
103.6217339650256
 21
140.5323868375184
 31
0.0
  0
LINE
  5
1C6C1
  8
0
 10
110.3578119650273
 20
147.26848983751759
 30
0.0
 11
114.24689996503091
 21
143.37940283751809
 31
0.0
  0
LINE
  5
1C6C2
  8
CENTER
 10
167.750666068795
 20
146.4982679947901
 30
0.0
 11
183.29410786613241
 21
137.5242576889635
 31
0.0
  0
ARC
  5
1C6C3
  8
CENTER
 10
142.2763195107263
 20
161.20588883751799
 30
0.0
 40
38.5
 50
315.96678873902312
 51
344.6687465502817
  0
LINE
  5
1C6C4
  8
0
 10
180.93086905642929
 20
143.37939483751899
 30
0.0
 11
179.5073650564309
 21
138.06680483751759
 31
0.0
  0
CIRCLE
  5
1C6C5
  8
0
 10
175.61829755643049
 20
141.95588883751799
 30
0.0
 40
6.75
  0
LINE
  5
1C6C6
  8
0
 10
171.72919805642681
 20
145.84498983751871
 30
0.0
 11
177.0417600564333
 21
147.26848583751811
 31
0.0
  0
LINE
  5
1C6C7
  8
0
 10
171.7291940564327
 20
145.844974837519
 30
0.0
 11
170.3056900564342
 21
140.5323868375184
 31
0.0
  0
LINE
  5
1C6C8
  8
0
 10
177.04176805642871
 20
147.26848983751759
 30
0.0
 11
180.93085605643211
 21
143.37940283751809
 31
0.0
  0
ARC
  5
1C6C9
  8
CENTER
 10
142.2763195107263
 20
161.20588883751799
 30
0.0
 40
58.0
 50
77.459216272088
 51
101.49575522468589
  0
ARC
  5
1C6CA
  8
CENTER
 10
142.2763195107263
 20
161.20588883751799
 30
0.0
 40
38.5
 50
77.051749839786297
 51
104.7728919142983
  0
LINE
  5
1C6CB
  8
0
 10
147.58889101072509
 20
201.12939483751899
 30
0.0
 11
146.16538701073381
 21
195.81680483751759
 31
0.0
  0
LINE
  5
1C6CC
  8
0
 10
143.69979001073159
 20
205.01848983751771
 30
0.0
 11
147.58887801072791
 21
201.12940283751809
 31
0.0
  0
CIRCLE
  5
1C6CD
  8
0
 10
142.2763195107263
 20
199.70588883751799
 30
0.0
 40
6.75
  0
ARC
  5
1C6CE
  8
0
 10
142.2763195107263
 20
161.20588883751799
 30
0.0
 40
69.0
 50
39.814997754760583
 51
140.18500224523939
  0
CIRCLE
  5
1C6CF
  8
0
 10
142.2763195107263
 20
219.20588883751799
 30
0.0
 40
5.5
  0
CIRCLE
  5
1C6D0
  8
0
 10
142.2763195107263
 20
219.20588883751799
 30
0.0
 40
8.75
  0
LINE
  5
1C6D1
  8
CENTER
 10
109.4571493514167
 20
194.02505899683121
 30
0.0
 11
92.190332728097005
 21
211.2918756201455
 31
0.0
  0
ARC
  5
1C6D2
  8
CENTER
 10
142.2763195107263
 20
161.20588883751799
 30
0.0
 40
58.0
 50
123.71719280839309
 51
146.68183932352429
  0
CIRCLE
  5
1C6D3
  8
0
 10
101.2641262019105
 20
202.21808214633921
 30
0.0
 40
5.5
  0
CIRCLE
  5
1C6D4
  8
0
 10
101.2641262019105
 20
202.21808214633921
 30
0.0
 40
8.75
  0
LINE
  5
1C6D5
  8
CENTER
 10
116.9267929381394
 20
175.8414448280331
 30
0.0
 11
101.3977010142343
 21
184.8071702305663
 31
0.0
  0
ARC
  5
1C6D6
  8
CENTER
 10
142.2763195107263
 20
161.20588883751799
 30
0.0
 40
38.5
 50
134.4675656881939
 51
164.19277501925009
  0
CIRCLE
  5
1C6D7
  8
0
 10
108.93434146502931
 20
180.45588883751799
 30
0.0
 40
6.75
  0
LINE
  5
1C6D8
  8
0
 10
110.3578119650273
 20
185.76848983751759
 30
0.0
 11
114.24689996503091
 21
181.87940283751809
 31
0.0
  0
LINE
  5
1C6D9
  8
0
 10
105.0452379650314
 20
184.344974837519
 30
0.0
 11
103.6217339650256
 21
179.0323868375184
 31
0.0
  0
LINE
  5
1C6DA
  8
0
 10
112.8233899650304
 20
176.56679583751821
 30
0.0
 11
107.5108249650302
 21
175.14329783751811
 31
0.0
  0
LINE
  5
1C6DB
  8
0
 10
103.6217189650278
 20
179.03239683751809
 30
0.0
 11
107.510805965031
 21
175.14330883751819
 31
0.0
  0
LINE
  5
1C6DC
  8
0
 10
114.246912965028
 20
181.8793948375189
 30
0.0
 11
112.8234089650295
 21
176.56680483751759
 31
0.0
  0
LINE
  5
1C6DD
  8
0
 10
105.0452419650327
 20
184.34498983751871
 30
0.0
 11
110.3578039650246
 21
185.76848583751811
 31
0.0
  0
LINE
  5
1C6DE
  8
0
 10
136.96369701073209
 20
198.28239683751809
 30
0.0
 11
140.85278401072799
 21
194.39330883751819
 31
0.0
  0
LINE
  5
1C6DF
  8
0
 10
146.1653680107346
 20
195.81679583751821
 30
0.0
 11
140.8528030107345
 21
194.39329783751811
 31
0.0
  0
LINE
  5
1C6E0
  8
0
 10
138.38721601072839
 20
203.59497483751909
 30
0.0
 11
136.96371201072981
 21
198.2823868375182
 31
0.0
  0
LINE
  5
1C6E1
  8
0
 10
138.38722001072981
 20
203.5949898375188
 30
0.0
 11
143.69978201072891
 21
205.01848583751811
 31
0.0
  0
ARC
  5
1C6E2
  8
CENTER
 10
142.2763195107263
 20
161.20588883751799
 30
0.0
 40
58.0
 50
34.404126835032351
 51
56.58108025990618
  0
LINE
  5
1C6E3
  8
CENTER
 10
175.27500743977089
 20
194.2045767665571
 30
0.0
 11
192.72189602581139
 21
211.65146535260129
 31
0.0
  0
CIRCLE
  5
1C6E4
  8
0
 10
183.2885128195492
 20
202.21808214633921
 30
0.0
 40
8.75
  0
CIRCLE
  5
1C6E5
  8
0
 10
183.2885128195492
 20
202.21808214633921
 30
0.0
 40
5.5
  0
ARC
  5
1C6E6
  8
CENTER
 10
142.2763195107263
 20
161.20588883751799
 30
0.0
 40
38.5
 50
16.465442707368918
 51
43.632459293181412
  0
LINE
  5
1C6E7
  8
CENTER
 10
167.62584595003941
 20
175.84144475108619
 30
0.0
 11
183.6077819849169
 21
185.0686198229925
 31
0.0
  0
LINE
  5
1C6E8
  8
0
 10
171.7291940564327
 20
184.344974837519
 30
0.0
 11
170.3056900564342
 21
179.0323868375184
 31
0.0
  0
LINE
  5
1C6E9
  8
0
 10
177.04176805642871
 20
185.76848983751759
 30
0.0
 11
180.93085605643211
 21
181.87940283751809
 31
0.0
  0
CIRCLE
  5
1C6EA
  8
0
 10
175.61829755643049
 20
180.45588883751799
 30
0.0
 40
6.75
  0
LINE
  5
1C6EB
  8
0
 10
170.3056750564291
 20
179.03239683751809
 30
0.0
 11
174.19476205643241
 21
175.14330883751819
 31
0.0
  0
LINE
  5
1C6EC
  8
0
 10
180.93086905642929
 20
181.8793948375189
 30
0.0
 11
179.5073650564309
 21
176.56680483751759
 31
0.0
  0
LINE
  5
1C6ED
  8
0
 10
179.50734605643169
 20
176.56679583751821
 30
0.0
 11
174.19478105643151
 21
175.14329783751811
 31
0.0
  0
LINE
  5
1C6EE
  8
0
 10
171.72919805642681
 20
184.34498983751871
 30
0.0
 11
177.0417600564333
 21
185.76848583751811
 31
0.0
  0
ARC
  5
1C6EF
  8
CENTER
 10
142.2763195107263
 20
161.20588883751799
 30
0.0
 40
38.5
 50
255.638595137295
 51
283.58521184037619
  0
LINE
  5
1C6F0
  8
0
 10
147.58889101072509
 20
124.129394837519
 30
0.0
 11
146.16538701073381
 21
118.81680483751749
 31
0.0
  0
LINE
  5
1C6F1
  8
0
 10
143.69979001073159
 20
128.01848983751759
 30
0.0
 11
147.58887801072791
 21
124.1294028375181
 31
0.0
  0
CIRCLE
  5
1C6F2
  8
0
 10
142.2763195107263
 20
122.705888837518
 30
0.0
 40
6.75
  0
CIRCLE
  5
1C6F3
  8
0
 10
142.2763195107263
 20
103.205888837518
 30
0.0
 40
5.5
  0
CIRCLE
  5
1C6F4
  8
0
 10
142.2763195107263
 20
103.205888837518
 30
0.0
 40
8.75
  0
ARC
  5
1C6F5
  8
0
 10
142.2763195107263
 20
161.20588883751799
 30
0.0
 40
69.0
 50
219.81499775476061
 51
320.18500224523939
  0
LINE
  5
1C6F6
  8
0
 10
146.1653680107346
 20
118.8167958375182
 30
0.0
 11
140.8528030107345
 21
117.39329783751811
 31
0.0
  0
LINE
  5
1C6F7
  8
CENTER
 10
175.64728296304469
 20
127.83492538519781
 30
0.0
 11
192.3745768336457
 21
111.10763151459859
 31
0.0
  0
ARC
  5
1C6F8
  8
CENTER
 10
142.2763195107263
 20
161.20588883751799
 30
0.0
 40
58.0
 50
303.90721786214948
 51
327.06072114371682
  0
CIRCLE
  5
1C6F9
  8
0
 10
183.2885128195492
 20
120.1936955286986
 30
0.0
 40
5.5
  0
CIRCLE
  5
1C6FA
  8
0
 10
183.2885128195492
 20
120.1936955286986
 30
0.0
 40
8.75
  0
LINE
  5
1C6FB
  8
0
 10
170.3056750564291
 20
140.53239683751809
 30
0.0
 11
174.19476205643241
 21
136.64330883751819
 31
0.0
  0
LINE
  5
1C6FC
  8
0
 10
179.50734605643169
 20
138.06679583751821
 30
0.0
 11
174.19478105643151
 21
136.64329783751811
 31
0.0
  0
ARC
  5
1C6FD
  8
CENTER
 10
142.2763195107263
 20
161.20588883751799
 30
0.0
 40
58.0
 50
258.7896851219416
 51
281.91349316848323
  0
LINE
  5
1C6FE
  8
CENTER
 10
109.62467367735459
 20
128.5542430041408
 30
0.0
 11
91.997990225078851
 21
110.92755955186691
 31
0.0
  0
ARC
  5
1C6FF
  8
CENTER
 10
142.2763195107263
 20
161.20588883751799
 30
0.0
 40
58.0
 50
213.4325501515543
 51
235.5053118922736
  0
CIRCLE
  5
1C700
  8
0
 10
101.2641262019105
 20
120.1936955286986
 30
0.0
 40
5.5
  0
CIRCLE
  5
1C701
  8
0
 10
101.2641262019105
 20
120.1936955286986
 30
0.0
 40
8.75
  0
LINE
  5
1C702
  8
0
 10
103.6217189650278
 20
140.53239683751809
 30
0.0
 11
107.510805965031
 21
136.64330883751819
 31
0.0
  0
LINE
  5
1C703
  8
0
 10
112.8233899650304
 20
138.06679583751821
 30
0.0
 11
107.5108249650302
 21
136.64329783751811
 31
0.0
  0
LINE
  5
1C704
  8
0
 10
138.38722001072981
 20
126.5949898375187
 30
0.0
 11
143.69978201072891
 21
128.01848583751811
 31
0.0
  0
LINE
  5
1C705
  8
0
 10
138.38721601072839
 20
126.594974837519
 30
0.0
 11
136.96371201072981
 21
121.2823868375183
 31
0.0
  0
LINE
  5
1C706
  8
0
 10
136.96369701073209
 20
121.28239683751811
 30
0.0
 11
140.85278401072799
 21
117.39330883751821
 31
0.0
  0
ARC
  5
1C707
  8
HIDE1
 10
142.2763195107263
 20
161.20588883751799
 30
0.0
 40
15.0
 50
270.0
 51
180.0
  0
CIRCLE
  5
1C708
  8
0
 10
142.2763195107263
 20
161.20588883751799
 30
0.0
 40
14.25
  0
ARC
  5
1C709
  8
0
 10
142.2763195107263
 20
161.20588883751799
 30
0.0
 40
22.5
 50
249.34064672843769
 51
290.65935327156222
  0
ARC
  5
1C70A
  8
0
 10
142.2763195107263
 20
161.20588883751799
 30
0.0
 40
22.5
 50
339.34064672866918
 51
20.659353271330879
  0
ARC
  5
1C70B
  8
0
 10
142.2763195107263
 20
161.20588883751799
 30
0.0
 40
22.5
 50
69.340646728437747
 51
110.6593532715622
  0
ARC
  5
1C70C
  8
0
 10
142.2763195107263
 20
161.20588883751799
 30
0.0
 40
22.5
 50
159.3406467286691
 51
200.6593532713309
  0
POLYLINE
  5
1C70D
  8
0
 66
     1
 10
0.0
 20
0.0
 30
0.0
  0
VERTEX
  5
1CA88
  8
0
 10
121.2231919721025
 20
153.2676383474957
 30
0.0
  0
VERTEX
  5
1CA89
  8
0
 10
134.3380690207058
 20
140.15276129889051
 30
0.0
  0
SEQEND
  5
1CA8A
  8
0
  0
POLYLINE
  5
1C70E
  8
0
 66
     1
 10
0.0
 20
0.0
 30
0.0
  0
VERTEX
  5
1CA8B
  8
0
 10
150.21457000074659
 20
140.15276129889051
 30
0.0
  0
VERTEX
  5
1CA8C
  8
0
 10
163.32944704935011
 20
153.26763834749389
 30
0.0
  0
SEQEND
  5
1CA8D
  8
0
  0
POLYLINE
  5
1C70F
  8
0
 66
     1
 10
0.0
 20
0.0
 30
0.0
  0
VERTEX
  5
1CA8E
  8
0
 10
163.32944704935011
 20
169.1441393275384
 30
0.0
  0
VERTEX
  5
1CA8F
  8
0
 10
150.21457000074659
 20
182.25901637614359
 30
0.0
  0
SEQEND
  5
1CA90
  8
0
  0
POLYLINE
  5
1C710
  8
0
 66
     1
 10
0.0
 20
0.0
 30
0.0
  0
VERTEX
  5
1CA91
  8
0
 10
134.3380690207058
 20
182.25901637614359
 30
0.0
  0
VERTEX
  5
1CA92
  8
0
 10
121.2231919721025
 20
169.14413932754019
 30
0.0
  0
SEQEND
  5
1CA93
  8
0
  0
LINE
  5
1C711
  8
HIDE1
 10
139.2763195107263
 20
183.5049919584965
 30
0.0
 11
139.2763195107263
 21
175.13652055327319
 31
0.0
  0
LINE
  5
1C712
  8
HIDE1
 10
139.7763195107263
 20
183.56656861251599
 30
0.0
 11
139.7763195107263
 21
175.23487668411539
 31
0.0
  0
LINE
  5
1C713
  8
HIDE1
 10
145.2763195107263
 20
183.5049919584965
 30
0.0
 11
145.2763195107263
 21
175.13652055327319
 31
0.0
  0
LINE
  5
1C714
  8
HIDE1
 10
144.7763195107263
 20
183.56656861251599
 30
0.0
 11
144.7763195107263
 21
175.23487668411721
 31
0.0
  0
LINE
  5
1C715
  8
HIDE1
 10
139.2763195107263
 20
183.4106431437105
 30
0.0
 11
145.2763195107263
 21
183.4106431437105
 31
0.0
  0
LINE
  5
1C716
  8
HIDE1
 10
139.2763195107263
 20
178.41064314371059
 30
0.0
 11
145.2763195107263
 21
178.41064314371059
 31
0.0
  0
LINE
  5
1C717
  8
HIDE1
 10
139.2763195107263
 20
178.41064314371059
 30
0.0
 11
139.7763195107263
 21
178.1219680091165
 31
0.0
  0
LINE
  5
1C718
  8
HIDE1
 10
145.2763195107263
 20
178.41064314371059
 30
0.0
 11
144.7763195107263
 21
178.1219680091165
 31
0.0
  0
LINE
  5
1C719
  8
HIDE1
 10
144.7763195107263
 20
178.1219680091165
 30
0.0
 11
139.7763195107263
 21
178.1219680091165
 31
0.0
  0
LINE
  5
1C71A
  8
HIDE1
 10
139.2763195107263
 20
138.90678571654129
 30
0.0
 11
139.2763195107263
 21
147.27525712176461
 31
0.0
  0
LINE
  5
1C71B
  8
HIDE1
 10
139.7763195107263
 20
138.8452090625199
 30
0.0
 11
139.7763195107263
 21
147.17690099092059
 31
0.0
  0
LINE
  5
1C71C
  8
HIDE1
 10
145.2763195107263
 20
138.90678571654129
 30
0.0
 11
145.2763195107263
 21
147.27525712176279
 31
0.0
  0
LINE
  5
1C71D
  8
HIDE1
 10
144.7763195107263
 20
138.8452090625199
 30
0.0
 11
144.7763195107263
 21
147.17690099092059
 31
0.0
  0
LINE
  5
1C71E
  8
HIDE1
 10
139.2763195107263
 20
139.00113453132539
 30
0.0
 11
145.2763195107263
 21
139.00113453132539
 31
0.0
  0
LINE
  5
1C71F
  8
HIDE1
 10
139.2763195107263
 20
144.00113453132539
 30
0.0
 11
145.2763195107263
 21
144.00113453132539
 31
0.0
  0
LINE
  5
1C720
  8
HIDE1
 10
139.2763195107263
 20
144.00113453132539
 30
0.0
 11
139.7763195107263
 21
144.28980966591951
 31
0.0
  0
LINE
  5
1C721
  8
HIDE1
 10
145.2763195107263
 20
144.00113453132539
 30
0.0
 11
144.7763195107263
 21
144.28980966591951
 31
0.0
  0
LINE
  5
1C722
  8
HIDE1
 10
144.7763195107263
 20
144.28980966591951
 30
0.0
 11
139.7763195107263
 21
144.28980966591951
 31
0.0
  0
INSERT
  5
1C7A9
  8
0
  2
*U84
 10
0.0
 20
0.0
 30
0.0
  0
ENDSEC
  0
EOF
