  0
SECTION
  2
HEADER
  9
$ACADVER
  1
AC1009
  9
$INSBASE
 10
0.0
 20
0.0
 30
0.0
  9
$EXTMIN
 10
1903.0405749290021
 20
1433.173578249188
 30
0.0
  9
$EXTMAX
 10
2465.1104961691972
 20
1748.173578249188
 30
0.0
  9
$LIMMIN
 10
0.0
 20
0.0
  9
$LIMMAX
 10
12.0
 20
9.0
  9
$ORTHOMODE
 70
     0
  9
$REGENMODE
 70
     1
  9
$FILLMODE
 70
     1
  9
$QTEXTMODE
 70
     0
  9
$MIRRTEXT
 70
     0
  9
$DRAGMODE
 70
     2
  9
$LTSCALE
 40
5.0
  9
$OSMODE
 70
  2239
  9
$ATTMODE
 70
     1
  9
$TEXTSIZE
 40
2.5
  9
$TRACEWID
 40
0.05
  9
$TEXTSTYLE
  7
BIG
  9
$CLAYER
  8
0
  9
$CELTYPE
  6
BYLAYER
  9
$CECOLOR
 62
   256
  9
$DIMSCALE
 40
1.0
  9
$DIMASZ
 40
3.0
  9
$DIMEXO
 40
1.0
  9
$DIMDLI
 40
0.0
  9
$DIMRND
 40
0.0
  9
$DIMDLE
 40
0.0
  9
$DIMEXE
 40
1.0
  9
$DIMTP
 40
0.0
  9
$DIMTM
 40
0.0
  9
$DIMTXT
 40
3.0
  9
$DIMCEN
 40
0.0
  9
$DIMTSZ
 40
0.0
  9
$DIMTOL
 70
     0
  9
$DIMLIM
 70
     0
  9
$DIMTIH
 70
     0
  9
$DIMTOH
 70
     0
  9
$DIMSE1
 70
     0
  9
$DIMSE2
 70
     0
  9
$DIMTAD
 70
     1
  9
$DIMZIN
 70
     8
  9
$DIMBLK
  1

  9
$DIMASO
 70
     1
  9
$DIMSHO
 70
     1
  9
$DIMPOST
  1

  9
$DIMAPOST
  1

  9
$DIMALT
 70
     0
  9
$DIMALTD
 70
     2
  9
$DIMALTF
 40
25.399999999999999
  9
$DIMLFAC
 40
1.0
  9
$DIMTOFL
 70
     1
  9
$DIMTVP
 40
0.0
  9
$DIMTIX
 70
     1
  9
$DIMSOXD
 70
     0
  9
$DIMSAH
 70
     0
  9
$DIMBLK1
  1

  9
$DIMBLK2
  1

  9
$DIMSTYLE
  2
DUKITEC
  9
$DIMCLRD
 70
     5
  9
$DIMCLRE
 70
     5
  9
$DIMCLRT
 70
     0
  9
$DIMTFAC
 40
1.0
  9
$DIMGAP
 40
1.0
  9
$LUNITS
 70
     2
  9
$LUPREC
 70
     4
  9
$SKETCHINC
 40
0.1
  9
$FILLETRAD
 40
0.2
  9
$AUNITS
 70
     0
  9
$AUPREC
 70
     0
  9
$MENU
  1
.
  9
$ELEVATION
 40
0.0
  9
$PELEVATION
 40
0.0
  9
$THICKNESS
 40
0.0
  9
$LIMCHECK
 70
     0
  9
$BLIPMODE
 70
     0
  9
$CHAMFERA
 40
0.5
  9
$CHAMFERB
 40
0.5
  9
$SKPOLY
 70
     0
  9
$TDCREATE
 40
2454396.7506754519
  9
$TDUPDATE
 40
2456631.4245856251
  9
$TDINDWG
 40
0.0025826389
  9
$TDUSRTIMER
 40
0.0025826389
  9
$USRTIMER
 70
     1
  9
$ANGBASE
 50
0.0
  9
$ANGDIR
 70
     0
  9
$PDMODE
 70
     0
  9
$PDSIZE
 40
0.0
  9
$PLINEWID
 40
0.0
  9
$COORDS
 70
     1
  9
$SPLFRAME
 70
     0
  9
$SPLINETYPE
 70
     6
  9
$SPLINESEGS
 70
     8
  9
$ATTDIA
 70
     0
  9
$ATTREQ
 70
     1
  9
$HANDLING
 70
     1
  9
$HANDSEED
  5
14383
  9
$SURFTAB1
 70
     6
  9
$SURFTAB2
 70
     6
  9
$SURFTYPE
 70
     6
  9
$SURFU
 70
     6
  9
$SURFV
 70
     6
  9
$UCSNAME
  2

  9
$UCSORG
 10
0.0
 20
0.0
 30
0.0
  9
$UCSXDIR
 10
1.0
 20
0.0
 30
0.0
  9
$UCSYDIR
 10
0.0
 20
1.0
 30
0.0
  9
$PUCSNAME
  2

  9
$PUCSORG
 10
0.0
 20
0.0
 30
0.0
  9
$PUCSXDIR
 10
1.0
 20
0.0
 30
0.0
  9
$PUCSYDIR
 10
0.0
 20
1.0
 30
0.0
  9
$USERI1
 70
     0
  9
$USERI2
 70
     0
  9
$USERI3
 70
     0
  9
$USERI4
 70
     0
  9
$USERI5
 70
     0
  9
$USERR1
 40
0.0
  9
$USERR2
 40
0.0
  9
$USERR3
 40
0.0
  9
$USERR4
 40
0.0
  9
$USERR5
 40
0.0
  9
$WORLDVIEW
 70
     1
  9
$SHADEDGE
 70
     3
  9
$SHADEDIF
 70
    70
  9
$TILEMODE
 70
     1
  9
$MAXACTVP
 70
    64
  9
$PLIMCHECK
 70
     0
  9
$PEXTMIN
 10
0.0
 20
0.0
 30
0.0
  9
$PEXTMAX
 10
0.0
 20
0.0
 30
0.0
  9
$PLIMMIN
 10
0.0
 20
0.0
  9
$PLIMMAX
 10
12.0
 20
9.0
  9
$UNITMODE
 70
     0
  9
$VISRETAIN
 70
     1
  9
$PLINEGEN
 70
     0
  9
$PSLTSCALE
 70
     1
  0
ENDSEC
  0
SECTION
  2
TABLES
  0
TABLE
  2
VPORT
 70
     1
  0
VPORT
  2
*ACTIVE
 70
     0
 10
0.0
 20
0.0
 11
1.0
 21
1.0
 12
2149.636260461401
 22
1601.8051974384559
 13
0.0
 23
0.0
 14
0.5
 24
0.5
 15
0.5
 25
0.5
 16
0.0
 26
0.0
 36
1.0
 17
0.0
 27
0.0
 37
0.0
 40
277.87806589889618
 41
2.2309552599758158
 42
50.0
 43
0.0
 44
0.0
 50
0.0
 51
0.0
 71
     0
 72
  2000
 73
     1
 74
     3
 75
     0
 76
     0
 77
     0
 78
     0
  0
ENDTAB
  0
TABLE
  2
LTYPE
 70
     5
  0
LTYPE
  2
CONTINUOUS
 70
     0
  3
Solid line
 72
    65
 73
     0
 40
0.0
  0
LTYPE
  2
PHANTOM2
 70
     0
  3
Phantom (.5x) ___ _ _ ___ _ _ ___ _ _ ___ _ _
 72
    65
 73
     6
 40
1.25
 49
0.625
 49
-0.125
 49
0.125
 49
-0.125
 49
0.125
 49
-0.125
  0
LTYPE
  2
CENTER
 70
     0
  3
___ _ ___ _ ___ _ ___ _ ___ _ ___ _ ___ _ ___ _
 72
    65
 73
     4
 40
0.95
 49
0.625
 49
-0.125
 49
0.075
 49
-0.125
  0
LTYPE
  2
DASHED2
 70
     0
  3
Dashed (.5x) _ _ _ _ _ _ _ _ _ _ _ _ _ _ _ _ _
 72
    65
 73
     2
 40
0.375
 49
0.25
 49
-0.125
  0
ENDTAB
  0
TABLE
  2
LAYER
 70
     5
  0
LAYER
  2
0
 70
     0
 62
     7
  6
CONTINUOUS
  0
LAYER
  2
HIDE
 70
     0
 62
     1
  6
DASHED2
  0
LAYER
  2
CENTER
 70
     0
 62
     3
  6
CENTER
  0
LAYER
  2
HIDE1
 70
     0
 62
     1
  6
CONTINUOUS
  0
ENDTAB
  0
TABLE
  2
STYLE
 70
     4
  0
STYLE
  2
STANDARD
 70
     0
 40
5.0
 41
1.0
 50
0.0
 71
     0
 42
5.0
  3
txt.shx
  4
whgtxt.shx
  0
STYLE
  2
BIG
 70
     0
 40
20.0
 41
1.0
 50
0.0
 71
     0
 42
2.5
  3
txt
  4

  0
ENDTAB
  0
TABLE
  2
VIEW
 70
     0
  0
ENDTAB
  0
TABLE
  2
UCS
 70
     0
  0
ENDTAB
  0
TABLE
  2
APPID
 70
    11
  0
APPID
  2
ACAD
 70
     0
  0
APPID
  2
ACADANNOTATIVE
 70
     0
  0
APPID
  2
ACAD_EXEMPT_FROM_CAD_STANDARDS
 70
     0
  0
APPID
  2
ACAD_DSTYLE_DIMJOGGED_JOGA
 70
     0
  0
APPID
  2
ACAD_PSEXT
 70
     0
  0
APPID
  2
ACAECLAYERSTANDARD
 70
     0
  0
APPID
  2
DCO15
 70
     0
  0
APPID
  2
CONTENTBLOCKICON
 70
     0
  0
APPID
  2
ACAD_NAV_VCDISPLAY
 70
     0
  0
APPID
  2
ACAD_DSTYLE_DIMRADIAL_EXTENSION
 70
     0
  0
APPID
  2
ACAD_MLEADERVER
 70
     0
  0
ENDTAB
  0
TABLE
  2
DIMSTYLE
 70
     4
  0
DIMSTYLE
  2
DUKITEC
 70
     0
  3

  4

  5

  6

  7

 40
1.0
 41
3.0
 42
1.0
 43
0.0
 44
1.0
 45
0.0
 46
0.0
 47
0.0
 48
0.0
140
3.0
141
0.0
142
0.0
143
25.399999999999999
144
1.0
145
0.0
146
1.0
147
1.0
 71
     0
 72
     0
 73
     0
 74
     0
 75
     0
 76
     0
 77
     1
 78
     8
170
     0
171
     2
172
     1
173
     0
174
     1
175
     0
176
     5
177
     5
178
     0
  0
ENDTAB
  0
ENDSEC
  0
SECTION
  2
BLOCKS
  0
BLOCK
  8
0
  2
$MODEL_SPACE
 70
     0
 10
0.0
 20
0.0
 30
0.0
  3
$MODEL_SPACE
  1

  0
ENDBLK
  5
140DF
  8
0
  0
BLOCK
 67
     1
  8
0
  2
$PAPER_SPACE
 70
     0
 10
0.0
 20
0.0
 30
0.0
  3
$PAPER_SPACE
  1

  0
ENDBLK
  5
140DB
 67
     1
  8
0
  0
ENDSEC
  0
SECTION
  2
ENTITIES
  0
TEXT
  5
1403F
  8
0
 10
2068.4826514266761
 20
1496.3035697061459
 30
0.0
 40
20.0
  1
FK 30DFD
  7
BIG
  0
LINE
  5
140FB
  8
HIDE
 10
2220.2630088223409
 20
1696.961273911556
 30
0.0
 11
2220.2630088223409
 21
1679.461273911556
 31
0.0
  0
LINE
  5
140FC
  8
HIDE
 10
2209.2630088223409
 20
1679.461273911556
 30
0.0
 11
2220.2630088223409
 21
1679.461273911556
 31
0.0
  0
LINE
  5
140FD
  8
HIDE
 10
2220.2630088223409
 20
1682.711273911556
 30
0.0
 11
2224.2630088223409
 21
1682.711273911556
 31
0.0
  0
LINE
  5
140FE
  8
HIDE
 10
2220.2630088223409
 20
1693.711273911556
 30
0.0
 11
2224.2630088223409
 21
1693.711273911556
 31
0.0
  0
LINE
  5
140FF
  8
HIDE
 10
2209.2630088223409
 20
1696.961273911556
 30
0.0
 11
2220.2630088223409
 21
1696.961273911556
 31
0.0
  0
LINE
  5
14100
  8
CENTER
 10
2204.793258855148
 20
1688.211273911556
 30
0.0
 11
2228.3858385107969
 21
1688.211273911556
 31
0.0
  0
LINE
  5
14101
  8
0
 10
2209.2630088223409
 20
1699.211273911556
 30
0.0
 11
2224.2630088223409
 21
1699.211273911556
 31
0.0
  0
LINE
  5
14102
  8
0
 10
2195.2630088223409
 20
1678.211273911556
 30
0.0
 11
2209.2630088223409
 21
1678.211273911556
 31
0.0
  0
LINE
  5
14103
  8
0
 10
2224.2630088223409
 20
1699.211273911556
 30
0.0
 11
2224.2630088223409
 21
1675.2113269115559
 31
0.0
  0
LINE
  5
14104
  8
0
 10
2209.2630088223409
 20
1699.211273911556
 30
0.0
 11
2209.2630088223409
 21
1561.211273911556
 31
0.0
  0
LINE
  5
14105
  8
0
 10
2195.2630088223409
 20
1678.211273911556
 30
0.0
 11
2195.2630088223409
 21
1582.211273911556
 31
0.0
  0
LINE
  5
14106
  8
CENTER
 10
2175.5589755608462
 20
1630.211273911556
 30
0.0
 11
2278.1354083661608
 21
1630.211273911556
 31
0.0
  0
LINE
  5
14107
  8
HIDE
 10
2200.2630088223409
 20
1611.961273911556
 30
0.0
 11
2211.2630088223409
 21
1611.961273911556
 31
0.0
  0
LINE
  5
14108
  8
HIDE
 10
2259.2630088223409
 20
1611.961273911556
 30
0.0
 11
2270.2630088223409
 21
1611.961273911556
 31
0.0
  0
LINE
  5
14109
  8
HIDE
 10
2200.2630088223409
 20
1648.461273911556
 30
0.0
 11
2211.2630088223409
 21
1648.461273911556
 31
0.0
  0
LINE
  5
1410A
  8
HIDE
 10
2259.2630088223409
 20
1648.461273911556
 30
0.0
 11
2270.2630088223409
 21
1648.461273911556
 31
0.0
  0
LINE
  5
1410B
  8
0
 10
2270.2630088223409
 20
1585.2113389115559
 30
0.0
 11
2224.2630088223409
 21
1585.2113389115559
 31
0.0
  0
LINE
  5
1410C
  8
0
 10
2270.2630088223409
 20
1675.2113269115559
 30
0.0
 11
2224.2630088223409
 21
1675.2113269115559
 31
0.0
  0
LINE
  5
1410D
  8
CENTER
 10
2204.793258855148
 20
1572.211273911556
 30
0.0
 11
2228.3858385107969
 21
1572.211273911556
 31
0.0
  0
LINE
  5
1410E
  8
HIDE
 10
2209.2630088223409
 20
1563.461273911556
 30
0.0
 11
2220.2630088223409
 21
1563.461273911556
 31
0.0
  0
LINE
  5
1410F
  8
HIDE
 10
2220.2630088223409
 20
1566.711273911556
 30
0.0
 11
2224.2630088223409
 21
1566.711273911556
 31
0.0
  0
LINE
  5
14110
  8
HIDE
 10
2220.2630088223409
 20
1577.711273911556
 30
0.0
 11
2224.2630088223409
 21
1577.711273911556
 31
0.0
  0
LINE
  5
14111
  8
HIDE
 10
2209.2630088223409
 20
1580.961273911556
 30
0.0
 11
2220.2630088223409
 21
1580.961273911556
 31
0.0
  0
LINE
  5
14112
  8
HIDE
 10
2220.2630088223409
 20
1563.461273911556
 30
0.0
 11
2220.2630088223409
 21
1580.961273911556
 31
0.0
  0
LINE
  5
14113
  8
0
 10
2209.2630088223409
 20
1561.211273911556
 30
0.0
 11
2224.2630088223409
 21
1561.211273911556
 31
0.0
  0
LINE
  5
14114
  8
0
 10
2195.2630088223409
 20
1582.211273911556
 30
0.0
 11
2209.2630088223409
 21
1582.211273911556
 31
0.0
  0
LINE
  5
14115
  8
0
 10
2270.2630088223409
 20
1585.2113389115559
 30
0.0
 11
2270.2630088223409
 21
1675.2113269115559
 31
0.0
  0
CIRCLE
  5
14116
  8
HIDE
 10
2235.2630088223409
 20
1607.211273911556
 30
0.0
 40
4.799999999999998
  0
CIRCLE
  5
14117
  8
HIDE
 10
2235.2630088223409
 20
1653.211273911556
 30
0.0
 40
4.799999999999998
  0
CIRCLE
  5
14118
  8
HIDE
 10
2219.2630088223409
 20
1607.211273911556
 30
0.0
 40
4.7999999999999989
  0
CIRCLE
  5
14119
  8
HIDE
 10
2219.2630088223409
 20
1653.211273911556
 30
0.0
 40
4.7999999999999989
  0
ARC
  5
1411A
  8
HIDE
 10
2226.6630088223419
 20
1660.6112739115561
 30
0.0
 40
0.5999999999999996
 50
0.0
 51
90.0
  0
ARC
  5
1411B
  8
HIDE
 10
2212.2630088223409
 20
1660.211273911556
 30
0.0
 40
1.0
 50
90.0
 51
180.0
  0
ARC
  5
1411C
  8
HIDE
 10
2226.2630088223409
 20
1646.211273911556
 30
0.0
 40
1.0
 50
270.0
 51
0.0
  0
ARC
  5
1411D
  8
HIDE
 10
2226.2630088223409
 20
1614.211273911556
 30
0.0
 40
1.0
 50
0.0
 51
90.0
  0
ARC
  5
1411E
  8
HIDE
 10
2211.8630088223408
 20
1645.8112739115561
 30
0.0
 40
0.6000000000000015
 50
180.0
 51
270.0
  0
ARC
  5
1411F
  8
HIDE
 10
2211.8630088223408
 20
1614.6112739115561
 30
0.0
 40
0.5999999999999996
 50
90.0
 51
180.0
  0
ARC
  5
14120
  8
HIDE
 10
2226.6630088223419
 20
1599.8112739115561
 30
0.0
 40
0.6000000000000015
 50
270.0
 51
0.0
  0
ARC
  5
14121
  8
HIDE
 10
2212.2630088223409
 20
1600.211273911556
 30
0.0
 40
1.0
 50
180.0
 51
270.0
  0
LINE
  5
14122
  8
HIDE
 10
2211.2630088223409
 20
1655.2612739115559
 30
0.0
 11
2214.922789933853
 21
1655.2612739115559
 31
0.0
  0
LINE
  5
14123
  8
HIDE
 10
2212.2630088223409
 20
1661.211273911556
 30
0.0
 11
2226.6630088223419
 21
1661.211273911556
 31
0.0
  0
LINE
  5
14124
  8
HIDE
 10
2227.2630088223409
 20
1651.0612739115561
 30
0.0
 11
2223.5545703097268
 21
1651.0612739115561
 31
0.0
  0
LINE
  5
14125
  8
HIDE
 10
2220.9920377407611
 20
1657.689047800362
 30
0.0
 11
2227.2630088223409
 21
1658.2612739115559
 31
0.0
  0
LINE
  5
14126
  8
HIDE
 10
2211.2630088223409
 20
1651.0612739115561
 30
0.0
 11
2214.9714473349568
 21
1651.0612739115561
 31
0.0
  0
LINE
  5
14127
  8
HIDE
 10
2211.2630088223409
 20
1609.3612739115561
 30
0.0
 11
2214.9714473349568
 21
1609.3612739115561
 31
0.0
  0
LINE
  5
14128
  8
HIDE
 10
2211.8630088223408
 20
1645.211273911556
 30
0.0
 11
2226.2630088223409
 21
1645.211273911556
 31
0.0
  0
LINE
  5
14129
  8
HIDE
 10
2211.8630088223408
 20
1615.211273911556
 30
0.0
 11
2226.2630088223409
 21
1615.211273911556
 31
0.0
  0
LINE
  5
1412A
  8
HIDE
 10
2227.2630088223409
 20
1609.3612739115561
 30
0.0
 11
2223.5545703097268
 21
1609.3612739115561
 31
0.0
  0
LINE
  5
1412B
  8
HIDE
 10
2211.2630088223409
 20
1605.161273911556
 30
0.0
 11
2214.922789933853
 21
1605.161273911556
 31
0.0
  0
LINE
  5
1412C
  8
HIDE
 10
2226.6630088223419
 20
1599.211273911556
 30
0.0
 11
2212.2630088223409
 21
1599.211273911556
 31
0.0
  0
LINE
  5
1412D
  8
HIDE
 10
2220.9920377407611
 20
1602.7335000227499
 30
0.0
 11
2227.2630088223409
 21
1602.161273911556
 31
0.0
  0
LINE
  5
1412E
  8
HIDE
 10
2211.2630088223409
 20
1600.211273911556
 30
0.0
 11
2211.2630088223409
 21
1660.211273911556
 31
0.0
  0
LINE
  5
1412F
  8
HIDE
 10
2227.2630088223409
 20
1660.6112739115561
 30
0.0
 11
2227.2630088223409
 21
1599.8112739115561
 31
0.0
  0
LINE
  5
14130
  8
HIDE
 10
2223.7081748264018
 20
1609.3612739115561
 30
0.0
 11
2223.3642996971212
 21
1609.7051490408369
 31
0.0
  0
ARC
  5
14131
  8
HIDE
 10
2227.8630088223408
 20
1599.8112739115561
 30
0.0
 40
0.6000000000000015
 50
180.0
 51
270.0
  0
ARC
  5
14132
  8
HIDE
 10
2242.2630088223409
 20
1600.211273911556
 30
0.0
 40
1.0
 50
270.0
 51
0.0
  0
ARC
  5
14133
  8
HIDE
 10
2228.2630088223409
 20
1614.211273911556
 30
0.0
 40
1.0
 50
90.0
 51
180.0
  0
ARC
  5
14134
  8
HIDE
 10
2228.2630088223409
 20
1646.211273911556
 30
0.0
 40
1.0
 50
180.0
 51
270.0
  0
ARC
  5
14135
  8
HIDE
 10
2242.6630088223419
 20
1614.6112739115561
 30
0.0
 40
0.6
 50
0.0
 51
90.0
  0
ARC
  5
14136
  8
HIDE
 10
2242.6630088223419
 20
1645.8112739115561
 30
0.0
 40
0.5999999999999996
 50
270.0
 51
0.0
  0
ARC
  5
14137
  8
HIDE
 10
2227.8630088223431
 20
1660.611273911557
 30
0.0
 40
0.6000000000000015
 50
90.0
 51
180.0
  0
ARC
  5
14138
  8
HIDE
 10
2242.2630088223409
 20
1660.211273911556
 30
0.0
 40
1.0
 50
0.0
 51
90.0
  0
LINE
  5
14139
  8
HIDE
 10
2243.2630088223409
 20
1605.161273911556
 30
0.0
 11
2239.6032277108311
 21
1605.161273911556
 31
0.0
  0
LINE
  5
1413A
  8
HIDE
 10
2242.2630088223409
 20
1599.211273911556
 30
0.0
 11
2227.8630088223408
 21
1599.211273911556
 31
0.0
  0
LINE
  5
1413B
  8
HIDE
 10
2227.2630088223409
 20
1609.361273911557
 30
0.0
 11
2230.9714473349568
 21
1609.361273911557
 31
0.0
  0
LINE
  5
1413C
  8
HIDE
 10
2233.533979903922
 20
1602.7335000227499
 30
0.0
 11
2227.2630088223409
 21
1602.161273911556
 31
0.0
  0
LINE
  5
1413D
  8
HIDE
 10
2243.2630088223409
 20
1609.3612739115561
 30
0.0
 11
2239.5545703097268
 21
1609.3612739115561
 31
0.0
  0
LINE
  5
1413E
  8
HIDE
 10
2243.2630088223409
 20
1651.0612739115561
 30
0.0
 11
2239.5545703097268
 21
1651.0612739115561
 31
0.0
  0
LINE
  5
1413F
  8
HIDE
 10
2242.6630088223419
 20
1615.211273911556
 30
0.0
 11
2228.2630088223409
 21
1615.211273911556
 31
0.0
  0
LINE
  5
14140
  8
HIDE
 10
2242.6630088223419
 20
1645.211273911556
 30
0.0
 11
2228.2630088223409
 21
1645.211273911556
 31
0.0
  0
LINE
  5
14141
  8
HIDE
 10
2227.2630088223409
 20
1651.0612739115561
 30
0.0
 11
2230.9714473349568
 21
1651.0612739115561
 31
0.0
  0
LINE
  5
14142
  8
HIDE
 10
2243.2630088223409
 20
1655.2612739115559
 30
0.0
 11
2239.6032277108311
 21
1655.2612739115559
 31
0.0
  0
LINE
  5
14143
  8
HIDE
 10
2227.8630088223431
 20
1661.211273911556
 30
0.0
 11
2242.2630088223409
 21
1661.211273911556
 31
0.0
  0
LINE
  5
14144
  8
HIDE
 10
2233.533979903922
 20
1657.689047800362
 30
0.0
 11
2227.2630088223409
 21
1658.2612739115559
 31
0.0
  0
LINE
  5
14145
  8
HIDE
 10
2243.2630088223409
 20
1660.211273911556
 30
0.0
 11
2243.2630088223409
 21
1600.211273911556
 31
0.0
  0
LINE
  5
14146
  8
HIDE
 10
2231.1617179475611
 20
1609.705149040838
 30
0.0
 11
2230.81784281828
 21
1609.361273911557
 31
0.0
  0
CIRCLE
  5
14147
  8
HIDE
 10
2251.2630088223409
 20
1607.211273911556
 30
0.0
 40
4.799999999999998
  0
CIRCLE
  5
14148
  8
HIDE
 10
2251.2630088223409
 20
1653.211273911556
 30
0.0
 40
4.799999999999998
  0
ARC
  5
14149
  8
HIDE
 10
2243.8630088223408
 20
1599.8112739115561
 30
0.0
 40
0.6000000000000015
 50
180.0
 51
270.0
  0
ARC
  5
1414A
  8
HIDE
 10
2258.2630088223409
 20
1600.211273911556
 30
0.0
 40
1.0
 50
270.0
 51
0.0
  0
ARC
  5
1414B
  8
HIDE
 10
2244.2630088223409
 20
1614.211273911556
 30
0.0
 40
1.0
 50
90.0
 51
180.0
  0
ARC
  5
1414C
  8
HIDE
 10
2244.2630088223409
 20
1646.211273911556
 30
0.0
 40
1.0
 50
180.0
 51
270.0
  0
ARC
  5
1414D
  8
HIDE
 10
2258.6630088223419
 20
1614.6112739115561
 30
0.0
 40
0.6
 50
0.0
 51
90.0
  0
ARC
  5
1414E
  8
HIDE
 10
2258.6630088223419
 20
1645.8112739115561
 30
0.0
 40
0.5999999999999996
 50
270.0
 51
0.0
  0
ARC
  5
1414F
  8
HIDE
 10
2243.8630088223431
 20
1660.611273911557
 30
0.0
 40
0.6000000000000015
 50
90.0
 51
180.0
  0
ARC
  5
14150
  8
HIDE
 10
2258.2630088223409
 20
1660.211273911556
 30
0.0
 40
1.0
 50
0.0
 51
90.0
  0
LINE
  5
14151
  8
HIDE
 10
2259.2630088223409
 20
1605.161273911556
 30
0.0
 11
2255.6032277108311
 21
1605.161273911556
 31
0.0
  0
LINE
  5
14152
  8
HIDE
 10
2258.2630088223409
 20
1599.211273911556
 30
0.0
 11
2243.8630088223408
 21
1599.211273911556
 31
0.0
  0
LINE
  5
14153
  8
HIDE
 10
2243.2630088223409
 20
1609.361273911557
 30
0.0
 11
2246.9714473349568
 21
1609.361273911557
 31
0.0
  0
LINE
  5
14154
  8
HIDE
 10
2249.533979903922
 20
1602.7335000227499
 30
0.0
 11
2243.2630088223409
 21
1602.161273911556
 31
0.0
  0
LINE
  5
14155
  8
HIDE
 10
2259.2630088223409
 20
1609.3612739115561
 30
0.0
 11
2255.5545703097259
 21
1609.3612739115561
 31
0.0
  0
LINE
  5
14156
  8
HIDE
 10
2259.2630088223409
 20
1651.0612739115561
 30
0.0
 11
2255.5545703097259
 21
1651.0612739115561
 31
0.0
  0
LINE
  5
14157
  8
HIDE
 10
2258.6630088223419
 20
1615.211273911556
 30
0.0
 11
2244.2630088223409
 21
1615.211273911556
 31
0.0
  0
LINE
  5
14158
  8
HIDE
 10
2258.6630088223419
 20
1645.211273911556
 30
0.0
 11
2244.2630088223409
 21
1645.211273911556
 31
0.0
  0
LINE
  5
14159
  8
HIDE
 10
2243.2630088223409
 20
1651.0612739115561
 30
0.0
 11
2246.9714473349568
 21
1651.0612739115561
 31
0.0
  0
LINE
  5
1415A
  8
HIDE
 10
2259.2630088223409
 20
1655.2612739115559
 30
0.0
 11
2255.6032277108311
 21
1655.2612739115559
 31
0.0
  0
LINE
  5
1415B
  8
HIDE
 10
2243.8630088223431
 20
1661.211273911556
 30
0.0
 11
2258.2630088223409
 21
1661.211273911556
 31
0.0
  0
LINE
  5
1415C
  8
HIDE
 10
2249.533979903922
 20
1657.689047800362
 30
0.0
 11
2243.2630088223409
 21
1658.2612739115559
 31
0.0
  0
LINE
  5
1415D
  8
HIDE
 10
2259.2630088223409
 20
1660.211273911556
 30
0.0
 11
2259.2630088223409
 21
1600.211273911556
 31
0.0
  0
LINE
  5
1415E
  8
HIDE
 10
2247.1617179475611
 20
1609.705149040838
 30
0.0
 11
2246.81784281828
 21
1609.361273911557
 31
0.0
  0
LINE
  5
1415F
  8
HIDE
 10
2259.2630088223409
 20
1645.211273911556
 30
0.0
 11
2270.2630088223409
 21
1645.211273911556
 31
0.0
  0
LINE
  5
14160
  8
HIDE
 10
2259.2630088223409
 20
1615.211273911556
 30
0.0
 11
2270.2630088223409
 21
1615.211273911556
 31
0.0
  0
LINE
  5
14161
  8
HIDE
 10
2200.2630088223409
 20
1645.211273911556
 30
0.0
 11
2211.2630088223409
 21
1645.211273911556
 31
0.0
  0
LINE
  5
14162
  8
HIDE
 10
2200.2630088223409
 20
1615.211273911556
 30
0.0
 11
2211.2630088223409
 21
1615.211273911556
 31
0.0
  0
LINE
  5
14163
  8
0
 10
2224.2630088223409
 20
1585.2113389115559
 30
0.0
 11
2224.2630088223409
 21
1561.211273911556
 31
0.0
  0
ARC
  5
14198
  8
CENTER
 10
2057.2936988223428
 20
1630.211273911556
 30
0.0
 40
38.5
 50
77.051749999985873
 51
104.7728919999728
  0
ARC
  5
14199
  8
CENTER
 10
2057.2936988223428
 20
1630.211273911556
 30
0.0
 40
38.5
 50
16.465443000008651
 51
43.632459000005021
  0
ARC
  5
1419A
  8
CENTER
 10
2057.2936988223428
 20
1630.211273911556
 30
0.0
 40
38.5
 50
315.9667890000336
 51
344.66874700000392
  0
ARC
  5
1419B
  8
CENTER
 10
2057.2936988223428
 20
1630.211273911556
 30
0.0
 40
38.5
 50
255.63859500002229
 51
283.58521200001547
  0
ARC
  5
1419C
  8
CENTER
 10
2057.2936988223428
 20
1630.211273911556
 30
0.0
 40
38.5
 50
195.69859699998241
 51
223.28990200000871
  0
LINE
  5
1419D
  8
0
 10
2020.062616822343
 20
1614.8503599115561
 30
0.0
 11
2018.639112822344
 21
1609.5377719115561
 31
0.0
  0
LINE
  5
1419E
  8
0
 10
2018.6390978223419
 20
1609.5377819115561
 30
0.0
 11
2022.5281848223419
 21
1605.6486939115559
 31
0.0
  0
LINE
  5
1419F
  8
0
 10
2027.8407688223419
 20
1607.072180911556
 30
0.0
 11
2022.5282038223429
 21
1605.6486829115561
 31
0.0
  0
LINE
  5
141A0
  8
0
 10
2029.264291822343
 20
1612.3847799115561
 30
0.0
 11
2027.8407878223429
 21
1607.0721899115561
 31
0.0
  0
LINE
  5
141A1
  8
0
 10
2025.3751908223419
 20
1616.273874911556
 30
0.0
 11
2029.264278822342
 21
1612.384787911556
 31
0.0
  0
LINE
  5
141A2
  8
0
 10
2020.0626208223439
 20
1614.8503749115559
 30
0.0
 11
2025.375182822343
 21
1616.2738709115561
 31
0.0
  0
CIRCLE
  5
141A3
  8
0
 10
2023.9517208223419
 20
1610.961273911556
 30
0.0
 40
6.75
  0
LINE
  5
141A4
  8
0
 10
2086.7465738223441
 20
1614.8503599115561
 30
0.0
 11
2085.3230698223419
 21
1609.5377719115561
 31
0.0
  0
LINE
  5
141A5
  8
0
 10
2085.3230548223441
 20
1609.5377819115561
 30
0.0
 11
2089.2121418223428
 21
1605.6486939115559
 31
0.0
  0
LINE
  5
141A6
  8
0
 10
2094.5247258223421
 20
1607.072180911556
 30
0.0
 11
2089.212160822342
 21
1605.6486829115561
 31
0.0
  0
LINE
  5
141A7
  8
0
 10
2095.9482488223439
 20
1612.3847799115561
 30
0.0
 11
2094.5247448223422
 21
1607.0721899115561
 31
0.0
  0
LINE
  5
141A8
  8
0
 10
2092.0591478223432
 20
1616.273874911556
 30
0.0
 11
2095.9482358223431
 21
1612.384787911556
 31
0.0
  0
LINE
  5
141A9
  8
0
 10
2086.7465778223432
 20
1614.8503749115559
 30
0.0
 11
2092.0591398223419
 21
1616.2738709115561
 31
0.0
  0
CIRCLE
  5
141AA
  8
0
 10
2090.6356768223432
 20
1610.961273911556
 30
0.0
 40
6.75
  0
LINE
  5
141AB
  8
0
 10
2053.4045958223428
 20
1672.6003599115561
 30
0.0
 11
2051.9810918223429
 21
1667.2877719115561
 31
0.0
  0
LINE
  5
141AC
  8
0
 10
2051.9810768223429
 20
1667.2877819115561
 30
0.0
 11
2055.8701638223429
 21
1663.3986939115559
 31
0.0
  0
LINE
  5
141AD
  8
0
 10
2061.1827478223422
 20
1664.822180911556
 30
0.0
 11
2055.870182822342
 21
1663.3986829115561
 31
0.0
  0
LINE
  5
141AE
  8
0
 10
2062.606270822344
 20
1670.1347799115561
 30
0.0
 11
2061.1827668223432
 21
1664.8221899115561
 31
0.0
  0
LINE
  5
141AF
  8
0
 10
2058.7171698223428
 20
1674.023874911556
 30
0.0
 11
2062.6062578223432
 21
1670.134787911556
 31
0.0
  0
LINE
  5
141B0
  8
0
 10
2053.4045998223428
 20
1672.6003749115559
 30
0.0
 11
2058.7171618223442
 21
1674.0238709115561
 31
0.0
  0
CIRCLE
  5
141B1
  8
0
 10
2057.2936988223428
 20
1668.711273911556
 30
0.0
 40
6.75
  0
LINE
  5
141B2
  8
0
 10
2053.4045958223428
 20
1595.6003599115561
 30
0.0
 11
2051.9810918223429
 21
1590.2877719115561
 31
0.0
  0
LINE
  5
141B3
  8
0
 10
2051.9810768223429
 20
1590.2877819115561
 30
0.0
 11
2055.8701638223429
 21
1586.3986939115559
 31
0.0
  0
LINE
  5
141B4
  8
0
 10
2061.1827478223422
 20
1587.822180911556
 30
0.0
 11
2055.870182822342
 21
1586.3986829115561
 31
0.0
  0
LINE
  5
141B5
  8
0
 10
2062.606270822344
 20
1593.1347799115561
 30
0.0
 11
2061.1827668223432
 21
1587.8221899115561
 31
0.0
  0
LINE
  5
141B6
  8
0
 10
2058.7171698223428
 20
1597.023874911556
 30
0.0
 11
2062.6062578223432
 21
1593.134787911556
 31
0.0
  0
LINE
  5
141B7
  8
0
 10
2053.4045998223428
 20
1595.6003749115559
 30
0.0
 11
2058.7171618223442
 21
1597.0238709115561
 31
0.0
  0
CIRCLE
  5
141B8
  8
0
 10
2057.2936988223428
 20
1591.711273911556
 30
0.0
 40
6.75
  0
LINE
  5
141B9
  8
0
 10
2086.7465738223441
 20
1653.3503599115561
 30
0.0
 11
2085.3230698223419
 21
1648.0377719115561
 31
0.0
  0
LINE
  5
141BA
  8
0
 10
2085.3230548223441
 20
1648.0377819115561
 30
0.0
 11
2089.2121418223428
 21
1644.1486939115559
 31
0.0
  0
LINE
  5
141BB
  8
0
 10
2094.5247258223421
 20
1645.572180911556
 30
0.0
 11
2089.212160822342
 21
1644.1486829115561
 31
0.0
  0
LINE
  5
141BC
  8
0
 10
2095.9482488223439
 20
1650.8847799115561
 30
0.0
 11
2094.5247448223422
 21
1645.5721899115561
 31
0.0
  0
LINE
  5
141BD
  8
0
 10
2092.0591478223432
 20
1654.773874911556
 30
0.0
 11
2095.9482358223431
 21
1650.884787911556
 31
0.0
  0
LINE
  5
141BE
  8
0
 10
2086.7465778223432
 20
1653.3503749115559
 30
0.0
 11
2092.0591398223419
 21
1654.7738709115561
 31
0.0
  0
CIRCLE
  5
141BF
  8
0
 10
2090.6356768223432
 20
1649.461273911556
 30
0.0
 40
6.75
  0
CIRCLE
  5
141C0
  8
0
 10
2023.9517208223419
 20
1649.461273911556
 30
0.0
 40
6.75
  0
LINE
  5
141C1
  8
0
 10
2020.0626208223439
 20
1653.3503749115559
 30
0.0
 11
2025.375182822343
 21
1654.7738709115561
 31
0.0
  0
LINE
  5
141C2
  8
0
 10
2027.8407688223419
 20
1645.572180911556
 30
0.0
 11
2022.5282038223429
 21
1644.1486829115561
 31
0.0
  0
LINE
  5
141C3
  8
0
 10
2025.3751908223419
 20
1654.773874911556
 30
0.0
 11
2029.264278822342
 21
1650.884787911556
 31
0.0
  0
LINE
  5
141C4
  8
0
 10
2029.264291822343
 20
1650.8847799115561
 30
0.0
 11
2027.8407878223429
 21
1645.5721899115561
 31
0.0
  0
LINE
  5
141C5
  8
0
 10
2020.062616822343
 20
1653.3503599115561
 30
0.0
 11
2018.639112822344
 21
1648.0377719115561
 31
0.0
  0
LINE
  5
141C6
  8
0
 10
2018.6390978223419
 20
1648.0377819115561
 30
0.0
 11
2022.5281848223419
 21
1644.1486939115559
 31
0.0
  0
ARC
  5
141C7
  8
CENTER
 10
2057.2936988223428
 20
1630.211273911556
 30
0.0
 40
38.5
 50
134.46756600002911
 51
164.19277500002059
  0
LINE
  5
141C8
  8
CENTER
 10
2082.768045822344
 20
1615.5036529115559
 30
0.0
 11
2098.311486822342
 21
1606.529642911556
 31
0.0
  0
LINE
  5
141C9
  8
CENTER
 10
2032.2449588223431
 20
1615.7493769115561
 30
0.0
 11
2016.6938458223431
 21
1606.7709379115561
 31
0.0
  0
LINE
  5
141CA
  8
CENTER
 10
2031.9441718223429
 20
1644.8468299115559
 30
0.0
 11
2016.4150808223419
 21
1653.8125549115559
 31
0.0
  0
LINE
  5
141CB
  8
CENTER
 10
2082.6432248223418
 20
1644.8468299115559
 30
0.0
 11
2098.6251608223429
 21
1654.0740049115559
 31
0.0
  0
CIRCLE
  5
141CC
  8
0
 10
2057.2936988223428
 20
1630.211273911556
 30
0.0
 40
25.5
  0
CIRCLE
  5
141CD
  8
0
 10
2057.2936988223428
 20
1630.211273911556
 30
0.0
 40
48.0
  0
ARC
  5
141CE
  8
CENTER
 10
2057.2936988223428
 20
1630.211273911556
 30
0.0
 40
58.0
 50
77.459215999979904
 51
101.49575500002349
  0
ARC
  5
141CF
  8
CENTER
 10
2057.2936988223428
 20
1630.211273911556
 30
0.0
 40
58.0
 50
34.404126999971083
 51
56.581080000006303
  0
ARC
  5
141D0
  8
CENTER
 10
2057.2936988223428
 20
1630.211273911556
 30
0.0
 40
58.0
 50
303.90721800002228
 51
327.0607209999784
  0
ARC
  5
141D1
  8
CENTER
 10
2057.2936988223428
 20
1630.211273911556
 30
0.0
 40
58.0
 50
258.78968500001821
 51
281.91349299998473
  0
ARC
  5
141D2
  8
CENTER
 10
2057.2936988223428
 20
1630.211273911556
 30
0.0
 40
58.0
 50
213.4325499999654
 51
235.50531199999989
  0
ARC
  5
141D3
  8
CENTER
 10
2057.2936988223428
 20
1630.211273911556
 30
0.0
 40
58.0
 50
123.7171930000012
 51
146.68183900003331
  0
ARC
  5
141D4
  8
0
 10
2057.2936988223428
 20
1630.211273911556
 30
0.0
 40
69.0
 50
39.814997999985373
 51
140.18500200001461
  0
CIRCLE
  5
141D5
  8
0
 10
2057.2936988223428
 20
1572.211273911556
 30
0.0
 40
5.5
  0
CIRCLE
  5
141D6
  8
0
 10
2057.2936988223428
 20
1572.211273911556
 30
0.0
 40
8.75
  0
CIRCLE
  5
141D7
  8
0
 10
2098.3058918223428
 20
1589.1990809115559
 30
0.0
 40
5.5
  0
CIRCLE
  5
141D8
  8
0
 10
2098.3058918223428
 20
1589.1990809115559
 30
0.0
 40
8.75
  0
CIRCLE
  5
141D9
  8
0
 10
2016.2815058223421
 20
1589.1990809115559
 30
0.0
 40
5.5
  0
CIRCLE
  5
141DA
  8
0
 10
2016.2815058223421
 20
1589.1990809115559
 30
0.0
 40
8.75
  0
CIRCLE
  5
141DB
  8
0
 10
2016.2815058223421
 20
1671.223466911556
 30
0.0
 40
5.5
  0
CIRCLE
  5
141DC
  8
0
 10
2016.2815058223421
 20
1671.223466911556
 30
0.0
 40
8.75
  0
CIRCLE
  5
141DD
  8
0
 10
2057.2936988223428
 20
1688.211273911556
 30
0.0
 40
5.5
  0
CIRCLE
  5
141DE
  8
0
 10
2057.2936988223428
 20
1688.211273911556
 30
0.0
 40
8.75
  0
CIRCLE
  5
141DF
  8
0
 10
2098.3058918223428
 20
1671.223466911556
 30
0.0
 40
8.75
  0
CIRCLE
  5
141E0
  8
0
 10
2098.3058918223428
 20
1671.223466911556
 30
0.0
 40
5.5
  0
LINE
  5
141E1
  8
CENTER
 10
2024.6420528223421
 20
1597.5596279115559
 30
0.0
 11
2007.0153698223439
 21
1579.932944911556
 31
0.0
  0
LINE
  5
141E2
  8
CENTER
 10
2090.6646618223431
 20
1596.8403109115559
 30
0.0
 11
2107.391955822342
 21
1580.1130169115561
 31
0.0
  0
LINE
  5
141E3
  8
CENTER
 10
2024.4745288223421
 20
1663.0304439115559
 30
0.0
 11
2007.2077118223431
 21
1680.2972609115559
 31
0.0
  0
LINE
  5
141E4
  8
CENTER
 10
2090.292386822342
 20
1663.2099619115561
 30
0.0
 11
2107.7392758223432
 21
1680.6568509115559
 31
0.0
  0
ARC
  5
141E5
  8
0
 10
2057.2936988223428
 20
1630.211273911556
 30
0.0
 40
69.0
 50
219.81499799998539
 51
320.18500200001461
  0
LINE
  5
141E6
  8
0
 10
2004.293698822343
 20
1674.392717911556
 30
0.0
 11
2004.293698822343
 21
1586.0298299115559
 31
0.0
  0
LINE
  5
141E7
  8
0
 10
2110.2936988223428
 20
1674.392717911556
 30
0.0
 11
2110.2936988223428
 21
1586.0298299115559
 31
0.0
  0
LINE
  5
141E8
  8
CENTER
 10
1995.293698822343
 20
1630.211273911556
 30
0.0
 11
2119.2936988223428
 21
1630.211273911556
 31
0.0
  0
LINE
  5
141E9
  8
CENTER
 10
2057.2936988223428
 20
1553.211273911556
 30
0.0
 11
2057.2936988223428
 21
1707.211273911556
 31
0.0
  0
LINE
  5
14251
  8
HIDE1
 10
2200.2630088223409
 20
1610.7112739115539
 30
0.0
 11
2200.2630088223409
 21
1649.711273911558
 31
0.0
  0
LINE
  5
14252
  8
CENTER
 10
2191.7630088223409
 20
1605.8546124633119
 30
0.0
 11
2191.7630088223409
 21
1617.941801849583
 31
0.0
  0
LINE
  5
14253
  8
HIDE1
 10
2199.7630088223409
 20
1607.711273911556
 30
0.0
 11
2199.7630088223409
 21
1652.711273911556
 31
0.0
  0
LINE
  5
14254
  8
0
 10
2184.2630088223409
 20
1607.711273911556
 30
0.0
 11
2184.2630088223409
 21
1652.711273911556
 31
0.0
  0
LINE
  5
14255
  8
0
 10
2195.2630088223409
 20
1607.711273911558
 30
0.0
 11
2184.2630088223409
 21
1607.711273911556
 31
0.0
  0
LINE
  5
14256
  8
HIDE1
 10
2200.2630088223409
 20
1610.7112739115539
 30
0.0
 11
2199.7630088223409
 21
1610.4225987769601
 31
0.0
  0
LINE
  5
14257
  8
HIDE1
 10
2194.7630088223409
 20
1607.711273911556
 30
0.0
 11
2194.7630088223409
 21
1615.961273911556
 31
0.0
  0
LINE
  5
14258
  8
HIDE1
 10
2194.2630088223409
 20
1607.711273911556
 30
0.0
 11
2194.2630088223409
 21
1615.961273911556
 31
0.0
  0
LINE
  5
14259
  8
HIDE1
 10
2188.7630088223409
 20
1607.711273911556
 30
0.0
 11
2188.7630088223409
 21
1615.961273911556
 31
0.0
  0
LINE
  5
1425A
  8
HIDE1
 10
2189.2630088223409
 20
1607.711273911556
 30
0.0
 11
2189.2630088223409
 21
1615.961273911556
 31
0.0
  0
LINE
  5
1425B
  8
HIDE1
 10
2194.7630088223409
 20
1608.0065196053631
 30
0.0
 11
2188.7630088223409
 21
1608.0065196053631
 31
0.0
  0
LINE
  5
1425C
  8
HIDE1
 10
2194.7630088223409
 20
1613.0065196053631
 30
0.0
 11
2188.7630088223409
 21
1613.0065196053631
 31
0.0
  0
LINE
  5
1425D
  8
HIDE1
 10
2194.7630088223409
 20
1613.0065196053631
 30
0.0
 11
2194.2630088223409
 21
1613.295194739957
 31
0.0
  0
LINE
  5
1425E
  8
HIDE1
 10
2188.7630088223409
 20
1613.0065196053631
 30
0.0
 11
2189.2630088223409
 21
1613.295194739957
 31
0.0
  0
LINE
  5
1425F
  8
HIDE1
 10
2189.2630088223409
 20
1613.295194739957
 30
0.0
 11
2194.2630088223409
 21
1613.295194739957
 31
0.0
  0
LINE
  5
14260
  8
HIDE1
 10
2200.2630088223409
 20
1615.211273911556
 30
0.0
 11
2184.2630088223409
 21
1615.211273911556
 31
0.0
  0
LINE
  5
14261
  8
HIDE1
 10
2200.2630088223409
 20
1615.961273911556
 30
0.0
 11
2184.2630088223409
 21
1615.961273911556
 31
0.0
  0
LINE
  5
14262
  8
0
 10
2195.2630088223409
 20
1622.273023421541
 30
0.0
 11
2184.2630088223409
 21
1622.273023421541
 31
0.0
  0
LINE
  5
14263
  8
CENTER
 10
2191.7630088223409
 20
1654.5679353598
 30
0.0
 11
2191.7630088223409
 21
1642.4807459735291
 31
0.0
  0
LINE
  5
14264
  8
0
 10
2195.2630088223409
 20
1652.711273911558
 30
0.0
 11
2184.2630088223409
 21
1652.711273911556
 31
0.0
  0
LINE
  5
14265
  8
HIDE1
 10
2200.2630088223409
 20
1649.711273911558
 30
0.0
 11
2199.7630088223409
 21
1649.9999490461521
 31
0.0
  0
LINE
  5
14266
  8
HIDE1
 10
2194.7630088223409
 20
1652.711273911556
 30
0.0
 11
2194.7630088223409
 21
1644.461273911556
 31
0.0
  0
LINE
  5
14267
  8
HIDE1
 10
2194.2630088223409
 20
1652.711273911556
 30
0.0
 11
2194.2630088223409
 21
1644.461273911556
 31
0.0
  0
LINE
  5
14268
  8
HIDE1
 10
2188.7630088223409
 20
1652.711273911556
 30
0.0
 11
2188.7630088223409
 21
1644.461273911556
 31
0.0
  0
LINE
  5
14269
  8
HIDE1
 10
2189.2630088223409
 20
1652.711273911556
 30
0.0
 11
2189.2630088223409
 21
1644.461273911556
 31
0.0
  0
LINE
  5
1426A
  8
HIDE1
 10
2194.7630088223409
 20
1652.4160282177479
 30
0.0
 11
2188.7630088223409
 21
1652.4160282177479
 31
0.0
  0
LINE
  5
1426B
  8
HIDE1
 10
2194.7630088223409
 20
1647.416028217749
 30
0.0
 11
2188.7630088223409
 21
1647.416028217749
 31
0.0
  0
LINE
  5
1426C
  8
HIDE1
 10
2194.7630088223409
 20
1647.416028217749
 30
0.0
 11
2194.2630088223409
 21
1647.127353083154
 31
0.0
  0
LINE
  5
1426D
  8
HIDE1
 10
2188.7630088223409
 20
1647.416028217749
 30
0.0
 11
2189.2630088223409
 21
1647.127353083154
 31
0.0
  0
LINE
  5
1426E
  8
HIDE1
 10
2189.2630088223409
 20
1647.127353083154
 30
0.0
 11
2194.2630088223409
 21
1647.127353083154
 31
0.0
  0
LINE
  5
1426F
  8
HIDE1
 10
2200.2630088223409
 20
1645.211273911556
 30
0.0
 11
2184.2630088223409
 21
1645.211273911556
 31
0.0
  0
LINE
  5
14270
  8
HIDE1
 10
2200.2630088223409
 20
1644.461273911556
 30
0.0
 11
2184.2630088223409
 21
1644.461273911556
 31
0.0
  0
LINE
  5
14271
  8
0
 10
2195.2630088223409
 20
1638.1495244015709
 30
0.0
 11
2184.2630088223409
 21
1638.1495244015689
 31
0.0
  0
LINE
  5
14272
  8
HIDE1
 10
2195.2630088223409
 20
1652.711273911558
 30
0.0
 11
2199.7630088223409
 21
1652.711273911556
 31
0.0
  0
LINE
  5
14273
  8
HIDE1
 10
2195.2630088223409
 20
1607.711273911558
 30
0.0
 11
2199.7630088223409
 21
1607.711273911558
 31
0.0
  0
LINE
  5
14274
  8
HIDE1
 10
2195.2630088223341
 20
1638.1495244015709
 30
0.0
 11
2199.7630088223409
 21
1638.1495244015709
 31
0.0
  0
LINE
  5
14275
  8
HIDE1
 10
2195.2630088223409
 20
1622.273023421541
 30
0.0
 11
2199.7630088223409
 21
1622.273023421541
 31
0.0
  0
ARC
  5
14276
  8
HIDE1
 10
2057.2936988223428
 20
1630.211273911556
 30
0.0
 40
15.0
 50
270.0
 51
180.0
  0
CIRCLE
  5
14277
  8
0
 10
2057.2936988223428
 20
1630.211273911556
 30
0.0
 40
14.25
  0
ARC
  5
14278
  8
0
 10
2057.2936988223428
 20
1630.211273911556
 30
0.0
 40
22.5
 50
249.34064672844821
 51
290.65935327155182
  0
ARC
  5
14279
  8
0
 10
2057.2936988223428
 20
1630.211273911556
 30
0.0
 40
22.5
 50
339.34064672867038
 51
20.659353271329628
  0
ARC
  5
1427A
  8
0
 10
2057.2936988223428
 20
1630.211273911556
 30
0.0
 40
22.5
 50
69.340646728448192
 51
110.65935327155179
  0
ARC
  5
1427B
  8
0
 10
2057.2936988223428
 20
1630.211273911556
 30
0.0
 40
22.5
 50
159.34064672867041
 51
200.65935327132959
  0
POLYLINE
  5
1427C
  8
0
 66
     1
 10
0.0
 20
0.0
 30
0.0
  0
VERTEX
  5
14374
  8
0
 10
2036.240571283719
 20
1622.2730234215339
 30
0.0
  0
VERTEX
  5
14375
  8
0
 10
2049.3554483323219
 20
1609.1581463729281
 30
0.0
  0
SEQEND
  5
14376
  8
0
  0
POLYLINE
  5
1427D
  8
0
 66
     1
 10
0.0
 20
0.0
 30
0.0
  0
VERTEX
  5
14377
  8
0
 10
2065.2319493123632
 20
1609.1581463729281
 30
0.0
  0
VERTEX
  5
14378
  8
0
 10
2078.346826360967
 20
1622.2730234215319
 30
0.0
  0
SEQEND
  5
14379
  8
0
  0
POLYLINE
  5
1427E
  8
0
 66
     1
 10
0.0
 20
0.0
 30
0.0
  0
VERTEX
  5
1437A
  8
0
 10
2078.346826360967
 20
1638.1495244015759
 30
0.0
  0
VERTEX
  5
1437B
  8
0
 10
2065.2319493123632
 20
1651.264401450182
 30
0.0
  0
SEQEND
  5
1437C
  8
0
  0
POLYLINE
  5
1427F
  8
0
 66
     1
 10
0.0
 20
0.0
 30
0.0
  0
VERTEX
  5
1437D
  8
0
 10
2049.3554483323219
 20
1651.264401450182
 30
0.0
  0
VERTEX
  5
1437E
  8
0
 10
2036.240571283719
 20
1638.149524401578
 30
0.0
  0
SEQEND
  5
1437F
  8
0
  0
LINE
  5
14280
  8
HIDE1
 10
2054.2936988223428
 20
1652.510377032535
 30
0.0
 11
2054.2936988223428
 21
1644.141905627311
 31
0.0
  0
LINE
  5
14281
  8
HIDE1
 10
2054.7936988223428
 20
1652.571953686554
 30
0.0
 11
2054.7936988223428
 21
1644.2402617581531
 31
0.0
  0
LINE
  5
14282
  8
HIDE1
 10
2060.2936988223428
 20
1652.510377032535
 30
0.0
 11
2060.2936988223428
 21
1644.141905627311
 31
0.0
  0
LINE
  5
14283
  8
HIDE1
 10
2059.7936988223428
 20
1652.571953686554
 30
0.0
 11
2059.7936988223428
 21
1644.2402617581549
 31
0.0
  0
LINE
  5
14284
  8
HIDE1
 10
2054.2936988223428
 20
1652.4160282177479
 30
0.0
 11
2060.2936988223428
 21
1652.4160282177479
 31
0.0
  0
LINE
  5
14285
  8
HIDE1
 10
2054.2936988223428
 20
1647.416028217749
 30
0.0
 11
2060.2936988223428
 21
1647.416028217749
 31
0.0
  0
LINE
  5
14286
  8
HIDE1
 10
2054.2936988223428
 20
1647.416028217749
 30
0.0
 11
2054.7936988223428
 21
1647.127353083154
 31
0.0
  0
LINE
  5
14287
  8
HIDE1
 10
2060.2936988223428
 20
1647.416028217749
 30
0.0
 11
2059.7936988223428
 21
1647.127353083154
 31
0.0
  0
LINE
  5
14288
  8
HIDE1
 10
2059.7936988223428
 20
1647.127353083154
 30
0.0
 11
2054.7936988223428
 21
1647.127353083154
 31
0.0
  0
LINE
  5
14289
  8
HIDE1
 10
2054.2936988223428
 20
1607.912170790579
 30
0.0
 11
2054.2936988223428
 21
1616.280642195803
 31
0.0
  0
LINE
  5
1428A
  8
HIDE1
 10
2054.7936988223428
 20
1607.8505941365579
 30
0.0
 11
2054.7936988223428
 21
1616.182286064959
 31
0.0
  0
LINE
  5
1428B
  8
HIDE1
 10
2060.2936988223428
 20
1607.912170790579
 30
0.0
 11
2060.2936988223428
 21
1616.280642195801
 31
0.0
  0
LINE
  5
1428C
  8
HIDE1
 10
2059.7936988223428
 20
1607.8505941365579
 30
0.0
 11
2059.7936988223428
 21
1616.182286064959
 31
0.0
  0
LINE
  5
1428D
  8
HIDE1
 10
2054.2936988223428
 20
1608.0065196053631
 30
0.0
 11
2060.2936988223428
 21
1608.0065196053631
 31
0.0
  0
LINE
  5
1428E
  8
HIDE1
 10
2054.2936988223428
 20
1613.0065196053631
 30
0.0
 11
2060.2936988223428
 21
1613.0065196053631
 31
0.0
  0
LINE
  5
1428F
  8
HIDE1
 10
2054.2936988223428
 20
1613.0065196053631
 30
0.0
 11
2054.7936988223428
 21
1613.295194739957
 31
0.0
  0
LINE
  5
14290
  8
HIDE1
 10
2060.2936988223428
 20
1613.0065196053631
 30
0.0
 11
2059.7936988223428
 21
1613.295194739957
 31
0.0
  0
LINE
  5
14291
  8
HIDE1
 10
2059.7936988223428
 20
1613.295194739957
 30
0.0
 11
2054.7936988223428
 21
1613.295194739957
 31
0.0
  0
ENDSEC
  0
EOF
