  0
SECTION
  2
HEADER
  9
$ACADVER
  1
AC1009
  9
$INSBASE
 10
0.0
 20
0.0
 30
0.0
  9
$EXTMIN
 10
1903.0405749290021
 20
1433.173578249188
 30
0.0
  9
$EXTMAX
 10
2446.5931658504828
 20
1748.173578249188
 30
0.0
  9
$LIMMIN
 10
0.0
 20
0.0
  9
$LIMMAX
 10
12.0
 20
9.0
  9
$ORTHOMODE
 70
     0
  9
$REGENMODE
 70
     1
  9
$FILLMODE
 70
     1
  9
$QTEXTMODE
 70
     0
  9
$MIRRTEXT
 70
     0
  9
$DRAGMODE
 70
     2
  9
$LTSCALE
 40
5.0
  9
$OSMODE
 70
  2239
  9
$ATTMODE
 70
     1
  9
$TEXTSIZE
 40
2.5
  9
$TRACEWID
 40
0.05
  9
$TEXTSTYLE
  7
BIG
  9
$CLAYER
  8
0
  9
$CELTYPE
  6
BYLAYER
  9
$CECOLOR
 62
   256
  9
$DIMSCALE
 40
1.0
  9
$DIMASZ
 40
3.0
  9
$DIMEXO
 40
1.0
  9
$DIMDLI
 40
0.0
  9
$DIMRND
 40
0.0
  9
$DIMDLE
 40
0.0
  9
$DIMEXE
 40
1.0
  9
$DIMTP
 40
0.0
  9
$DIMTM
 40
0.0
  9
$DIMTXT
 40
3.0
  9
$DIMCEN
 40
0.0
  9
$DIMTSZ
 40
0.0
  9
$DIMTOL
 70
     0
  9
$DIMLIM
 70
     0
  9
$DIMTIH
 70
     0
  9
$DIMTOH
 70
     0
  9
$DIMSE1
 70
     0
  9
$DIMSE2
 70
     0
  9
$DIMTAD
 70
     1
  9
$DIMZIN
 70
     8
  9
$DIMBLK
  1

  9
$DIMASO
 70
     1
  9
$DIMSHO
 70
     1
  9
$DIMPOST
  1

  9
$DIMAPOST
  1

  9
$DIMALT
 70
     0
  9
$DIMALTD
 70
     2
  9
$DIMALTF
 40
25.399999999999999
  9
$DIMLFAC
 40
1.0
  9
$DIMTOFL
 70
     1
  9
$DIMTVP
 40
0.0
  9
$DIMTIX
 70
     1
  9
$DIMSOXD
 70
     0
  9
$DIMSAH
 70
     0
  9
$DIMBLK1
  1

  9
$DIMBLK2
  1

  9
$DIMSTYLE
  2
DUKITEC
  9
$DIMCLRD
 70
     5
  9
$DIMCLRE
 70
     5
  9
$DIMCLRT
 70
     0
  9
$DIMTFAC
 40
1.0
  9
$DIMGAP
 40
1.0
  9
$LUNITS
 70
     2
  9
$LUPREC
 70
     4
  9
$SKETCHINC
 40
0.1
  9
$FILLETRAD
 40
0.2
  9
$AUNITS
 70
     0
  9
$AUPREC
 70
     0
  9
$MENU
  1
.
  9
$ELEVATION
 40
0.0
  9
$PELEVATION
 40
0.0
  9
$THICKNESS
 40
0.0
  9
$LIMCHECK
 70
     0
  9
$BLIPMODE
 70
     0
  9
$CHAMFERA
 40
0.5
  9
$CHAMFERB
 40
0.5
  9
$SKPOLY
 70
     0
  9
$TDCREATE
 40
2454396.752067951
  9
$TDUPDATE
 40
2456631.4287434369
  9
$TDINDWG
 40
0.004224294
  9
$TDUSRTIMER
 40
0.0042242361
  9
$USRTIMER
 70
     1
  9
$ANGBASE
 50
0.0
  9
$ANGDIR
 70
     0
  9
$PDMODE
 70
     0
  9
$PDSIZE
 40
0.0
  9
$PLINEWID
 40
0.0
  9
$COORDS
 70
     1
  9
$SPLFRAME
 70
     0
  9
$SPLINETYPE
 70
     6
  9
$SPLINESEGS
 70
     8
  9
$ATTDIA
 70
     0
  9
$ATTREQ
 70
     1
  9
$HANDLING
 70
     1
  9
$HANDSEED
  5
143C2
  9
$SURFTAB1
 70
     6
  9
$SURFTAB2
 70
     6
  9
$SURFTYPE
 70
     6
  9
$SURFU
 70
     6
  9
$SURFV
 70
     6
  9
$UCSNAME
  2

  9
$UCSORG
 10
0.0
 20
0.0
 30
0.0
  9
$UCSXDIR
 10
1.0
 20
0.0
 30
0.0
  9
$UCSYDIR
 10
0.0
 20
1.0
 30
0.0
  9
$PUCSNAME
  2

  9
$PUCSORG
 10
0.0
 20
0.0
 30
0.0
  9
$PUCSXDIR
 10
1.0
 20
0.0
 30
0.0
  9
$PUCSYDIR
 10
0.0
 20
1.0
 30
0.0
  9
$USERI1
 70
     0
  9
$USERI2
 70
     0
  9
$USERI3
 70
     0
  9
$USERI4
 70
     0
  9
$USERI5
 70
     0
  9
$USERR1
 40
0.0
  9
$USERR2
 40
0.0
  9
$USERR3
 40
0.0
  9
$USERR4
 40
0.0
  9
$USERR5
 40
0.0
  9
$WORLDVIEW
 70
     1
  9
$SHADEDGE
 70
     3
  9
$SHADEDIF
 70
    70
  9
$TILEMODE
 70
     1
  9
$MAXACTVP
 70
    64
  9
$PLIMCHECK
 70
     0
  9
$PEXTMIN
 10
0.0
 20
0.0
 30
0.0
  9
$PEXTMAX
 10
0.0
 20
0.0
 30
0.0
  9
$PLIMMIN
 10
0.0
 20
0.0
  9
$PLIMMAX
 10
12.0
 20
9.0
  9
$UNITMODE
 70
     0
  9
$VISRETAIN
 70
     1
  9
$PLINEGEN
 70
     0
  9
$PSLTSCALE
 70
     1
  0
ENDSEC
  0
SECTION
  2
TABLES
  0
TABLE
  2
VPORT
 70
     1
  0
VPORT
  2
*ACTIVE
 70
     0
 10
0.0
 20
0.0
 11
1.0
 21
1.0
 12
2163.6033168819072
 22
1601.7724026622509
 13
0.0
 23
0.0
 14
0.5
 24
0.5
 15
0.5
 25
0.5
 16
0.0
 26
0.0
 36
1.0
 17
0.0
 27
0.0
 37
0.0
 40
235.04212377084031
 41
2.2309552599758158
 42
50.0
 43
0.0
 44
0.0
 50
0.0
 51
0.0
 71
     0
 72
  2000
 73
     1
 74
     3
 75
     0
 76
     0
 77
     0
 78
     0
  0
ENDTAB
  0
TABLE
  2
LTYPE
 70
     5
  0
LTYPE
  2
CONTINUOUS
 70
     0
  3
Solid line
 72
    65
 73
     0
 40
0.0
  0
LTYPE
  2
PHANTOM2
 70
     0
  3
Phantom (.5x) ___ _ _ ___ _ _ ___ _ _ ___ _ _
 72
    65
 73
     6
 40
1.25
 49
0.625
 49
-0.125
 49
0.125
 49
-0.125
 49
0.125
 49
-0.125
  0
LTYPE
  2
CENTER
 70
     0
  3
___ _ ___ _ ___ _ ___ _ ___ _ ___ _ ___ _ ___ _
 72
    65
 73
     4
 40
0.95
 49
0.625
 49
-0.125
 49
0.075
 49
-0.125
  0
LTYPE
  2
DASHED2
 70
     0
  3
Dashed (.5x) _ _ _ _ _ _ _ _ _ _ _ _ _ _ _ _ _
 72
    65
 73
     2
 40
0.375
 49
0.25
 49
-0.125
  0
ENDTAB
  0
TABLE
  2
LAYER
 70
     5
  0
LAYER
  2
0
 70
     0
 62
     7
  6
CONTINUOUS
  0
LAYER
  2
HIDE
 70
     0
 62
     1
  6
DASHED2
  0
LAYER
  2
CENTER
 70
     0
 62
     3
  6
CENTER
  0
LAYER
  2
HIDE1
 70
     0
 62
     1
  6
CONTINUOUS
  0
ENDTAB
  0
TABLE
  2
STYLE
 70
     4
  0
STYLE
  2
STANDARD
 70
     0
 40
5.0
 41
1.0
 50
0.0
 71
     0
 42
5.0
  3
txt.shx
  4
whgtxt.shx
  0
STYLE
  2
BIG
 70
     0
 40
20.0
 41
1.0
 50
0.0
 71
     0
 42
2.5
  3
txt
  4

  0
ENDTAB
  0
TABLE
  2
VIEW
 70
     0
  0
ENDTAB
  0
TABLE
  2
UCS
 70
     0
  0
ENDTAB
  0
TABLE
  2
APPID
 70
    10
  0
APPID
  2
ACAD
 70
     0
  0
APPID
  2
ACADANNOTATIVE
 70
     0
  0
APPID
  2
ACAD_EXEMPT_FROM_CAD_STANDARDS
 70
     0
  0
APPID
  2
ACAD_DSTYLE_DIMJOGGED_JOGA
 70
     0
  0
APPID
  2
ACAD_PSEXT
 70
     0
  0
APPID
  2
ACAECLAYERSTANDARD
 70
     0
  0
APPID
  2
DCO15
 70
     0
  0
APPID
  2
CONTENTBLOCKICON
 70
     0
  0
APPID
  2
ACAD_NAV_VCDISPLAY
 70
     0
  0
APPID
  2
ACAD_MLEADERVER
 70
     0
  0
ENDTAB
  0
TABLE
  2
DIMSTYLE
 70
     4
  0
DIMSTYLE
  2
DUKITEC
 70
     0
  3

  4

  5

  6

  7

 40
1.0
 41
3.0
 42
1.0
 43
0.0
 44
1.0
 45
0.0
 46
0.0
 47
0.0
 48
0.0
140
3.0
141
0.0
142
0.0
143
25.399999999999999
144
1.0
145
0.0
146
1.0
147
1.0
 71
     0
 72
     0
 73
     0
 74
     0
 75
     0
 76
     0
 77
     1
 78
     8
170
     0
171
     2
172
     1
173
     0
174
     1
175
     0
176
     5
177
     5
178
     0
  0
ENDTAB
  0
ENDSEC
  0
SECTION
  2
BLOCKS
  0
BLOCK
  8
0
  2
$MODEL_SPACE
 70
     0
 10
0.0
 20
0.0
 30
0.0
  3
$MODEL_SPACE
  1

  0
ENDBLK
  5
140F8
  8
0
  0
BLOCK
 67
     1
  8
0
  2
$PAPER_SPACE
 70
     0
 10
0.0
 20
0.0
 30
0.0
  3
$PAPER_SPACE
  1

  0
ENDBLK
  5
140F4
 67
     1
  8
0
  0
ENDSEC
  0
SECTION
  2
ENTITIES
  0
TEXT
  5
14058
  8
0
 10
2080.4138024151721
 20
1499.417780746074
 30
0.0
 40
20.0
  1
FK 30DFF
  7
BIG
  0
LINE
  5
1415E
  8
HIDE1
 10
2207.8485555439152
 20
1607.1609661422219
 30
0.0
 11
2207.8485555439152
 21
1646.1609661422251
 31
0.0
  0
LINE
  5
1415F
  8
CENTER
 10
2199.3485555439152
 20
1602.304304693979
 30
0.0
 11
2199.3485555439152
 21
1614.3914940802511
 31
0.0
  0
LINE
  5
14160
  8
HIDE1
 10
2207.3485555439152
 20
1604.1609661422231
 30
0.0
 11
2207.3485555439152
 21
1649.1609661422231
 31
0.0
  0
LINE
  5
14161
  8
0
 10
2191.8485555439152
 20
1604.1609661422231
 30
0.0
 11
2191.8485555439152
 21
1649.1609661422231
 31
0.0
  0
LINE
  5
14162
  8
0
 10
2202.8485555439152
 20
1604.1609661422251
 30
0.0
 11
2191.8485555439152
 21
1604.1609661422231
 31
0.0
  0
LINE
  5
14163
  8
HIDE1
 10
2207.8485555439152
 20
1607.1609661422219
 30
0.0
 11
2207.3485555439152
 21
1606.8722910076269
 31
0.0
  0
LINE
  5
14164
  8
HIDE1
 10
2202.3485555439152
 20
1604.1609661422231
 30
0.0
 11
2202.3485555439152
 21
1612.4109661422231
 31
0.0
  0
LINE
  5
14165
  8
HIDE1
 10
2201.8485555439152
 20
1604.1609661422231
 30
0.0
 11
2201.8485555439152
 21
1612.4109661422231
 31
0.0
  0
LINE
  5
14166
  8
HIDE1
 10
2196.3485555439152
 20
1604.1609661422231
 30
0.0
 11
2196.3485555439152
 21
1612.4109661422231
 31
0.0
  0
LINE
  5
14167
  8
HIDE1
 10
2196.8485555439152
 20
1604.1609661422231
 30
0.0
 11
2196.8485555439152
 21
1612.4109661422231
 31
0.0
  0
LINE
  5
14168
  8
HIDE1
 10
2202.3485555439152
 20
1604.4562118360309
 30
0.0
 11
2196.3485555439152
 21
1604.4562118360309
 31
0.0
  0
LINE
  5
14169
  8
HIDE1
 10
2202.3485555439152
 20
1609.4562118360309
 30
0.0
 11
2196.3485555439152
 21
1609.4562118360309
 31
0.0
  0
LINE
  5
1416A
  8
HIDE1
 10
2202.3485555439152
 20
1609.4562118360309
 30
0.0
 11
2201.8485555439152
 21
1609.744886970625
 31
0.0
  0
LINE
  5
1416B
  8
HIDE1
 10
2196.3485555439152
 20
1609.4562118360309
 30
0.0
 11
2196.8485555439152
 21
1609.744886970625
 31
0.0
  0
LINE
  5
1416C
  8
HIDE1
 10
2196.8485555439152
 20
1609.744886970625
 30
0.0
 11
2201.8485555439152
 21
1609.744886970625
 31
0.0
  0
LINE
  5
1416D
  8
HIDE1
 10
2207.8485555439152
 20
1611.6609661422231
 30
0.0
 11
2191.8485555439152
 21
1611.6609661422231
 31
0.0
  0
LINE
  5
1416E
  8
HIDE1
 10
2207.8485555439152
 20
1612.4109661422231
 30
0.0
 11
2191.8485555439152
 21
1612.4109661422231
 31
0.0
  0
LINE
  5
1416F
  8
0
 10
2202.8485555439152
 20
1618.7227156522081
 30
0.0
 11
2191.8485555439152
 21
1618.7227156522081
 31
0.0
  0
LINE
  5
14170
  8
CENTER
 10
2199.3485555439152
 20
1651.0176275904671
 30
0.0
 11
2199.3485555439152
 21
1638.930438204196
 31
0.0
  0
LINE
  5
14171
  8
0
 10
2202.8485555439152
 20
1649.1609661422251
 30
0.0
 11
2191.8485555439152
 21
1649.1609661422231
 31
0.0
  0
LINE
  5
14172
  8
HIDE1
 10
2207.8485555439152
 20
1646.1609661422251
 30
0.0
 11
2207.3485555439152
 21
1646.449641276819
 31
0.0
  0
LINE
  5
14173
  8
HIDE1
 10
2202.3485555439152
 20
1649.1609661422231
 30
0.0
 11
2202.3485555439152
 21
1640.9109661422231
 31
0.0
  0
LINE
  5
14174
  8
HIDE1
 10
2201.8485555439152
 20
1649.1609661422231
 30
0.0
 11
2201.8485555439152
 21
1640.9109661422231
 31
0.0
  0
LINE
  5
14175
  8
HIDE1
 10
2196.3485555439152
 20
1649.1609661422231
 30
0.0
 11
2196.3485555439152
 21
1640.9109661422231
 31
0.0
  0
LINE
  5
14176
  8
HIDE1
 10
2196.8485555439152
 20
1649.1609661422231
 30
0.0
 11
2196.8485555439152
 21
1640.9109661422231
 31
0.0
  0
LINE
  5
14177
  8
HIDE1
 10
2202.3485555439152
 20
1648.8657204484159
 30
0.0
 11
2196.3485555439152
 21
1648.8657204484159
 31
0.0
  0
LINE
  5
14178
  8
HIDE1
 10
2202.3485555439152
 20
1643.8657204484159
 30
0.0
 11
2196.3485555439152
 21
1643.8657204484159
 31
0.0
  0
LINE
  5
14179
  8
HIDE1
 10
2202.3485555439152
 20
1643.8657204484159
 30
0.0
 11
2201.8485555439152
 21
1643.5770453138221
 31
0.0
  0
LINE
  5
1417A
  8
HIDE1
 10
2196.3485555439152
 20
1643.8657204484159
 30
0.0
 11
2196.8485555439152
 21
1643.5770453138221
 31
0.0
  0
LINE
  5
1417B
  8
HIDE1
 10
2196.8485555439152
 20
1643.5770453138221
 30
0.0
 11
2201.8485555439152
 21
1643.5770453138221
 31
0.0
  0
LINE
  5
1417C
  8
HIDE1
 10
2207.8485555439152
 20
1641.6609661422231
 30
0.0
 11
2191.8485555439152
 21
1641.6609661422231
 31
0.0
  0
LINE
  5
1417D
  8
HIDE1
 10
2207.8485555439152
 20
1640.9109661422231
 30
0.0
 11
2191.8485555439152
 21
1640.9109661422231
 31
0.0
  0
LINE
  5
1417E
  8
0
 10
2202.8485555439152
 20
1634.599216632238
 30
0.0
 11
2191.8485555439152
 21
1634.5992166322369
 31
0.0
  0
LINE
  5
1417F
  8
HIDE1
 10
2202.8485555439152
 20
1649.1609661422251
 30
0.0
 11
2207.3485555439152
 21
1649.1609661422231
 31
0.0
  0
LINE
  5
14180
  8
HIDE1
 10
2202.8485555439152
 20
1604.1609661422251
 30
0.0
 11
2207.3485555439152
 21
1604.1609661422251
 31
0.0
  0
LINE
  5
14181
  8
HIDE1
 10
2202.8485555439079
 20
1634.599216632238
 30
0.0
 11
2207.3485555439152
 21
1634.599216632238
 31
0.0
  0
LINE
  5
14182
  8
HIDE1
 10
2202.8485555439152
 20
1618.7227156522081
 30
0.0
 11
2207.3485555439152
 21
1618.7227156522081
 31
0.0
  0
ARC
  5
14183
  8
HIDE1
 10
2064.8792455439161
 20
1626.660966142224
 30
0.0
 40
15.0
 50
270.0
 51
180.0
  0
CIRCLE
  5
14184
  8
0
 10
2064.8792455439161
 20
1626.660966142224
 30
0.0
 40
14.25
  0
ARC
  5
14185
  8
0
 10
2064.8792455439161
 20
1626.660966142224
 30
0.0
 40
22.5
 50
249.34064672844829
 51
290.65935327155171
  0
ARC
  5
14186
  8
0
 10
2064.8792455439161
 20
1626.660966142224
 30
0.0
 40
22.5
 50
339.34064672867049
 51
20.65935327132954
  0
ARC
  5
14187
  8
0
 10
2064.8792455439161
 20
1626.660966142224
 30
0.0
 40
22.5
 50
69.34064672844832
 51
110.65935327155159
  0
ARC
  5
14188
  8
0
 10
2064.8792455439161
 20
1626.660966142224
 30
0.0
 40
22.5
 50
159.34064672867049
 51
200.65935327132951
  0
POLYLINE
  5
14189
  8
0
 66
     1
 10
0.0
 20
0.0
 30
0.0
  0
VERTEX
  5
143B3
  8
0
 10
2043.8261180052921
 20
1618.7227156522019
 30
0.0
  0
VERTEX
  5
143B4
  8
0
 10
2056.9409950538961
 20
1605.607838603597
 30
0.0
  0
SEQEND
  5
143B5
  8
0
  0
POLYLINE
  5
1418A
  8
0
 66
     1
 10
0.0
 20
0.0
 30
0.0
  0
VERTEX
  5
143B6
  8
0
 10
2072.817496033937
 20
1605.607838603597
 30
0.0
  0
VERTEX
  5
143B7
  8
0
 10
2085.9323730825399
 20
1618.7227156521999
 30
0.0
  0
SEQEND
  5
143B8
  8
0
  0
POLYLINE
  5
1418B
  8
0
 66
     1
 10
0.0
 20
0.0
 30
0.0
  0
VERTEX
  5
143B9
  8
0
 10
2085.9323730825399
 20
1634.599216632244
 30
0.0
  0
VERTEX
  5
143BA
  8
0
 10
2072.817496033937
 20
1647.7140936808501
 30
0.0
  0
SEQEND
  5
143BB
  8
0
  0
POLYLINE
  5
1418C
  8
0
 66
     1
 10
0.0
 20
0.0
 30
0.0
  0
VERTEX
  5
143BC
  8
0
 10
2056.9409950538961
 20
1647.7140936808501
 30
0.0
  0
VERTEX
  5
143BD
  8
0
 10
2043.8261180052921
 20
1634.599216632246
 30
0.0
  0
SEQEND
  5
143BE
  8
0
  0
LINE
  5
1418D
  8
HIDE1
 10
2061.8792455439161
 20
1648.960069263203
 30
0.0
 11
2061.8792455439161
 21
1640.591597857979
 31
0.0
  0
LINE
  5
1418E
  8
HIDE1
 10
2062.3792455439161
 20
1649.021645917222
 30
0.0
 11
2062.3792455439161
 21
1640.6899539888209
 31
0.0
  0
LINE
  5
1418F
  8
HIDE1
 10
2067.8792455439161
 20
1648.960069263203
 30
0.0
 11
2067.8792455439161
 21
1640.591597857979
 31
0.0
  0
LINE
  5
14190
  8
HIDE1
 10
2067.3792455439161
 20
1649.021645917222
 30
0.0
 11
2067.3792455439161
 21
1640.6899539888229
 31
0.0
  0
LINE
  5
14191
  8
HIDE1
 10
2061.8792455439161
 20
1648.8657204484171
 30
0.0
 11
2067.8792455439161
 21
1648.8657204484171
 31
0.0
  0
LINE
  5
14192
  8
HIDE1
 10
2061.8792455439161
 20
1643.8657204484171
 30
0.0
 11
2067.8792455439161
 21
1643.8657204484171
 31
0.0
  0
LINE
  5
14193
  8
HIDE1
 10
2061.8792455439161
 20
1643.8657204484171
 30
0.0
 11
2062.3792455439161
 21
1643.577045313823
 31
0.0
  0
LINE
  5
14194
  8
HIDE1
 10
2067.8792455439161
 20
1643.8657204484171
 30
0.0
 11
2067.3792455439161
 21
1643.577045313823
 31
0.0
  0
LINE
  5
14195
  8
HIDE1
 10
2067.3792455439161
 20
1643.577045313823
 30
0.0
 11
2062.3792455439161
 21
1643.577045313823
 31
0.0
  0
LINE
  5
14196
  8
HIDE1
 10
2061.8792455439161
 20
1604.361863021247
 30
0.0
 11
2061.8792455439161
 21
1612.7303344264701
 31
0.0
  0
LINE
  5
14197
  8
HIDE1
 10
2062.3792455439161
 20
1604.3002863672259
 30
0.0
 11
2062.3792455439161
 21
1612.6319782956271
 31
0.0
  0
LINE
  5
14198
  8
HIDE1
 10
2067.8792455439161
 20
1604.361863021247
 30
0.0
 11
2067.8792455439161
 21
1612.730334426469
 31
0.0
  0
LINE
  5
14199
  8
HIDE1
 10
2067.3792455439161
 20
1604.3002863672259
 30
0.0
 11
2067.3792455439161
 21
1612.6319782956271
 31
0.0
  0
LINE
  5
1419A
  8
HIDE1
 10
2061.8792455439161
 20
1604.4562118360309
 30
0.0
 11
2067.8792455439161
 21
1604.4562118360309
 31
0.0
  0
LINE
  5
1419B
  8
HIDE1
 10
2061.8792455439161
 20
1609.4562118360309
 30
0.0
 11
2067.8792455439161
 21
1609.4562118360309
 31
0.0
  0
LINE
  5
1419C
  8
HIDE1
 10
2061.8792455439161
 20
1609.4562118360309
 30
0.0
 11
2062.3792455439161
 21
1609.744886970625
 31
0.0
  0
LINE
  5
1419D
  8
HIDE1
 10
2067.8792455439161
 20
1609.4562118360309
 30
0.0
 11
2067.3792455439161
 21
1609.744886970625
 31
0.0
  0
LINE
  5
1419E
  8
HIDE1
 10
2067.3792455439161
 20
1609.744886970625
 30
0.0
 11
2062.3792455439161
 21
1609.744886970625
 31
0.0
  0
LINE
  5
1419F
  8
HIDE
 10
2227.8485555439152
 20
1693.4109661422231
 30
0.0
 11
2227.8485555439152
 21
1675.910966142224
 31
0.0
  0
LINE
  5
141A0
  8
HIDE
 10
2216.8485555439152
 20
1675.910966142224
 30
0.0
 11
2227.8485555439152
 21
1675.910966142224
 31
0.0
  0
LINE
  5
141A1
  8
HIDE
 10
2227.8485555439152
 20
1679.1609661422231
 30
0.0
 11
2231.8485555439161
 21
1679.1609661422231
 31
0.0
  0
LINE
  5
141A2
  8
HIDE
 10
2227.8485555439152
 20
1690.1609661422231
 30
0.0
 11
2231.8485555439161
 21
1690.1609661422231
 31
0.0
  0
LINE
  5
141A3
  8
HIDE
 10
2216.8485555439152
 20
1693.4109661422231
 30
0.0
 11
2227.8485555439152
 21
1693.4109661422231
 31
0.0
  0
LINE
  5
141A4
  8
CENTER
 10
2212.3788055767218
 20
1684.6609661422231
 30
0.0
 11
2235.9713852323721
 21
1684.6609661422231
 31
0.0
  0
LINE
  5
141A5
  8
0
 10
2216.8485555439152
 20
1695.6609661422231
 30
0.0
 11
2231.8485555439161
 21
1695.6609661422231
 31
0.0
  0
LINE
  5
141A6
  8
0
 10
2202.8485555439152
 20
1674.6609661422231
 30
0.0
 11
2216.8485555439152
 21
1674.6609661422231
 31
0.0
  0
LINE
  5
141A7
  8
0
 10
2231.8485555439161
 20
1695.6609661422231
 30
0.0
 11
2231.8485555439161
 21
1671.661019142223
 31
0.0
  0
LINE
  5
141A8
  8
0
 10
2216.8485555439152
 20
1695.6609661422231
 30
0.0
 11
2216.8485555439152
 21
1557.6609661422231
 31
0.0
  0
LINE
  5
141A9
  8
0
 10
2202.8485555439152
 20
1674.6609661422231
 30
0.0
 11
2202.8485555439152
 21
1578.6609661422231
 31
0.0
  0
LINE
  5
141AA
  8
CENTER
 10
2183.1445222824209
 20
1626.660966142224
 30
0.0
 11
2298.6275866289038
 21
1626.6609661422231
 31
0.0
  0
LINE
  5
141AB
  8
0
 10
2293.8485555439152
 20
1581.661031142223
 30
0.0
 11
2231.8485555439161
 21
1581.661031142223
 31
0.0
  0
LINE
  5
141AC
  8
0
 10
2293.8485555439152
 20
1671.661019142223
 30
0.0
 11
2231.8485555439161
 21
1671.661019142223
 31
0.0
  0
LINE
  5
141AD
  8
CENTER
 10
2212.3788055767218
 20
1568.6609661422231
 30
0.0
 11
2235.9713852323721
 21
1568.6609661422231
 31
0.0
  0
LINE
  5
141AE
  8
HIDE
 10
2216.8485555439152
 20
1559.9109661422231
 30
0.0
 11
2227.8485555439152
 21
1559.9109661422231
 31
0.0
  0
LINE
  5
141AF
  8
HIDE
 10
2227.8485555439152
 20
1563.1609661422231
 30
0.0
 11
2231.8485555439161
 21
1563.1609661422231
 31
0.0
  0
LINE
  5
141B0
  8
HIDE
 10
2227.8485555439152
 20
1574.1609661422231
 30
0.0
 11
2231.8485555439161
 21
1574.1609661422231
 31
0.0
  0
LINE
  5
141B1
  8
HIDE
 10
2216.8485555439152
 20
1577.4109661422231
 30
0.0
 11
2227.8485555439152
 21
1577.4109661422231
 31
0.0
  0
LINE
  5
141B2
  8
HIDE
 10
2227.8485555439152
 20
1559.9109661422231
 30
0.0
 11
2227.8485555439152
 21
1577.4109661422231
 31
0.0
  0
LINE
  5
141B3
  8
0
 10
2216.8485555439152
 20
1557.6609661422231
 30
0.0
 11
2231.8485555439161
 21
1557.6609661422231
 31
0.0
  0
LINE
  5
141B4
  8
0
 10
2202.8485555439152
 20
1578.6609661422231
 30
0.0
 11
2216.8485555439152
 21
1578.6609661422231
 31
0.0
  0
LINE
  5
141B5
  8
0
 10
2293.8485555439152
 20
1581.661031142223
 30
0.0
 11
2293.8485555439152
 21
1671.661019142223
 31
0.0
  0
CIRCLE
  5
141B6
  8
HIDE
 10
2258.8485555439152
 20
1603.6609661422231
 30
0.0
 40
4.799999999999998
  0
CIRCLE
  5
141B7
  8
HIDE
 10
2258.8485555439152
 20
1649.6609661422231
 30
0.0
 40
4.799999999999998
  0
CIRCLE
  5
141B8
  8
HIDE
 10
2242.8485555439152
 20
1603.6609661422231
 30
0.0
 40
4.7999999999999989
  0
CIRCLE
  5
141B9
  8
HIDE
 10
2242.8485555439152
 20
1649.6609661422231
 30
0.0
 40
4.7999999999999989
  0
ARC
  5
141BA
  8
HIDE
 10
2250.2485555439171
 20
1657.0609661422229
 30
0.0
 40
0.5999999999999996
 50
0.0
 51
90.0
  0
ARC
  5
141BB
  8
HIDE
 10
2235.8485555439152
 20
1656.6609661422231
 30
0.0
 40
1.0
 50
90.0
 51
180.0
  0
ARC
  5
141BC
  8
HIDE
 10
2249.8485555439152
 20
1642.6609661422231
 30
0.0
 40
1.0
 50
270.0
 51
0.0
  0
ARC
  5
141BD
  8
HIDE
 10
2249.8485555439152
 20
1610.6609661422231
 30
0.0
 40
1.0
 50
0.0
 51
90.0
  0
ARC
  5
141BE
  8
HIDE
 10
2235.448555543916
 20
1642.260966142223
 30
0.0
 40
0.6000000000000015
 50
180.0
 51
270.0
  0
ARC
  5
141BF
  8
HIDE
 10
2235.448555543916
 20
1611.0609661422229
 30
0.0
 40
0.5999999999999996
 50
90.0
 51
180.0
  0
ARC
  5
141C0
  8
HIDE
 10
2250.2485555439171
 20
1596.2609661422241
 30
0.0
 40
0.6000000000000015
 50
270.0
 51
0.0
  0
ARC
  5
141C1
  8
HIDE
 10
2235.8485555439152
 20
1596.6609661422231
 30
0.0
 40
1.0
 50
180.0
 51
270.0
  0
LINE
  5
141C2
  8
HIDE
 10
2234.8485555439152
 20
1651.710966142223
 30
0.0
 11
2238.5083366554268
 21
1651.710966142223
 31
0.0
  0
LINE
  5
141C3
  8
HIDE
 10
2235.8485555439152
 20
1657.6609661422231
 30
0.0
 11
2250.2485555439171
 21
1657.6609661422231
 31
0.0
  0
LINE
  5
141C4
  8
HIDE
 10
2250.8485555439152
 20
1647.5109661422241
 30
0.0
 11
2247.1401170313011
 21
1647.5109661422241
 31
0.0
  0
LINE
  5
141C5
  8
HIDE
 10
2244.5775844623349
 20
1654.1387400310291
 30
0.0
 11
2250.8485555439152
 21
1654.710966142223
 31
0.0
  0
LINE
  5
141C6
  8
HIDE
 10
2234.8485555439152
 20
1647.5109661422241
 30
0.0
 11
2238.5569940565319
 21
1647.5109661422241
 31
0.0
  0
LINE
  5
141C7
  8
HIDE
 10
2234.8485555439152
 20
1605.8109661422229
 30
0.0
 11
2238.5569940565319
 21
1605.8109661422229
 31
0.0
  0
LINE
  5
141C8
  8
HIDE
 10
2235.448555543916
 20
1641.6609661422231
 30
0.0
 11
2249.8485555439152
 21
1641.6609661422231
 31
0.0
  0
LINE
  5
141C9
  8
HIDE
 10
2235.448555543916
 20
1611.6609661422231
 30
0.0
 11
2249.8485555439152
 21
1611.6609661422231
 31
0.0
  0
LINE
  5
141CA
  8
HIDE
 10
2250.8485555439152
 20
1605.8109661422229
 30
0.0
 11
2247.1401170313011
 21
1605.8109661422229
 31
0.0
  0
LINE
  5
141CB
  8
HIDE
 10
2234.8485555439152
 20
1601.6109661422231
 30
0.0
 11
2238.5083366554268
 21
1601.6109661422231
 31
0.0
  0
LINE
  5
141CC
  8
HIDE
 10
2250.2485555439171
 20
1595.6609661422231
 30
0.0
 11
2235.8485555439152
 21
1595.6609661422231
 31
0.0
  0
LINE
  5
141CD
  8
HIDE
 10
2244.5775844623349
 20
1599.183192253417
 30
0.0
 11
2250.8485555439152
 21
1598.6109661422231
 31
0.0
  0
LINE
  5
141CE
  8
HIDE
 10
2234.8485555439152
 20
1596.6609661422231
 30
0.0
 11
2234.8485555439152
 21
1656.6609661422231
 31
0.0
  0
LINE
  5
141CF
  8
HIDE
 10
2250.8485555439152
 20
1657.0609661422229
 30
0.0
 11
2250.8485555439152
 21
1596.2609661422241
 31
0.0
  0
LINE
  5
141D0
  8
HIDE
 10
2247.293721547976
 20
1605.8109661422229
 30
0.0
 11
2246.949846418695
 21
1606.154841271504
 31
0.0
  0
ARC
  5
141D1
  8
HIDE
 10
2251.448555543916
 20
1596.2609661422241
 30
0.0
 40
0.6000000000000015
 50
180.0
 51
270.0
  0
ARC
  5
141D2
  8
HIDE
 10
2265.8485555439152
 20
1596.6609661422231
 30
0.0
 40
1.0
 50
270.0
 51
0.0
  0
ARC
  5
141D3
  8
HIDE
 10
2251.8485555439152
 20
1610.6609661422231
 30
0.0
 40
1.0
 50
90.0
 51
180.0
  0
ARC
  5
141D4
  8
HIDE
 10
2251.8485555439152
 20
1642.6609661422231
 30
0.0
 40
1.0
 50
180.0
 51
270.0
  0
ARC
  5
141D5
  8
HIDE
 10
2266.2485555439171
 20
1611.0609661422229
 30
0.0
 40
0.6
 50
0.0
 51
90.0
  0
ARC
  5
141D6
  8
HIDE
 10
2266.2485555439171
 20
1642.260966142223
 30
0.0
 40
0.5999999999999996
 50
270.0
 51
0.0
  0
ARC
  5
141D7
  8
HIDE
 10
2251.4485555439169
 20
1657.0609661422241
 30
0.0
 40
0.6000000000000015
 50
90.0
 51
180.0
  0
ARC
  5
141D8
  8
HIDE
 10
2265.8485555439152
 20
1656.6609661422231
 30
0.0
 40
1.0
 50
0.0
 51
90.0
  0
LINE
  5
141D9
  8
HIDE
 10
2266.8485555439152
 20
1601.6109661422231
 30
0.0
 11
2263.1887744324049
 21
1601.6109661422231
 31
0.0
  0
LINE
  5
141DA
  8
HIDE
 10
2265.8485555439152
 20
1595.6609661422231
 30
0.0
 11
2251.448555543916
 21
1595.6609661422231
 31
0.0
  0
LINE
  5
141DB
  8
HIDE
 10
2250.8485555439152
 20
1605.8109661422241
 30
0.0
 11
2254.5569940565319
 21
1605.8109661422241
 31
0.0
  0
LINE
  5
141DC
  8
HIDE
 10
2257.1195266254972
 20
1599.183192253417
 30
0.0
 11
2250.8485555439152
 21
1598.6109661422231
 31
0.0
  0
LINE
  5
141DD
  8
HIDE
 10
2266.8485555439152
 20
1605.8109661422229
 30
0.0
 11
2263.1401170313011
 21
1605.8109661422229
 31
0.0
  0
LINE
  5
141DE
  8
HIDE
 10
2266.8485555439152
 20
1647.5109661422241
 30
0.0
 11
2263.1401170313011
 21
1647.5109661422241
 31
0.0
  0
LINE
  5
141DF
  8
HIDE
 10
2266.2485555439171
 20
1611.6609661422231
 30
0.0
 11
2251.8485555439152
 21
1611.6609661422231
 31
0.0
  0
LINE
  5
141E0
  8
HIDE
 10
2266.2485555439171
 20
1641.6609661422231
 30
0.0
 11
2251.8485555439152
 21
1641.6609661422231
 31
0.0
  0
LINE
  5
141E1
  8
HIDE
 10
2250.8485555439152
 20
1647.5109661422241
 30
0.0
 11
2254.5569940565319
 21
1647.5109661422241
 31
0.0
  0
LINE
  5
141E2
  8
HIDE
 10
2266.8485555439152
 20
1651.710966142223
 30
0.0
 11
2263.1887744324049
 21
1651.710966142223
 31
0.0
  0
LINE
  5
141E3
  8
HIDE
 10
2251.4485555439169
 20
1657.6609661422231
 30
0.0
 11
2265.8485555439152
 21
1657.6609661422231
 31
0.0
  0
LINE
  5
141E4
  8
HIDE
 10
2257.1195266254972
 20
1654.1387400310291
 30
0.0
 11
2250.8485555439152
 21
1654.710966142223
 31
0.0
  0
LINE
  5
141E5
  8
HIDE
 10
2266.8485555439152
 20
1656.6609661422231
 30
0.0
 11
2266.8485555439152
 21
1596.6609661422231
 31
0.0
  0
LINE
  5
141E6
  8
HIDE
 10
2254.7472646691349
 20
1606.1548412715049
 30
0.0
 11
2254.4033895398538
 21
1605.8109661422241
 31
0.0
  0
CIRCLE
  5
141E7
  8
HIDE
 10
2274.8485555439152
 20
1603.6609661422231
 30
0.0
 40
4.799999999999998
  0
CIRCLE
  5
141E8
  8
HIDE
 10
2274.8485555439152
 20
1649.6609661422231
 30
0.0
 40
4.799999999999998
  0
ARC
  5
141E9
  8
HIDE
 10
2267.448555543916
 20
1596.2609661422241
 30
0.0
 40
0.6000000000000015
 50
180.0
 51
270.0
  0
ARC
  5
141EA
  8
HIDE
 10
2281.8485555439152
 20
1596.6609661422231
 30
0.0
 40
1.0
 50
270.0
 51
0.0
  0
ARC
  5
141EB
  8
HIDE
 10
2267.8485555439152
 20
1610.6609661422231
 30
0.0
 40
1.0
 50
90.0
 51
180.0
  0
ARC
  5
141EC
  8
HIDE
 10
2267.8485555439152
 20
1642.6609661422231
 30
0.0
 40
1.0
 50
180.0
 51
270.0
  0
ARC
  5
141ED
  8
HIDE
 10
2282.2485555439171
 20
1611.0609661422229
 30
0.0
 40
0.6
 50
0.0
 51
90.0
  0
ARC
  5
141EE
  8
HIDE
 10
2282.2485555439171
 20
1642.260966142223
 30
0.0
 40
0.5999999999999996
 50
270.0
 51
0.0
  0
ARC
  5
141EF
  8
HIDE
 10
2267.4485555439169
 20
1657.0609661422241
 30
0.0
 40
0.6000000000000015
 50
90.0
 51
180.0
  0
ARC
  5
141F0
  8
HIDE
 10
2281.8485555439152
 20
1656.6609661422231
 30
0.0
 40
1.0
 50
0.0
 51
90.0
  0
LINE
  5
141F1
  8
HIDE
 10
2282.8485555439152
 20
1601.6109661422231
 30
0.0
 11
2279.1887744324049
 21
1601.6109661422231
 31
0.0
  0
LINE
  5
141F2
  8
HIDE
 10
2281.8485555439152
 20
1595.6609661422231
 30
0.0
 11
2267.448555543916
 21
1595.6609661422231
 31
0.0
  0
LINE
  5
141F3
  8
HIDE
 10
2266.8485555439152
 20
1605.8109661422241
 30
0.0
 11
2270.5569940565319
 21
1605.8109661422241
 31
0.0
  0
LINE
  5
141F4
  8
HIDE
 10
2273.1195266254972
 20
1599.183192253417
 30
0.0
 11
2266.8485555439152
 21
1598.6109661422231
 31
0.0
  0
LINE
  5
141F5
  8
HIDE
 10
2282.8485555439152
 20
1605.8109661422229
 30
0.0
 11
2279.1401170313011
 21
1605.8109661422229
 31
0.0
  0
LINE
  5
141F6
  8
HIDE
 10
2282.8485555439152
 20
1647.5109661422241
 30
0.0
 11
2279.1401170313011
 21
1647.5109661422241
 31
0.0
  0
LINE
  5
141F7
  8
HIDE
 10
2282.2485555439171
 20
1611.6609661422231
 30
0.0
 11
2267.8485555439152
 21
1611.6609661422231
 31
0.0
  0
LINE
  5
141F8
  8
HIDE
 10
2282.2485555439171
 20
1641.6609661422231
 30
0.0
 11
2267.8485555439152
 21
1641.6609661422231
 31
0.0
  0
LINE
  5
141F9
  8
HIDE
 10
2266.8485555439152
 20
1647.5109661422241
 30
0.0
 11
2270.5569940565319
 21
1647.5109661422241
 31
0.0
  0
LINE
  5
141FA
  8
HIDE
 10
2282.8485555439152
 20
1651.710966142223
 30
0.0
 11
2279.1887744324049
 21
1651.710966142223
 31
0.0
  0
LINE
  5
141FB
  8
HIDE
 10
2267.4485555439169
 20
1657.6609661422231
 30
0.0
 11
2281.8485555439152
 21
1657.6609661422231
 31
0.0
  0
LINE
  5
141FC
  8
HIDE
 10
2273.1195266254972
 20
1654.1387400310291
 30
0.0
 11
2266.8485555439152
 21
1654.710966142223
 31
0.0
  0
LINE
  5
141FD
  8
HIDE
 10
2282.8485555439152
 20
1656.6609661422231
 30
0.0
 11
2282.8485555439152
 21
1596.6609661422231
 31
0.0
  0
LINE
  5
141FE
  8
HIDE
 10
2270.7472646691358
 20
1606.1548412715049
 30
0.0
 11
2270.4033895398538
 21
1605.8109661422241
 31
0.0
  0
LINE
  5
141FF
  8
HIDE
 10
2282.8485555439152
 20
1641.6609661422231
 30
0.0
 11
2293.8485555439152
 21
1641.6609661422231
 31
0.0
  0
LINE
  5
14200
  8
HIDE
 10
2282.8485555439152
 20
1644.9109661422231
 30
0.0
 11
2293.8485555439152
 21
1644.9109661422231
 31
0.0
  0
LINE
  5
14201
  8
HIDE
 10
2282.8485555439152
 20
1611.6609661422231
 30
0.0
 11
2293.8485555439152
 21
1611.6609661422231
 31
0.0
  0
LINE
  5
14202
  8
HIDE
 10
2282.8485555439152
 20
1608.4109661422231
 30
0.0
 11
2293.8485555439152
 21
1608.4109661422231
 31
0.0
  0
LINE
  5
14203
  8
HIDE
 10
2207.8485555439152
 20
1641.6609661422231
 30
0.0
 11
2218.8485555439152
 21
1641.6609661422231
 31
0.0
  0
LINE
  5
14204
  8
HIDE
 10
2207.8485555439152
 20
1644.9109661422231
 30
0.0
 11
2218.8485555439152
 21
1644.9109661422231
 31
0.0
  0
LINE
  5
14205
  8
HIDE
 10
2207.8485555439152
 20
1611.6609661422231
 30
0.0
 11
2218.8485555439152
 21
1611.6609661422231
 31
0.0
  0
LINE
  5
14206
  8
HIDE
 10
2207.8485555439152
 20
1608.4109661422231
 30
0.0
 11
2218.8485555439152
 21
1608.4109661422231
 31
0.0
  0
CIRCLE
  5
14207
  8
HIDE
 10
2226.8485555439152
 20
1603.6609661422231
 30
0.0
 40
4.7999999999999989
  0
CIRCLE
  5
14208
  8
HIDE
 10
2226.8485555439152
 20
1649.6609661422231
 30
0.0
 40
4.7999999999999989
  0
ARC
  5
14209
  8
HIDE
 10
2234.2485555439171
 20
1657.0609661422229
 30
0.0
 40
0.5999999999999996
 50
0.0
 51
90.0
  0
ARC
  5
1420A
  8
HIDE
 10
2219.8485555439152
 20
1656.6609661422231
 30
0.0
 40
1.0
 50
90.0
 51
180.0
  0
ARC
  5
1420B
  8
HIDE
 10
2233.8485555439152
 20
1642.660966142224
 30
0.0
 40
1.0
 50
270.0
 51
0.0
  0
ARC
  5
1420C
  8
HIDE
 10
2233.8485555439152
 20
1610.660966142224
 30
0.0
 40
1.0
 50
0.0
 51
90.0
  0
ARC
  5
1420D
  8
HIDE
 10
2219.448555543916
 20
1642.2609661422241
 30
0.0
 40
0.6000000000000015
 50
180.0
 51
270.0
  0
ARC
  5
1420E
  8
HIDE
 10
2219.448555543916
 20
1611.0609661422229
 30
0.0
 40
0.5999999999999996
 50
90.0
 51
180.0
  0
ARC
  5
1420F
  8
HIDE
 10
2234.2485555439171
 20
1596.2609661422241
 30
0.0
 40
0.6000000000000015
 50
270.0
 51
0.0
  0
ARC
  5
14210
  8
HIDE
 10
2219.8485555439152
 20
1596.6609661422231
 30
0.0
 40
1.0
 50
180.0
 51
270.0
  0
LINE
  5
14211
  8
HIDE
 10
2218.8485555439152
 20
1651.710966142223
 30
0.0
 11
2222.5083366554268
 21
1651.710966142223
 31
0.0
  0
LINE
  5
14212
  8
HIDE
 10
2219.8485555439152
 20
1657.6609661422231
 30
0.0
 11
2234.2485555439171
 21
1657.6609661422231
 31
0.0
  0
LINE
  5
14213
  8
HIDE
 10
2234.8485555439152
 20
1647.5109661422241
 30
0.0
 11
2231.1401170313011
 21
1647.5109661422241
 31
0.0
  0
LINE
  5
14214
  8
HIDE
 10
2228.5775844623349
 20
1654.1387400310291
 30
0.0
 11
2234.8485555439152
 21
1654.710966142223
 31
0.0
  0
LINE
  5
14215
  8
HIDE
 10
2218.8485555439152
 20
1647.5109661422241
 30
0.0
 11
2222.5569940565319
 21
1647.5109661422241
 31
0.0
  0
LINE
  5
14216
  8
HIDE
 10
2218.8485555439152
 20
1605.8109661422229
 30
0.0
 11
2222.5569940565319
 21
1605.8109661422229
 31
0.0
  0
LINE
  5
14217
  8
HIDE
 10
2219.448555543916
 20
1641.6609661422231
 30
0.0
 11
2233.8485555439152
 21
1641.6609661422231
 31
0.0
  0
LINE
  5
14218
  8
HIDE
 10
2219.448555543916
 20
1611.6609661422231
 30
0.0
 11
2233.8485555439152
 21
1611.6609661422231
 31
0.0
  0
LINE
  5
14219
  8
HIDE
 10
2234.8485555439152
 20
1605.8109661422229
 30
0.0
 11
2231.1401170313011
 21
1605.8109661422229
 31
0.0
  0
LINE
  5
1421A
  8
HIDE
 10
2218.8485555439152
 20
1601.6109661422231
 30
0.0
 11
2222.5083366554268
 21
1601.6109661422231
 31
0.0
  0
LINE
  5
1421B
  8
HIDE
 10
2234.2485555439171
 20
1595.6609661422231
 30
0.0
 11
2219.8485555439152
 21
1595.6609661422231
 31
0.0
  0
LINE
  5
1421C
  8
HIDE
 10
2228.5775844623349
 20
1599.183192253417
 30
0.0
 11
2234.8485555439152
 21
1598.6109661422231
 31
0.0
  0
LINE
  5
1421D
  8
HIDE
 10
2218.8485555439152
 20
1596.6609661422231
 30
0.0
 11
2218.8485555439152
 21
1656.6609661422231
 31
0.0
  0
LINE
  5
1421E
  8
HIDE
 10
2234.8485555439152
 20
1657.0609661422229
 30
0.0
 11
2234.8485555439152
 21
1596.2609661422241
 31
0.0
  0
LINE
  5
1421F
  8
HIDE
 10
2231.293721547976
 20
1605.8109661422229
 30
0.0
 11
2230.949846418695
 21
1606.1548412715049
 31
0.0
  0
LINE
  5
14220
  8
0
 10
2231.8485555439161
 20
1581.661031142223
 30
0.0
 11
2231.8485555439161
 21
1557.6609661422231
 31
0.0
  0
ARC
  5
14255
  8
CENTER
 10
2064.8792455439161
 20
1626.660966142224
 30
0.0
 40
38.5
 50
77.051749999985873
 51
104.7728919999728
  0
ARC
  5
14256
  8
CENTER
 10
2064.8792455439161
 20
1626.660966142224
 30
0.0
 40
38.5
 50
16.465443000008651
 51
43.632459000005021
  0
ARC
  5
14257
  8
CENTER
 10
2064.8792455439161
 20
1626.660966142224
 30
0.0
 40
38.5
 50
315.9667890000336
 51
344.66874700000392
  0
ARC
  5
14258
  8
CENTER
 10
2064.8792455439161
 20
1626.660966142224
 30
0.0
 40
38.5
 50
255.63859500002229
 51
283.58521200001547
  0
ARC
  5
14259
  8
CENTER
 10
2064.8792455439161
 20
1626.660966142224
 30
0.0
 40
38.5
 50
195.69859699998241
 51
223.28990200000871
  0
LINE
  5
1425A
  8
0
 10
2027.6481635439161
 20
1611.3000521422241
 30
0.0
 11
2026.2246595439169
 21
1605.9874641422241
 31
0.0
  0
LINE
  5
1425B
  8
0
 10
2026.2246445439159
 20
1605.9874741422241
 30
0.0
 11
2030.1137315439159
 21
1602.0983861422239
 31
0.0
  0
LINE
  5
1425C
  8
0
 10
2035.4263155439151
 20
1603.521873142224
 30
0.0
 11
2030.113750543916
 21
1602.0983751422241
 31
0.0
  0
LINE
  5
1425D
  8
0
 10
2036.8498385439159
 20
1608.8344721422241
 30
0.0
 11
2035.426334543916
 21
1603.5218821422241
 31
0.0
  0
LINE
  5
1425E
  8
0
 10
2032.9607375439159
 20
1612.7235671422241
 30
0.0
 11
2036.849825543916
 21
1608.834480142224
 31
0.0
  0
LINE
  5
1425F
  8
0
 10
2027.648167543917
 20
1611.300067142224
 30
0.0
 11
2032.9607295439159
 21
1612.7235631422241
 31
0.0
  0
CIRCLE
  5
14260
  8
0
 10
2031.537267543916
 20
1607.410966142224
 30
0.0
 40
6.75
  0
LINE
  5
14261
  8
0
 10
2094.332120543917
 20
1611.3000521422241
 30
0.0
 11
2092.9086165439148
 21
1605.9874641422241
 31
0.0
  0
LINE
  5
14262
  8
0
 10
2092.908601543917
 20
1605.9874741422241
 30
0.0
 11
2096.797688543917
 21
1602.0983861422239
 31
0.0
  0
LINE
  5
14263
  8
0
 10
2102.1102725439159
 20
1603.521873142224
 30
0.0
 11
2096.7977075439162
 21
1602.0983751422241
 31
0.0
  0
LINE
  5
14264
  8
0
 10
2103.5337955439172
 20
1608.8344721422241
 30
0.0
 11
2102.1102915439151
 21
1603.5218821422241
 31
0.0
  0
LINE
  5
14265
  8
0
 10
2099.644694543917
 20
1612.7235671422241
 30
0.0
 11
2103.533782543916
 21
1608.834480142224
 31
0.0
  0
LINE
  5
14266
  8
0
 10
2094.332124543917
 20
1611.300067142224
 30
0.0
 11
2099.6446865439161
 21
1612.7235631422241
 31
0.0
  0
CIRCLE
  5
14267
  8
0
 10
2098.221223543916
 20
1607.410966142224
 30
0.0
 40
6.75
  0
LINE
  5
14268
  8
0
 10
2060.9901425439161
 20
1669.0500521422241
 30
0.0
 11
2059.5666385439158
 21
1663.7374641422241
 31
0.0
  0
LINE
  5
14269
  8
0
 10
2059.5666235439171
 20
1663.7374741422241
 30
0.0
 11
2063.4557105439162
 21
1659.8483861422239
 31
0.0
  0
LINE
  5
1426A
  8
0
 10
2068.768294543916
 20
1661.271873142224
 30
0.0
 11
2063.4557295439158
 21
1659.8483751422241
 31
0.0
  0
LINE
  5
1426B
  8
0
 10
2070.1918175439168
 20
1666.5844721422241
 30
0.0
 11
2068.7683135439161
 21
1661.2718821422241
 31
0.0
  0
LINE
  5
1426C
  8
0
 10
2066.3027165439162
 20
1670.4735671422241
 30
0.0
 11
2070.1918045439161
 21
1666.584480142224
 31
0.0
  0
LINE
  5
1426D
  8
0
 10
2060.9901465439161
 20
1669.050067142224
 30
0.0
 11
2066.3027085439171
 21
1670.4735631422241
 31
0.0
  0
CIRCLE
  5
1426E
  8
0
 10
2064.8792455439161
 20
1665.160966142224
 30
0.0
 40
6.75
  0
LINE
  5
1426F
  8
0
 10
2060.9901425439161
 20
1592.0500521422241
 30
0.0
 11
2059.5666385439158
 21
1586.7374641422241
 31
0.0
  0
LINE
  5
14270
  8
0
 10
2059.5666235439171
 20
1586.7374741422241
 30
0.0
 11
2063.4557105439162
 21
1582.8483861422239
 31
0.0
  0
LINE
  5
14271
  8
0
 10
2068.768294543916
 20
1584.271873142224
 30
0.0
 11
2063.4557295439158
 21
1582.8483751422241
 31
0.0
  0
LINE
  5
14272
  8
0
 10
2070.1918175439168
 20
1589.5844721422241
 30
0.0
 11
2068.7683135439161
 21
1584.2718821422241
 31
0.0
  0
LINE
  5
14273
  8
0
 10
2066.3027165439162
 20
1593.4735671422241
 30
0.0
 11
2070.1918045439161
 21
1589.584480142224
 31
0.0
  0
LINE
  5
14274
  8
0
 10
2060.9901465439161
 20
1592.050067142224
 30
0.0
 11
2066.3027085439171
 21
1593.4735631422241
 31
0.0
  0
CIRCLE
  5
14275
  8
0
 10
2064.8792455439161
 20
1588.160966142224
 30
0.0
 40
6.75
  0
LINE
  5
14276
  8
0
 10
2094.332120543917
 20
1649.8000521422241
 30
0.0
 11
2092.9086165439148
 21
1644.4874641422241
 31
0.0
  0
LINE
  5
14277
  8
0
 10
2092.908601543917
 20
1644.4874741422241
 30
0.0
 11
2096.797688543917
 21
1640.5983861422239
 31
0.0
  0
LINE
  5
14278
  8
0
 10
2102.1102725439159
 20
1642.021873142224
 30
0.0
 11
2096.7977075439162
 21
1640.5983751422241
 31
0.0
  0
LINE
  5
14279
  8
0
 10
2103.5337955439172
 20
1647.3344721422241
 30
0.0
 11
2102.1102915439151
 21
1642.0218821422241
 31
0.0
  0
LINE
  5
1427A
  8
0
 10
2099.644694543917
 20
1651.2235671422241
 30
0.0
 11
2103.533782543916
 21
1647.334480142224
 31
0.0
  0
LINE
  5
1427B
  8
0
 10
2094.332124543917
 20
1649.800067142224
 30
0.0
 11
2099.6446865439161
 21
1651.2235631422241
 31
0.0
  0
CIRCLE
  5
1427C
  8
0
 10
2098.221223543916
 20
1645.910966142224
 30
0.0
 40
6.75
  0
CIRCLE
  5
1427D
  8
0
 10
2031.537267543916
 20
1645.910966142224
 30
0.0
 40
6.75
  0
LINE
  5
1427E
  8
0
 10
2027.648167543917
 20
1649.800067142224
 30
0.0
 11
2032.9607295439159
 21
1651.2235631422241
 31
0.0
  0
LINE
  5
1427F
  8
0
 10
2035.4263155439151
 20
1642.021873142224
 30
0.0
 11
2030.113750543916
 21
1640.5983751422241
 31
0.0
  0
LINE
  5
14280
  8
0
 10
2032.9607375439159
 20
1651.2235671422241
 30
0.0
 11
2036.849825543916
 21
1647.334480142224
 31
0.0
  0
LINE
  5
14281
  8
0
 10
2036.8498385439159
 20
1647.3344721422241
 30
0.0
 11
2035.426334543916
 21
1642.0218821422241
 31
0.0
  0
LINE
  5
14282
  8
0
 10
2027.6481635439161
 20
1649.8000521422241
 30
0.0
 11
2026.2246595439169
 21
1644.4874641422241
 31
0.0
  0
LINE
  5
14283
  8
0
 10
2026.2246445439159
 20
1644.4874741422241
 30
0.0
 11
2030.1137315439159
 21
1640.5983861422239
 31
0.0
  0
ARC
  5
14284
  8
CENTER
 10
2064.8792455439161
 20
1626.660966142224
 30
0.0
 40
38.5
 50
134.46756600002911
 51
164.19277500002059
  0
LINE
  5
14285
  8
CENTER
 10
2090.3535925439169
 20
1611.953345142224
 30
0.0
 11
2105.8970335439149
 21
1602.979335142224
 31
0.0
  0
LINE
  5
14286
  8
CENTER
 10
2039.8305055439159
 20
1612.1990691422241
 30
0.0
 11
2024.2793925439171
 21
1603.2206301422241
 31
0.0
  0
LINE
  5
14287
  8
CENTER
 10
2039.529718543916
 20
1641.2965221422239
 30
0.0
 11
2024.000627543915
 21
1650.2622471422239
 31
0.0
  0
LINE
  5
14288
  8
CENTER
 10
2090.2287715439161
 20
1641.2965221422239
 30
0.0
 11
2106.2107075439162
 21
1650.5236971422239
 31
0.0
  0
CIRCLE
  5
14289
  8
0
 10
2064.8792455439161
 20
1626.660966142224
 30
0.0
 40
25.5
  0
CIRCLE
  5
1428A
  8
0
 10
2064.8792455439161
 20
1626.660966142224
 30
0.0
 40
48.0
  0
ARC
  5
1428B
  8
CENTER
 10
2064.8792455439161
 20
1626.660966142224
 30
0.0
 40
58.0
 50
77.459215999979904
 51
101.49575500002349
  0
ARC
  5
1428C
  8
CENTER
 10
2064.8792455439161
 20
1626.660966142224
 30
0.0
 40
58.0
 50
34.404126999971083
 51
56.581080000006303
  0
ARC
  5
1428D
  8
CENTER
 10
2064.8792455439161
 20
1626.660966142224
 30
0.0
 40
58.0
 50
303.90721800002228
 51
327.0607209999784
  0
ARC
  5
1428E
  8
CENTER
 10
2064.8792455439161
 20
1626.660966142224
 30
0.0
 40
58.0
 50
258.78968500001821
 51
281.91349299998473
  0
ARC
  5
1428F
  8
CENTER
 10
2064.8792455439161
 20
1626.660966142224
 30
0.0
 40
58.0
 50
213.4325499999654
 51
235.50531199999989
  0
ARC
  5
14290
  8
CENTER
 10
2064.8792455439161
 20
1626.660966142224
 30
0.0
 40
58.0
 50
123.7171930000012
 51
146.68183900003331
  0
ARC
  5
14291
  8
0
 10
2064.8792455439161
 20
1626.660966142224
 30
0.0
 40
69.0
 50
39.814997999985373
 51
140.18500200001461
  0
CIRCLE
  5
14292
  8
0
 10
2064.8792455439161
 20
1568.660966142224
 30
0.0
 40
5.5
  0
CIRCLE
  5
14293
  8
0
 10
2064.8792455439161
 20
1568.660966142224
 30
0.0
 40
8.75
  0
CIRCLE
  5
14294
  8
0
 10
2105.891438543917
 20
1585.6487731422239
 30
0.0
 40
5.5
  0
CIRCLE
  5
14295
  8
0
 10
2105.891438543917
 20
1585.6487731422239
 30
0.0
 40
8.75
  0
CIRCLE
  5
14296
  8
0
 10
2023.8670525439161
 20
1585.6487731422239
 30
0.0
 40
5.5
  0
CIRCLE
  5
14297
  8
0
 10
2023.8670525439161
 20
1585.6487731422239
 30
0.0
 40
8.75
  0
CIRCLE
  5
14298
  8
0
 10
2023.8670525439161
 20
1667.673159142224
 30
0.0
 40
5.5
  0
CIRCLE
  5
14299
  8
0
 10
2023.8670525439161
 20
1667.673159142224
 30
0.0
 40
8.75
  0
CIRCLE
  5
1429A
  8
0
 10
2064.8792455439161
 20
1684.660966142224
 30
0.0
 40
5.5
  0
CIRCLE
  5
1429B
  8
0
 10
2064.8792455439161
 20
1684.660966142224
 30
0.0
 40
8.75
  0
CIRCLE
  5
1429C
  8
0
 10
2105.891438543917
 20
1667.673159142224
 30
0.0
 40
8.75
  0
CIRCLE
  5
1429D
  8
0
 10
2105.891438543917
 20
1667.673159142224
 30
0.0
 40
5.5
  0
LINE
  5
1429E
  8
CENTER
 10
2032.2275995439161
 20
1594.0093201422239
 30
0.0
 11
2014.600916543917
 21
1576.382637142224
 31
0.0
  0
LINE
  5
1429F
  8
CENTER
 10
2098.250208543916
 20
1593.2900031422239
 30
0.0
 11
2114.9775025439162
 21
1576.5627091422241
 31
0.0
  0
LINE
  5
142A0
  8
CENTER
 10
2032.060075543915
 20
1659.480136142224
 30
0.0
 11
2014.793258543916
 21
1676.7469531422239
 31
0.0
  0
LINE
  5
142A1
  8
CENTER
 10
2097.8779335439158
 20
1659.6596541422241
 30
0.0
 11
2115.324822543917
 21
1677.1065431422239
 31
0.0
  0
ARC
  5
142A2
  8
0
 10
2064.8792455439161
 20
1626.660966142224
 30
0.0
 40
69.0
 50
219.81499799998539
 51
320.18500200001461
  0
LINE
  5
142A3
  8
0
 10
2011.8792455439161
 20
1670.842410142224
 30
0.0
 11
2011.8792455439161
 21
1582.4795221422239
 31
0.0
  0
LINE
  5
142A4
  8
0
 10
2117.8792455439161
 20
1670.842410142224
 30
0.0
 11
2117.8792455439161
 21
1582.4795221422239
 31
0.0
  0
LINE
  5
142A5
  8
CENTER
 10
2002.8792455439161
 20
1626.660966142224
 30
0.0
 11
2126.8792455439161
 21
1626.660966142224
 31
0.0
  0
LINE
  5
142A6
  8
CENTER
 10
2064.8792455439161
 20
1549.660966142224
 30
0.0
 11
2064.8792455439161
 21
1703.660966142224
 31
0.0
  0
ENDSEC
  0
EOF
