  0
SECTION
  2
HEADER
  9
$ACADVER
  1
AC1009
  9
$INSBASE
 10
0.0
 20
0.0
 30
0.0
  9
$EXTMIN
 10
1903.0405749290021
 20
1433.173578249188
 30
0.0
  9
$EXTMAX
 10
2494.966355041332
 20
1748.173578249188
 30
0.0
  9
$LIMMIN
 10
0.0
 20
0.0
  9
$LIMMAX
 10
12.0
 20
9.0
  9
$ORTHOMODE
 70
     0
  9
$REGENMODE
 70
     1
  9
$FILLMODE
 70
     1
  9
$QTEXTMODE
 70
     0
  9
$MIRRTEXT
 70
     0
  9
$DRAGMODE
 70
     2
  9
$LTSCALE
 40
5.0
  9
$OSMODE
 70
  2239
  9
$ATTMODE
 70
     1
  9
$TEXTSIZE
 40
2.5
  9
$TRACEWID
 40
0.05
  9
$TEXTSTYLE
  7
BIG
  9
$CLAYER
  8
0
  9
$CELTYPE
  6
BYLAYER
  9
$CECOLOR
 62
   256
  9
$DIMSCALE
 40
1.0
  9
$DIMASZ
 40
3.0
  9
$DIMEXO
 40
1.0
  9
$DIMDLI
 40
0.0
  9
$DIMRND
 40
0.0
  9
$DIMDLE
 40
0.0
  9
$DIMEXE
 40
1.0
  9
$DIMTP
 40
0.0
  9
$DIMTM
 40
0.0
  9
$DIMTXT
 40
3.0
  9
$DIMCEN
 40
0.0
  9
$DIMTSZ
 40
0.0
  9
$DIMTOL
 70
     0
  9
$DIMLIM
 70
     0
  9
$DIMTIH
 70
     0
  9
$DIMTOH
 70
     0
  9
$DIMSE1
 70
     0
  9
$DIMSE2
 70
     0
  9
$DIMTAD
 70
     1
  9
$DIMZIN
 70
     8
  9
$DIMBLK
  1

  9
$DIMASO
 70
     1
  9
$DIMSHO
 70
     1
  9
$DIMPOST
  1

  9
$DIMAPOST
  1

  9
$DIMALT
 70
     0
  9
$DIMALTD
 70
     2
  9
$DIMALTF
 40
25.399999999999999
  9
$DIMLFAC
 40
1.0
  9
$DIMTOFL
 70
     1
  9
$DIMTVP
 40
0.0
  9
$DIMTIX
 70
     1
  9
$DIMSOXD
 70
     0
  9
$DIMSAH
 70
     0
  9
$DIMBLK1
  1

  9
$DIMBLK2
  1

  9
$DIMSTYLE
  2
DUKITEC
  9
$DIMCLRD
 70
     5
  9
$DIMCLRE
 70
     5
  9
$DIMCLRT
 70
     0
  9
$DIMTFAC
 40
1.0
  9
$DIMGAP
 40
1.0
  9
$LUNITS
 70
     2
  9
$LUPREC
 70
     4
  9
$SKETCHINC
 40
0.1
  9
$FILLETRAD
 40
0.2
  9
$AUNITS
 70
     0
  9
$AUPREC
 70
     0
  9
$MENU
  1
.
  9
$ELEVATION
 40
0.0
  9
$PELEVATION
 40
0.0
  9
$THICKNESS
 40
0.0
  9
$LIMCHECK
 70
     0
  9
$BLIPMODE
 70
     0
  9
$CHAMFERA
 40
0.5
  9
$CHAMFERB
 40
0.5
  9
$SKPOLY
 70
     0
  9
$TDCREATE
 40
2454396.75417588
  9
$TDUPDATE
 40
2456631.4300366668
  9
$TDINDWG
 40
0.0013051157
  9
$TDUSRTIMER
 40
0.0013050694
  9
$USRTIMER
 70
     1
  9
$ANGBASE
 50
0.0
  9
$ANGDIR
 70
     0
  9
$PDMODE
 70
     0
  9
$PDSIZE
 40
0.0
  9
$PLINEWID
 40
0.0
  9
$COORDS
 70
     1
  9
$SPLFRAME
 70
     0
  9
$SPLINETYPE
 70
     6
  9
$SPLINESEGS
 70
     8
  9
$ATTDIA
 70
     0
  9
$ATTREQ
 70
     1
  9
$HANDLING
 70
     1
  9
$HANDSEED
  5
14375
  9
$SURFTAB1
 70
     6
  9
$SURFTAB2
 70
     6
  9
$SURFTYPE
 70
     6
  9
$SURFU
 70
     6
  9
$SURFV
 70
     6
  9
$UCSNAME
  2

  9
$UCSORG
 10
0.0
 20
0.0
 30
0.0
  9
$UCSXDIR
 10
1.0
 20
0.0
 30
0.0
  9
$UCSYDIR
 10
0.0
 20
1.0
 30
0.0
  9
$PUCSNAME
  2

  9
$PUCSORG
 10
0.0
 20
0.0
 30
0.0
  9
$PUCSXDIR
 10
1.0
 20
0.0
 30
0.0
  9
$PUCSYDIR
 10
0.0
 20
1.0
 30
0.0
  9
$USERI1
 70
     0
  9
$USERI2
 70
     0
  9
$USERI3
 70
     0
  9
$USERI4
 70
     0
  9
$USERI5
 70
     0
  9
$USERR1
 40
0.0
  9
$USERR2
 40
0.0
  9
$USERR3
 40
0.0
  9
$USERR4
 40
0.0
  9
$USERR5
 40
0.0
  9
$WORLDVIEW
 70
     1
  9
$SHADEDGE
 70
     3
  9
$SHADEDIF
 70
    70
  9
$TILEMODE
 70
     1
  9
$MAXACTVP
 70
    64
  9
$PLIMCHECK
 70
     0
  9
$PEXTMIN
 10
0.0
 20
0.0
 30
0.0
  9
$PEXTMAX
 10
0.0
 20
0.0
 30
0.0
  9
$PLIMMIN
 10
0.0
 20
0.0
  9
$PLIMMAX
 10
12.0
 20
9.0
  9
$UNITMODE
 70
     0
  9
$VISRETAIN
 70
     1
  9
$PLINEGEN
 70
     0
  9
$PSLTSCALE
 70
     1
  0
ENDSEC
  0
SECTION
  2
TABLES
  0
TABLE
  2
VPORT
 70
     1
  0
VPORT
  2
*ACTIVE
 70
     0
 10
0.0
 20
0.0
 11
1.0
 21
1.0
 12
2160.1094691232111
 22
1605.1344765446991
 13
0.0
 23
0.0
 14
0.5
 24
0.5
 15
0.5
 25
0.5
 16
0.0
 26
0.0
 36
1.0
 17
0.0
 27
0.0
 37
0.0
 40
261.60175635162068
 41
2.2309552599758158
 42
50.0
 43
0.0
 44
0.0
 50
0.0
 51
0.0
 71
     0
 72
  2000
 73
     1
 74
     3
 75
     0
 76
     0
 77
     0
 78
     0
  0
ENDTAB
  0
TABLE
  2
LTYPE
 70
     4
  0
LTYPE
  2
CONTINUOUS
 70
     0
  3
Solid line
 72
    65
 73
     0
 40
0.0
  0
LTYPE
  2
PHANTOM2
 70
     0
  3
Phantom (.5x) ___ _ _ ___ _ _ ___ _ _ ___ _ _
 72
    65
 73
     6
 40
1.25
 49
0.625
 49
-0.125
 49
0.125
 49
-0.125
 49
0.125
 49
-0.125
  0
LTYPE
  2
CENTER
 70
     0
  3
___ _ ___ _ ___ _ ___ _ ___ _ ___ _ ___ _ ___ _
 72
    65
 73
     4
 40
0.95
 49
0.625
 49
-0.125
 49
0.075
 49
-0.125
  0
LTYPE
  2
DASHED2
 70
     0
  3
Dashed (.5x) _ _ _ _ _ _ _ _ _ _ _ _ _ _ _ _ _
 72
    65
 73
     2
 40
0.375
 49
0.25
 49
-0.125
  0
ENDTAB
  0
TABLE
  2
LAYER
 70
     5
  0
LAYER
  2
0
 70
     0
 62
     7
  6
CONTINUOUS
  0
LAYER
  2
HIDE
 70
     0
 62
     1
  6
DASHED2
  0
LAYER
  2
CENTER
 70
     0
 62
     3
  6
CENTER
  0
LAYER
  2
HIDE1
 70
     0
 62
     1
  6
CONTINUOUS
  0
ENDTAB
  0
TABLE
  2
STYLE
 70
     4
  0
STYLE
  2
STANDARD
 70
     0
 40
5.0
 41
1.0
 50
0.0
 71
     0
 42
5.0
  3
txt.shx
  4
whgtxt.shx
  0
STYLE
  2
BIG
 70
     0
 40
20.0
 41
1.0
 50
0.0
 71
     0
 42
2.5
  3
txt
  4

  0
ENDTAB
  0
TABLE
  2
VIEW
 70
     0
  0
ENDTAB
  0
TABLE
  2
UCS
 70
     0
  0
ENDTAB
  0
TABLE
  2
APPID
 70
    10
  0
APPID
  2
ACAD
 70
     0
  0
APPID
  2
ACADANNOTATIVE
 70
     0
  0
APPID
  2
ACAD_EXEMPT_FROM_CAD_STANDARDS
 70
     0
  0
APPID
  2
ACAD_DSTYLE_DIMJOGGED_JOGA
 70
     0
  0
APPID
  2
ACAD_PSEXT
 70
     0
  0
APPID
  2
ACAECLAYERSTANDARD
 70
     0
  0
APPID
  2
DCO15
 70
     0
  0
APPID
  2
CONTENTBLOCKICON
 70
     0
  0
APPID
  2
ACAD_NAV_VCDISPLAY
 70
     0
  0
APPID
  2
ACAD_MLEADERVER
 70
     0
  0
ENDTAB
  0
TABLE
  2
DIMSTYLE
 70
     3
  0
DIMSTYLE
  2
DUKITEC
 70
     0
  3

  4

  5

  6

  7

 40
1.0
 41
3.0
 42
1.0
 43
0.0
 44
1.0
 45
0.0
 46
0.0
 47
0.0
 48
0.0
140
3.0
141
0.0
142
0.0
143
25.399999999999999
144
1.0
145
0.0
146
1.0
147
1.0
 71
     0
 72
     0
 73
     0
 74
     0
 75
     0
 76
     0
 77
     1
 78
     8
170
     0
171
     2
172
     1
173
     0
174
     1
175
     0
176
     5
177
     5
178
     0
  0
ENDTAB
  0
ENDSEC
  0
SECTION
  2
BLOCKS
  0
BLOCK
  8
0
  2
$MODEL_SPACE
 70
     0
 10
0.0
 20
0.0
 30
0.0
  3
$MODEL_SPACE
  1

  0
ENDBLK
  5
140F7
  8
0
  0
BLOCK
 67
     1
  8
0
  2
$PAPER_SPACE
 70
     0
 10
0.0
 20
0.0
 30
0.0
  3
$PAPER_SPACE
  1

  0
ENDBLK
  5
140F3
 67
     1
  8
0
  0
ENDSEC
  0
SECTION
  2
ENTITIES
  0
TEXT
  5
14057
  8
0
 10
2072.421173086293
 20
1515.9309167483859
 30
0.0
 40
20.0
  1
FK 30DFT
  7
BIG
  0
LINE
  5
1415D
  8
HIDE1
 10
2196.4879062724599
 20
1620.326982339396
 30
0.0
 11
2196.4879062724599
 21
1659.3269823394
 31
0.0
  0
LINE
  5
1415E
  8
CENTER
 10
2187.9879062724599
 20
1615.470320891154
 30
0.0
 11
2187.9879062724599
 21
1627.5575102774251
 31
0.0
  0
LINE
  5
1415F
  8
HIDE1
 10
2195.9879062724599
 20
1617.326982339398
 30
0.0
 11
2195.9879062724599
 21
1662.326982339398
 31
0.0
  0
LINE
  5
14160
  8
0
 10
2180.4879062724599
 20
1617.326982339398
 30
0.0
 11
2180.4879062724599
 21
1662.326982339398
 31
0.0
  0
LINE
  5
14161
  8
0
 10
2191.4879062724599
 20
1617.3269823394
 30
0.0
 11
2180.4879062724599
 21
1617.326982339398
 31
0.0
  0
LINE
  5
14162
  8
HIDE1
 10
2196.4879062724599
 20
1620.326982339396
 30
0.0
 11
2195.9879062724599
 21
1620.0383072048021
 31
0.0
  0
LINE
  5
14163
  8
HIDE1
 10
2190.9879062724599
 20
1617.326982339398
 30
0.0
 11
2190.9879062724599
 21
1625.576982339398
 31
0.0
  0
LINE
  5
14164
  8
HIDE1
 10
2190.4879062724599
 20
1617.326982339398
 30
0.0
 11
2190.4879062724599
 21
1625.576982339398
 31
0.0
  0
LINE
  5
14165
  8
HIDE1
 10
2184.9879062724599
 20
1617.326982339398
 30
0.0
 11
2184.9879062724599
 21
1625.576982339398
 31
0.0
  0
LINE
  5
14166
  8
HIDE1
 10
2185.4879062724599
 20
1617.326982339398
 30
0.0
 11
2185.4879062724599
 21
1625.576982339398
 31
0.0
  0
LINE
  5
14167
  8
HIDE1
 10
2190.9879062724599
 20
1617.6222280332049
 30
0.0
 11
2184.9879062724599
 21
1617.6222280332049
 31
0.0
  0
LINE
  5
14168
  8
HIDE1
 10
2190.9879062724599
 20
1622.6222280332049
 30
0.0
 11
2184.9879062724599
 21
1622.6222280332049
 31
0.0
  0
LINE
  5
14169
  8
HIDE1
 10
2190.9879062724599
 20
1622.6222280332049
 30
0.0
 11
2190.4879062724599
 21
1622.9109031677999
 31
0.0
  0
LINE
  5
1416A
  8
HIDE1
 10
2184.9879062724599
 20
1622.6222280332049
 30
0.0
 11
2185.4879062724599
 21
1622.9109031677999
 31
0.0
  0
LINE
  5
1416B
  8
HIDE1
 10
2185.4879062724599
 20
1622.9109031677999
 30
0.0
 11
2190.4879062724599
 21
1622.9109031677999
 31
0.0
  0
LINE
  5
1416C
  8
HIDE1
 10
2196.4879062724599
 20
1624.826982339398
 30
0.0
 11
2180.4879062724599
 21
1624.826982339398
 31
0.0
  0
LINE
  5
1416D
  8
HIDE1
 10
2196.4879062724599
 20
1625.576982339398
 30
0.0
 11
2180.4879062724599
 21
1625.576982339398
 31
0.0
  0
LINE
  5
1416E
  8
0
 10
2191.4879062724599
 20
1631.888731849383
 30
0.0
 11
2180.4879062724599
 21
1631.888731849383
 31
0.0
  0
LINE
  5
1416F
  8
CENTER
 10
2187.9879062724599
 20
1664.183643787642
 30
0.0
 11
2187.9879062724599
 21
1652.0964544013709
 31
0.0
  0
LINE
  5
14170
  8
0
 10
2191.4879062724599
 20
1662.3269823394
 30
0.0
 11
2180.4879062724599
 21
1662.326982339398
 31
0.0
  0
LINE
  5
14171
  8
HIDE1
 10
2196.4879062724599
 20
1659.3269823394
 30
0.0
 11
2195.9879062724599
 21
1659.6156574739939
 31
0.0
  0
LINE
  5
14172
  8
HIDE1
 10
2190.9879062724599
 20
1662.326982339398
 30
0.0
 11
2190.9879062724599
 21
1654.076982339398
 31
0.0
  0
LINE
  5
14173
  8
HIDE1
 10
2190.4879062724599
 20
1662.326982339398
 30
0.0
 11
2190.4879062724599
 21
1654.076982339398
 31
0.0
  0
LINE
  5
14174
  8
HIDE1
 10
2184.9879062724599
 20
1662.326982339398
 30
0.0
 11
2184.9879062724599
 21
1654.076982339398
 31
0.0
  0
LINE
  5
14175
  8
HIDE1
 10
2185.4879062724599
 20
1662.326982339398
 30
0.0
 11
2185.4879062724599
 21
1654.076982339398
 31
0.0
  0
LINE
  5
14176
  8
HIDE1
 10
2190.9879062724599
 20
1662.0317366455911
 30
0.0
 11
2184.9879062724599
 21
1662.0317366455911
 31
0.0
  0
LINE
  5
14177
  8
HIDE1
 10
2190.9879062724599
 20
1657.0317366455899
 30
0.0
 11
2184.9879062724599
 21
1657.0317366455899
 31
0.0
  0
LINE
  5
14178
  8
HIDE1
 10
2190.9879062724599
 20
1657.0317366455899
 30
0.0
 11
2190.4879062724599
 21
1656.7430615109961
 31
0.0
  0
LINE
  5
14179
  8
HIDE1
 10
2184.9879062724599
 20
1657.0317366455899
 30
0.0
 11
2185.4879062724599
 21
1656.7430615109961
 31
0.0
  0
LINE
  5
1417A
  8
HIDE1
 10
2185.4879062724599
 20
1656.7430615109961
 30
0.0
 11
2190.4879062724599
 21
1656.7430615109961
 31
0.0
  0
LINE
  5
1417B
  8
HIDE1
 10
2196.4879062724599
 20
1654.826982339398
 30
0.0
 11
2180.4879062724599
 21
1654.826982339398
 31
0.0
  0
LINE
  5
1417C
  8
HIDE1
 10
2196.4879062724599
 20
1654.076982339398
 30
0.0
 11
2180.4879062724599
 21
1654.076982339398
 31
0.0
  0
LINE
  5
1417D
  8
0
 10
2191.4879062724599
 20
1647.765232829413
 30
0.0
 11
2180.4879062724599
 21
1647.7652328294109
 31
0.0
  0
LINE
  5
1417E
  8
HIDE1
 10
2191.4879062724599
 20
1662.3269823394
 30
0.0
 11
2195.9879062724599
 21
1662.326982339398
 31
0.0
  0
LINE
  5
1417F
  8
HIDE1
 10
2191.4879062724599
 20
1617.3269823394
 30
0.0
 11
2195.9879062724599
 21
1617.3269823394
 31
0.0
  0
LINE
  5
14180
  8
HIDE1
 10
2191.4879062724531
 20
1647.765232829413
 30
0.0
 11
2195.9879062724599
 21
1647.765232829413
 31
0.0
  0
LINE
  5
14181
  8
HIDE1
 10
2191.4879062724599
 20
1631.888731849383
 30
0.0
 11
2195.9879062724599
 21
1631.888731849383
 31
0.0
  0
ARC
  5
14182
  8
HIDE1
 10
2053.5185962724622
 20
1639.826982339398
 30
0.0
 40
15.0
 50
270.0
 51
180.0
  0
CIRCLE
  5
14183
  8
0
 10
2053.5185962724622
 20
1639.826982339398
 30
0.0
 40
14.25
  0
ARC
  5
14184
  8
0
 10
2053.5185962724622
 20
1639.826982339398
 30
0.0
 40
22.5
 50
249.34064672844821
 51
290.65935327155182
  0
ARC
  5
14185
  8
0
 10
2053.5185962724622
 20
1639.826982339398
 30
0.0
 40
22.5
 50
339.34064672867049
 51
20.65935327132954
  0
ARC
  5
14186
  8
0
 10
2053.5185962724622
 20
1639.826982339398
 30
0.0
 40
22.5
 50
69.340646728448192
 51
110.65935327155179
  0
ARC
  5
14187
  8
0
 10
2053.5185962724622
 20
1639.826982339398
 30
0.0
 40
22.5
 50
159.34064672867049
 51
200.65935327132951
  0
POLYLINE
  5
14188
  8
0
 66
     1
 10
0.0
 20
0.0
 30
0.0
  0
VERTEX
  5
14369
  8
0
 10
2032.4654687338391
 20
1631.8887318493751
 30
0.0
  0
VERTEX
  5
1436A
  8
0
 10
2045.580345782442
 20
1618.7738548007701
 30
0.0
  0
SEQEND
  5
1436B
  8
0
  0
POLYLINE
  5
14189
  8
0
 66
     1
 10
0.0
 20
0.0
 30
0.0
  0
VERTEX
  5
1436C
  8
0
 10
2061.4568467624831
 20
1618.7738548007701
 30
0.0
  0
VERTEX
  5
1436D
  8
0
 10
2074.5717238110869
 20
1631.8887318493739
 30
0.0
  0
SEQEND
  5
1436E
  8
0
  0
POLYLINE
  5
1418A
  8
0
 66
     1
 10
0.0
 20
0.0
 30
0.0
  0
VERTEX
  5
1436F
  8
0
 10
2074.5717238110869
 20
1647.765232829418
 30
0.0
  0
VERTEX
  5
14370
  8
0
 10
2061.4568467624831
 20
1660.8801098780229
 30
0.0
  0
SEQEND
  5
14371
  8
0
  0
POLYLINE
  5
1418B
  8
0
 66
     1
 10
0.0
 20
0.0
 30
0.0
  0
VERTEX
  5
14372
  8
0
 10
2045.580345782442
 20
1660.8801098780229
 30
0.0
  0
VERTEX
  5
14373
  8
0
 10
2032.4654687338391
 20
1647.76523282942
 30
0.0
  0
SEQEND
  5
14374
  8
0
  0
LINE
  5
1418C
  8
HIDE1
 10
2050.5185962724631
 20
1662.1260854603761
 30
0.0
 11
2050.5185962724631
 21
1653.757614055153
 31
0.0
  0
LINE
  5
1418D
  8
HIDE1
 10
2051.0185962724631
 20
1662.1876621143961
 30
0.0
 11
2051.0185962724631
 21
1653.8559701859949
 31
0.0
  0
LINE
  5
1418E
  8
HIDE1
 10
2056.5185962724631
 20
1662.1260854603761
 30
0.0
 11
2056.5185962724631
 21
1653.757614055153
 31
0.0
  0
LINE
  5
1418F
  8
HIDE1
 10
2056.0185962724631
 20
1662.1876621143961
 30
0.0
 11
2056.0185962724631
 21
1653.855970185997
 31
0.0
  0
LINE
  5
14190
  8
HIDE1
 10
2050.5185962724631
 20
1662.0317366455911
 30
0.0
 11
2056.5185962724631
 21
1662.0317366455911
 31
0.0
  0
LINE
  5
14191
  8
HIDE1
 10
2050.5185962724631
 20
1657.0317366455899
 30
0.0
 11
2056.5185962724631
 21
1657.0317366455899
 31
0.0
  0
LINE
  5
14192
  8
HIDE1
 10
2050.5185962724631
 20
1657.0317366455899
 30
0.0
 11
2051.0185962724631
 21
1656.7430615109961
 31
0.0
  0
LINE
  5
14193
  8
HIDE1
 10
2056.5185962724631
 20
1657.0317366455899
 30
0.0
 11
2056.0185962724631
 21
1656.7430615109961
 31
0.0
  0
LINE
  5
14194
  8
HIDE1
 10
2056.0185962724631
 20
1656.7430615109961
 30
0.0
 11
2051.0185962724631
 21
1656.7430615109961
 31
0.0
  0
LINE
  5
14195
  8
HIDE1
 10
2050.5185962724631
 20
1617.527879218421
 30
0.0
 11
2050.5185962724631
 21
1625.8963506236439
 31
0.0
  0
LINE
  5
14196
  8
HIDE1
 10
2051.0185962724631
 20
1617.4663025643999
 30
0.0
 11
2051.0185962724631
 21
1625.7979944927999
 31
0.0
  0
LINE
  5
14197
  8
HIDE1
 10
2056.5185962724631
 20
1617.527879218421
 30
0.0
 11
2056.5185962724631
 21
1625.896350623643
 31
0.0
  0
LINE
  5
14198
  8
HIDE1
 10
2056.0185962724631
 20
1617.4663025643999
 30
0.0
 11
2056.0185962724631
 21
1625.7979944927999
 31
0.0
  0
LINE
  5
14199
  8
HIDE1
 10
2050.5185962724631
 20
1617.6222280332049
 30
0.0
 11
2056.5185962724631
 21
1617.6222280332049
 31
0.0
  0
LINE
  5
1419A
  8
HIDE1
 10
2050.5185962724631
 20
1622.6222280332049
 30
0.0
 11
2056.5185962724631
 21
1622.6222280332049
 31
0.0
  0
LINE
  5
1419B
  8
HIDE1
 10
2050.5185962724631
 20
1622.6222280332049
 30
0.0
 11
2051.0185962724631
 21
1622.9109031677999
 31
0.0
  0
LINE
  5
1419C
  8
HIDE1
 10
2056.5185962724631
 20
1622.6222280332049
 30
0.0
 11
2056.0185962724631
 21
1622.9109031677999
 31
0.0
  0
LINE
  5
1419D
  8
HIDE1
 10
2056.0185962724631
 20
1622.9109031677999
 30
0.0
 11
2051.0185962724631
 21
1622.9109031677999
 31
0.0
  0
LINE
  5
1419E
  8
HIDE
 10
2216.4879062724608
 20
1706.576982339398
 30
0.0
 11
2216.4879062724608
 21
1689.076982339398
 31
0.0
  0
LINE
  5
1419F
  8
HIDE
 10
2205.4879062724608
 20
1689.076982339398
 30
0.0
 11
2216.4879062724608
 21
1689.076982339398
 31
0.0
  0
LINE
  5
141A0
  8
HIDE
 10
2216.4879062724608
 20
1692.326982339398
 30
0.0
 11
2220.4879062724608
 21
1692.326982339398
 31
0.0
  0
LINE
  5
141A1
  8
HIDE
 10
2216.4879062724608
 20
1703.326982339398
 30
0.0
 11
2220.4879062724608
 21
1703.326982339398
 31
0.0
  0
LINE
  5
141A2
  8
HIDE
 10
2205.4879062724608
 20
1706.576982339398
 30
0.0
 11
2216.4879062724608
 21
1706.576982339398
 31
0.0
  0
LINE
  5
141A3
  8
CENTER
 10
2201.0181563052679
 20
1697.826982339398
 30
0.0
 11
2224.6107359609168
 21
1697.826982339398
 31
0.0
  0
LINE
  5
141A4
  8
0
 10
2205.4879062724608
 20
1708.826982339398
 30
0.0
 11
2220.4879062724608
 21
1708.826982339398
 31
0.0
  0
LINE
  5
141A5
  8
0
 10
2191.4879062724608
 20
1687.826982339398
 30
0.0
 11
2205.4879062724608
 21
1687.826982339398
 31
0.0
  0
LINE
  5
141A6
  8
0
 10
2220.4879062724608
 20
1708.826982339398
 30
0.0
 11
2220.4879062724608
 21
1684.827035339398
 31
0.0
  0
LINE
  5
141A7
  8
0
 10
2205.4879062724608
 20
1708.826982339398
 30
0.0
 11
2205.4879062724608
 21
1570.826982339398
 31
0.0
  0
LINE
  5
141A8
  8
0
 10
2191.4879062724608
 20
1687.826982339398
 30
0.0
 11
2191.4879062724608
 21
1591.826982339398
 31
0.0
  0
LINE
  5
141A9
  8
CENTER
 10
2171.783873010967
 20
1639.826982339398
 30
0.0
 11
2287.2669373574499
 21
1639.826982339398
 31
0.0
  0
LINE
  5
141AA
  8
0
 10
2282.4879062724608
 20
1594.827047339398
 30
0.0
 11
2220.4879062724608
 21
1594.827047339398
 31
0.0
  0
LINE
  5
141AB
  8
0
 10
2282.4879062724608
 20
1684.827035339398
 30
0.0
 11
2220.4879062724608
 21
1684.827035339398
 31
0.0
  0
LINE
  5
141AC
  8
CENTER
 10
2201.0181563052679
 20
1581.826982339398
 30
0.0
 11
2224.6107359609168
 21
1581.826982339398
 31
0.0
  0
LINE
  5
141AD
  8
HIDE
 10
2205.4879062724608
 20
1573.076982339398
 30
0.0
 11
2216.4879062724608
 21
1573.076982339398
 31
0.0
  0
LINE
  5
141AE
  8
HIDE
 10
2216.4879062724608
 20
1576.326982339398
 30
0.0
 11
2220.4879062724608
 21
1576.326982339398
 31
0.0
  0
LINE
  5
141AF
  8
HIDE
 10
2216.4879062724608
 20
1587.326982339398
 30
0.0
 11
2220.4879062724608
 21
1587.326982339398
 31
0.0
  0
LINE
  5
141B0
  8
HIDE
 10
2205.4879062724608
 20
1590.576982339398
 30
0.0
 11
2216.4879062724608
 21
1590.576982339398
 31
0.0
  0
LINE
  5
141B1
  8
HIDE
 10
2216.4879062724608
 20
1573.076982339398
 30
0.0
 11
2216.4879062724608
 21
1590.576982339398
 31
0.0
  0
LINE
  5
141B2
  8
0
 10
2205.4879062724608
 20
1570.826982339398
 30
0.0
 11
2220.4879062724608
 21
1570.826982339398
 31
0.0
  0
LINE
  5
141B3
  8
0
 10
2191.4879062724608
 20
1591.826982339398
 30
0.0
 11
2205.4879062724608
 21
1591.826982339398
 31
0.0
  0
LINE
  5
141B4
  8
0
 10
2282.4879062724608
 20
1594.827047339398
 30
0.0
 11
2282.4879062724608
 21
1684.827035339398
 31
0.0
  0
CIRCLE
  5
141B5
  8
HIDE
 10
2247.4879062724608
 20
1616.826982339398
 30
0.0
 40
4.799999999999998
  0
CIRCLE
  5
141B6
  8
HIDE
 10
2247.4879062724608
 20
1662.826982339398
 30
0.0
 40
4.799999999999998
  0
LINE
  5
141B7
  8
HIDE
 10
2239.4879062724608
 20
1670.226982339397
 30
0.0
 11
2239.4879062724608
 21
1609.4269823393979
 31
0.0
  0
ARC
  5
141B8
  8
HIDE
 10
2240.0879062724612
 20
1609.4269823393979
 30
0.0
 40
0.6000000000000015
 50
180.0
 51
270.0
  0
ARC
  5
141B9
  8
HIDE
 10
2254.4879062724608
 20
1609.826982339398
 30
0.0
 40
1.0
 50
270.0
 51
0.0
  0
ARC
  5
141BA
  8
HIDE
 10
2240.4879062724608
 20
1623.826982339398
 30
0.0
 40
1.0
 50
90.0
 51
180.0
  0
ARC
  5
141BB
  8
HIDE
 10
2240.4879062724608
 20
1655.826982339398
 30
0.0
 40
1.0
 50
180.0
 51
270.0
  0
ARC
  5
141BC
  8
HIDE
 10
2254.8879062724618
 20
1624.226982339397
 30
0.0
 40
0.6
 50
0.0
 51
90.0
  0
ARC
  5
141BD
  8
HIDE
 10
2254.8879062724618
 20
1655.4269823393979
 30
0.0
 40
0.5999999999999996
 50
270.0
 51
0.0
  0
ARC
  5
141BE
  8
HIDE
 10
2240.087906272463
 20
1670.2269823393981
 30
0.0
 40
0.6000000000000015
 50
90.0
 51
180.0
  0
ARC
  5
141BF
  8
HIDE
 10
2254.4879062724608
 20
1669.826982339398
 30
0.0
 40
1.0
 50
0.0
 51
90.0
  0
LINE
  5
141C0
  8
HIDE
 10
2255.4879062724608
 20
1614.776982339398
 30
0.0
 11
2251.828125160951
 21
1614.776982339398
 31
0.0
  0
LINE
  5
141C1
  8
HIDE
 10
2254.4879062724608
 20
1608.826982339398
 30
0.0
 11
2240.0879062724612
 21
1608.826982339398
 31
0.0
  0
LINE
  5
141C2
  8
HIDE
 10
2239.4879062724608
 20
1618.9769823393981
 30
0.0
 11
2243.1963447850781
 21
1618.9769823393981
 31
0.0
  0
LINE
  5
141C3
  8
HIDE
 10
2245.7588773540429
 20
1612.349208450592
 30
0.0
 11
2239.4879062724608
 21
1611.776982339398
 31
0.0
  0
LINE
  5
141C4
  8
HIDE
 10
2255.4879062724608
 20
1618.9769823393981
 30
0.0
 11
2251.7794677598458
 21
1618.9769823393981
 31
0.0
  0
LINE
  5
141C5
  8
HIDE
 10
2255.4879062724608
 20
1660.6769823393979
 30
0.0
 11
2251.7794677598458
 21
1660.6769823393979
 31
0.0
  0
LINE
  5
141C6
  8
HIDE
 10
2254.8879062724618
 20
1624.826982339398
 30
0.0
 11
2240.4879062724608
 21
1624.826982339398
 31
0.0
  0
LINE
  5
141C7
  8
HIDE
 10
2254.8879062724618
 20
1654.826982339398
 30
0.0
 11
2240.4879062724608
 21
1654.826982339398
 31
0.0
  0
LINE
  5
141C8
  8
HIDE
 10
2239.4879062724608
 20
1660.6769823393979
 30
0.0
 11
2243.1963447850781
 21
1660.6769823393979
 31
0.0
  0
LINE
  5
141C9
  8
HIDE
 10
2255.4879062724608
 20
1664.876982339398
 30
0.0
 11
2251.828125160951
 21
1664.876982339398
 31
0.0
  0
LINE
  5
141CA
  8
HIDE
 10
2240.087906272463
 20
1670.826982339398
 30
0.0
 11
2254.4879062724608
 21
1670.826982339398
 31
0.0
  0
LINE
  5
141CB
  8
HIDE
 10
2245.7588773540429
 20
1667.304756228204
 30
0.0
 11
2239.4879062724608
 21
1667.876982339398
 31
0.0
  0
LINE
  5
141CC
  8
HIDE
 10
2255.4879062724608
 20
1669.826982339398
 30
0.0
 11
2255.4879062724608
 21
1609.826982339398
 31
0.0
  0
LINE
  5
141CD
  8
HIDE
 10
2243.386615397681
 20
1619.3208574686801
 30
0.0
 11
2243.0427402683999
 21
1618.9769823393981
 31
0.0
  0
CIRCLE
  5
141CE
  8
HIDE
 10
2263.4879062724608
 20
1616.826982339398
 30
0.0
 40
4.799999999999998
  0
CIRCLE
  5
141CF
  8
HIDE
 10
2263.4879062724608
 20
1662.826982339398
 30
0.0
 40
4.799999999999998
  0
ARC
  5
141D0
  8
HIDE
 10
2256.0879062724612
 20
1609.4269823393979
 30
0.0
 40
0.6000000000000015
 50
180.0
 51
270.0
  0
ARC
  5
141D1
  8
HIDE
 10
2270.4879062724608
 20
1609.826982339398
 30
0.0
 40
1.0
 50
270.0
 51
0.0
  0
ARC
  5
141D2
  8
HIDE
 10
2256.4879062724608
 20
1623.826982339398
 30
0.0
 40
1.0
 50
90.0
 51
180.0
  0
ARC
  5
141D3
  8
HIDE
 10
2256.4879062724608
 20
1655.826982339398
 30
0.0
 40
1.0
 50
180.0
 51
270.0
  0
ARC
  5
141D4
  8
HIDE
 10
2270.8879062724618
 20
1624.226982339397
 30
0.0
 40
0.6
 50
0.0
 51
90.0
  0
ARC
  5
141D5
  8
HIDE
 10
2270.8879062724618
 20
1655.4269823393979
 30
0.0
 40
0.5999999999999996
 50
270.0
 51
0.0
  0
ARC
  5
141D6
  8
HIDE
 10
2256.087906272463
 20
1670.2269823393981
 30
0.0
 40
0.6000000000000015
 50
90.0
 51
180.0
  0
ARC
  5
141D7
  8
HIDE
 10
2270.4879062724608
 20
1669.826982339398
 30
0.0
 40
1.0
 50
0.0
 51
90.0
  0
LINE
  5
141D8
  8
HIDE
 10
2271.4879062724608
 20
1614.776982339398
 30
0.0
 11
2267.828125160951
 21
1614.776982339398
 31
0.0
  0
LINE
  5
141D9
  8
HIDE
 10
2270.4879062724608
 20
1608.826982339398
 30
0.0
 11
2256.0879062724612
 21
1608.826982339398
 31
0.0
  0
LINE
  5
141DA
  8
HIDE
 10
2255.4879062724608
 20
1618.9769823393981
 30
0.0
 11
2259.1963447850781
 21
1618.9769823393981
 31
0.0
  0
LINE
  5
141DB
  8
HIDE
 10
2261.7588773540429
 20
1612.349208450592
 30
0.0
 11
2255.4879062724608
 21
1611.776982339398
 31
0.0
  0
LINE
  5
141DC
  8
HIDE
 10
2271.4879062724608
 20
1618.9769823393981
 30
0.0
 11
2267.7794677598458
 21
1618.9769823393981
 31
0.0
  0
LINE
  5
141DD
  8
HIDE
 10
2271.4879062724608
 20
1660.6769823393979
 30
0.0
 11
2267.7794677598458
 21
1660.6769823393979
 31
0.0
  0
LINE
  5
141DE
  8
HIDE
 10
2270.8879062724618
 20
1624.826982339398
 30
0.0
 11
2256.4879062724608
 21
1624.826982339398
 31
0.0
  0
LINE
  5
141DF
  8
HIDE
 10
2270.8879062724618
 20
1654.826982339398
 30
0.0
 11
2256.4879062724608
 21
1654.826982339398
 31
0.0
  0
LINE
  5
141E0
  8
HIDE
 10
2255.4879062724608
 20
1660.6769823393979
 30
0.0
 11
2259.1963447850781
 21
1660.6769823393979
 31
0.0
  0
LINE
  5
141E1
  8
HIDE
 10
2271.4879062724608
 20
1664.876982339398
 30
0.0
 11
2267.828125160951
 21
1664.876982339398
 31
0.0
  0
LINE
  5
141E2
  8
HIDE
 10
2256.087906272463
 20
1670.826982339398
 30
0.0
 11
2270.4879062724608
 21
1670.826982339398
 31
0.0
  0
LINE
  5
141E3
  8
HIDE
 10
2261.7588773540429
 20
1667.304756228204
 30
0.0
 11
2255.4879062724608
 21
1667.876982339398
 31
0.0
  0
LINE
  5
141E4
  8
HIDE
 10
2271.4879062724608
 20
1669.826982339398
 30
0.0
 11
2271.4879062724608
 21
1609.826982339398
 31
0.0
  0
LINE
  5
141E5
  8
HIDE
 10
2259.386615397681
 20
1619.3208574686801
 30
0.0
 11
2259.0427402683999
 21
1618.9769823393981
 31
0.0
  0
LINE
  5
141E6
  8
HIDE
 10
2271.4879062724608
 20
1654.826982339398
 30
0.0
 11
2282.4879062724608
 21
1654.826982339398
 31
0.0
  0
LINE
  5
141E7
  8
HIDE
 10
2271.4879062724608
 20
1658.076982339398
 30
0.0
 11
2282.4879062724608
 21
1658.076982339398
 31
0.0
  0
LINE
  5
141E8
  8
HIDE
 10
2271.4879062724608
 20
1624.826982339398
 30
0.0
 11
2282.4879062724608
 21
1624.826982339398
 31
0.0
  0
LINE
  5
141E9
  8
HIDE
 10
2271.4879062724608
 20
1621.576982339398
 30
0.0
 11
2282.4879062724608
 21
1621.576982339398
 31
0.0
  0
LINE
  5
141EA
  8
HIDE
 10
2196.4879062724608
 20
1654.826982339398
 30
0.0
 11
2207.4879062724608
 21
1654.826982339398
 31
0.0
  0
LINE
  5
141EB
  8
HIDE
 10
2196.4879062724608
 20
1658.076982339398
 30
0.0
 11
2207.4879062724608
 21
1658.076982339398
 31
0.0
  0
LINE
  5
141EC
  8
HIDE
 10
2196.4879062724608
 20
1624.826982339398
 30
0.0
 11
2207.4879062724608
 21
1624.826982339398
 31
0.0
  0
LINE
  5
141ED
  8
HIDE
 10
2196.4879062724608
 20
1621.576982339398
 30
0.0
 11
2207.4879062724608
 21
1621.576982339398
 31
0.0
  0
CIRCLE
  5
141EE
  8
HIDE
 10
2215.4879062724608
 20
1616.826982339398
 30
0.0
 40
4.7999999999999989
  0
CIRCLE
  5
141EF
  8
HIDE
 10
2215.4879062724608
 20
1662.826982339398
 30
0.0
 40
4.7999999999999989
  0
ARC
  5
141F0
  8
HIDE
 10
2222.8879062724618
 20
1670.226982339397
 30
0.0
 40
0.5999999999999996
 50
0.0
 51
90.0
  0
ARC
  5
141F1
  8
HIDE
 10
2208.4879062724608
 20
1669.826982339398
 30
0.0
 40
1.0
 50
90.0
 51
180.0
  0
ARC
  5
141F2
  8
HIDE
 10
2222.4879062724608
 20
1655.826982339398
 30
0.0
 40
1.0
 50
270.0
 51
0.0
  0
ARC
  5
141F3
  8
HIDE
 10
2222.4879062724608
 20
1623.826982339398
 30
0.0
 40
1.0
 50
0.0
 51
90.0
  0
ARC
  5
141F4
  8
HIDE
 10
2208.0879062724612
 20
1655.426982339399
 30
0.0
 40
0.6000000000000015
 50
180.0
 51
270.0
  0
ARC
  5
141F5
  8
HIDE
 10
2208.0879062724612
 20
1624.2269823393981
 30
0.0
 40
0.5999999999999996
 50
90.0
 51
180.0
  0
ARC
  5
141F6
  8
HIDE
 10
2222.8879062724618
 20
1609.4269823393979
 30
0.0
 40
0.6000000000000015
 50
270.0
 51
0.0
  0
ARC
  5
141F7
  8
HIDE
 10
2208.4879062724608
 20
1609.826982339398
 30
0.0
 40
1.0
 50
180.0
 51
270.0
  0
LINE
  5
141F8
  8
HIDE
 10
2207.4879062724608
 20
1664.876982339398
 30
0.0
 11
2211.147687383972
 21
1664.876982339398
 31
0.0
  0
LINE
  5
141F9
  8
HIDE
 10
2208.4879062724608
 20
1670.826982339398
 30
0.0
 11
2222.8879062724618
 21
1670.826982339398
 31
0.0
  0
LINE
  5
141FA
  8
HIDE
 10
2223.4879062724608
 20
1660.6769823393979
 30
0.0
 11
2219.7794677598458
 21
1660.6769823393979
 31
0.0
  0
LINE
  5
141FB
  8
HIDE
 10
2217.216935190881
 20
1667.304756228204
 30
0.0
 11
2223.4879062724608
 21
1667.876982339398
 31
0.0
  0
LINE
  5
141FC
  8
HIDE
 10
2207.4879062724608
 20
1660.6769823393979
 30
0.0
 11
2211.1963447850771
 21
1660.6769823393979
 31
0.0
  0
LINE
  5
141FD
  8
HIDE
 10
2207.4879062724608
 20
1618.9769823393981
 30
0.0
 11
2211.1963447850771
 21
1618.9769823393981
 31
0.0
  0
LINE
  5
141FE
  8
HIDE
 10
2208.0879062724612
 20
1654.826982339398
 30
0.0
 11
2222.4879062724608
 21
1654.826982339398
 31
0.0
  0
LINE
  5
141FF
  8
HIDE
 10
2208.0879062724612
 20
1624.826982339398
 30
0.0
 11
2222.4879062724608
 21
1624.826982339398
 31
0.0
  0
LINE
  5
14200
  8
HIDE
 10
2223.4879062724608
 20
1618.9769823393981
 30
0.0
 11
2219.7794677598458
 21
1618.9769823393981
 31
0.0
  0
LINE
  5
14201
  8
HIDE
 10
2207.4879062724608
 20
1614.776982339398
 30
0.0
 11
2211.147687383972
 21
1614.776982339398
 31
0.0
  0
LINE
  5
14202
  8
HIDE
 10
2222.8879062724618
 20
1608.826982339398
 30
0.0
 11
2208.4879062724608
 21
1608.826982339398
 31
0.0
  0
LINE
  5
14203
  8
HIDE
 10
2217.216935190881
 20
1612.349208450592
 30
0.0
 11
2223.4879062724608
 21
1611.776982339398
 31
0.0
  0
LINE
  5
14204
  8
HIDE
 10
2207.4879062724608
 20
1609.826982339398
 30
0.0
 11
2207.4879062724608
 21
1669.826982339398
 31
0.0
  0
LINE
  5
14205
  8
HIDE
 10
2219.9330722765221
 20
1618.9769823393981
 30
0.0
 11
2219.5891971472411
 21
1619.3208574686789
 31
0.0
  0
CIRCLE
  5
14206
  8
HIDE
 10
2231.4879062724608
 20
1616.826982339398
 30
0.0
 40
4.799999999999998
  0
CIRCLE
  5
14207
  8
HIDE
 10
2231.4879062724608
 20
1662.826982339398
 30
0.0
 40
4.799999999999998
  0
LINE
  5
14208
  8
HIDE
 10
2223.4879062724608
 20
1670.226982339397
 30
0.0
 11
2223.4879062724608
 21
1609.4269823393979
 31
0.0
  0
ARC
  5
14209
  8
HIDE
 10
2224.0879062724612
 20
1609.4269823393979
 30
0.0
 40
0.6000000000000015
 50
180.0
 51
270.0
  0
ARC
  5
1420A
  8
HIDE
 10
2238.4879062724608
 20
1609.826982339398
 30
0.0
 40
1.0
 50
270.0
 51
0.0
  0
ARC
  5
1420B
  8
HIDE
 10
2224.4879062724608
 20
1623.826982339398
 30
0.0
 40
1.0
 50
90.0
 51
180.0
  0
ARC
  5
1420C
  8
HIDE
 10
2224.4879062724608
 20
1655.826982339398
 30
0.0
 40
1.0
 50
180.0
 51
270.0
  0
ARC
  5
1420D
  8
HIDE
 10
2238.8879062724618
 20
1624.226982339397
 30
0.0
 40
0.6
 50
0.0
 51
90.0
  0
ARC
  5
1420E
  8
HIDE
 10
2238.8879062724618
 20
1655.4269823393979
 30
0.0
 40
0.5999999999999996
 50
270.0
 51
0.0
  0
ARC
  5
1420F
  8
HIDE
 10
2224.087906272463
 20
1670.2269823393981
 30
0.0
 40
0.6000000000000015
 50
90.0
 51
180.0
  0
ARC
  5
14210
  8
HIDE
 10
2238.4879062724608
 20
1669.826982339398
 30
0.0
 40
1.0
 50
0.0
 51
90.0
  0
LINE
  5
14211
  8
HIDE
 10
2239.4879062724608
 20
1614.776982339398
 30
0.0
 11
2235.828125160951
 21
1614.776982339398
 31
0.0
  0
LINE
  5
14212
  8
HIDE
 10
2238.4879062724608
 20
1608.826982339398
 30
0.0
 11
2224.0879062724612
 21
1608.826982339398
 31
0.0
  0
LINE
  5
14213
  8
HIDE
 10
2223.4879062724608
 20
1618.9769823393981
 30
0.0
 11
2227.1963447850771
 21
1618.9769823393981
 31
0.0
  0
LINE
  5
14214
  8
HIDE
 10
2229.7588773540429
 20
1612.349208450592
 30
0.0
 11
2223.4879062724608
 21
1611.776982339398
 31
0.0
  0
LINE
  5
14215
  8
HIDE
 10
2239.4879062724608
 20
1618.9769823393981
 30
0.0
 11
2235.7794677598458
 21
1618.9769823393981
 31
0.0
  0
LINE
  5
14216
  8
HIDE
 10
2239.4879062724608
 20
1660.6769823393979
 30
0.0
 11
2235.7794677598458
 21
1660.6769823393979
 31
0.0
  0
LINE
  5
14217
  8
HIDE
 10
2238.8879062724618
 20
1624.826982339398
 30
0.0
 11
2224.4879062724608
 21
1624.826982339398
 31
0.0
  0
LINE
  5
14218
  8
HIDE
 10
2238.8879062724618
 20
1654.826982339398
 30
0.0
 11
2224.4879062724608
 21
1654.826982339398
 31
0.0
  0
LINE
  5
14219
  8
HIDE
 10
2223.4879062724608
 20
1660.6769823393979
 30
0.0
 11
2227.1963447850771
 21
1660.6769823393979
 31
0.0
  0
LINE
  5
1421A
  8
HIDE
 10
2239.4879062724608
 20
1664.876982339398
 30
0.0
 11
2235.828125160951
 21
1664.876982339398
 31
0.0
  0
LINE
  5
1421B
  8
HIDE
 10
2224.087906272463
 20
1670.826982339398
 30
0.0
 11
2238.4879062724608
 21
1670.826982339398
 31
0.0
  0
LINE
  5
1421C
  8
HIDE
 10
2229.7588773540429
 20
1667.304756228204
 30
0.0
 11
2223.4879062724608
 21
1667.876982339398
 31
0.0
  0
LINE
  5
1421D
  8
HIDE
 10
2227.386615397681
 20
1619.3208574686801
 30
0.0
 11
2227.0427402683999
 21
1618.9769823393981
 31
0.0
  0
LINE
  5
1421E
  8
0
 10
2220.4879062724608
 20
1594.827047339398
 30
0.0
 11
2220.4879062724608
 21
1570.826982339398
 31
0.0
  0
ARC
  5
14253
  8
CENTER
 10
2053.5185962724622
 20
1639.826982339398
 30
0.0
 40
38.5
 50
77.051749999985873
 51
104.7728919999728
  0
ARC
  5
14254
  8
CENTER
 10
2053.5185962724622
 20
1639.826982339398
 30
0.0
 40
38.5
 50
16.465443000008651
 51
43.632459000005021
  0
ARC
  5
14255
  8
CENTER
 10
2053.5185962724622
 20
1639.826982339398
 30
0.0
 40
38.5
 50
315.9667890000336
 51
344.66874700000392
  0
ARC
  5
14256
  8
CENTER
 10
2053.5185962724622
 20
1639.826982339398
 30
0.0
 40
38.5
 50
255.63859500002229
 51
283.58521200001547
  0
ARC
  5
14257
  8
CENTER
 10
2053.5185962724622
 20
1639.826982339398
 30
0.0
 40
38.5
 50
195.69859699998241
 51
223.28990200000871
  0
LINE
  5
14258
  8
0
 10
2016.287514272462
 20
1624.4660683393979
 30
0.0
 11
2014.8640102724639
 21
1619.1534803393979
 31
0.0
  0
LINE
  5
14259
  8
0
 10
2014.8639952724629
 20
1619.1534903393981
 30
0.0
 11
2018.7530822724621
 21
1615.264402339398
 31
0.0
  0
LINE
  5
1425A
  8
0
 10
2024.0656662724609
 20
1616.687889339398
 30
0.0
 11
2018.753101272463
 21
1615.2643913393979
 31
0.0
  0
LINE
  5
1425B
  8
0
 10
2025.489189272462
 20
1622.0004883393981
 30
0.0
 11
2024.0656852724619
 21
1616.6878983393981
 31
0.0
  0
LINE
  5
1425C
  8
0
 10
2021.600088272462
 20
1625.8895833393981
 30
0.0
 11
2025.4891762724619
 21
1622.0004963393981
 31
0.0
  0
LINE
  5
1425D
  8
0
 10
2016.287518272464
 20
1624.466083339398
 30
0.0
 11
2021.6000802724629
 21
1625.8895793393981
 31
0.0
  0
CIRCLE
  5
1425E
  8
0
 10
2020.1766182724621
 20
1620.576982339398
 30
0.0
 40
6.75
  0
LINE
  5
1425F
  8
0
 10
2082.9714712724631
 20
1624.4660683393979
 30
0.0
 11
2081.5479672724609
 21
1619.1534803393979
 31
0.0
  0
LINE
  5
14260
  8
0
 10
2081.547952272464
 20
1619.1534903393981
 30
0.0
 11
2085.4370392724632
 21
1615.264402339398
 31
0.0
  0
LINE
  5
14261
  8
0
 10
2090.7496232724629
 20
1616.687889339398
 30
0.0
 11
2085.4370582724632
 21
1615.2643913393979
 31
0.0
  0
LINE
  5
14262
  8
0
 10
2092.1731462724638
 20
1622.0004883393981
 30
0.0
 11
2090.7496422724621
 21
1616.6878983393981
 31
0.0
  0
LINE
  5
14263
  8
0
 10
2088.2840452724631
 20
1625.8895833393981
 30
0.0
 11
2092.173133272463
 21
1622.0004963393981
 31
0.0
  0
LINE
  5
14264
  8
0
 10
2082.9714752724631
 20
1624.466083339398
 30
0.0
 11
2088.2840372724618
 21
1625.8895793393981
 31
0.0
  0
CIRCLE
  5
14265
  8
0
 10
2086.8605742724631
 20
1620.576982339398
 30
0.0
 40
6.75
  0
LINE
  5
14266
  8
0
 10
2049.6294932724632
 20
1682.2160683393979
 30
0.0
 11
2048.2059892724628
 21
1676.9034803393979
 31
0.0
  0
LINE
  5
14267
  8
0
 10
2048.2059742724632
 20
1676.9034903393981
 30
0.0
 11
2052.0950612724632
 21
1673.014402339398
 31
0.0
  0
LINE
  5
14268
  8
0
 10
2057.4076452724621
 20
1674.437889339398
 30
0.0
 11
2052.0950802724619
 21
1673.0143913393979
 31
0.0
  0
LINE
  5
14269
  8
0
 10
2058.8311682724639
 20
1679.7504883393981
 30
0.0
 11
2057.4076642724631
 21
1674.4378983393981
 31
0.0
  0
LINE
  5
1426A
  8
0
 10
2054.9420672724632
 20
1683.6395833393981
 30
0.0
 11
2058.8311552724622
 21
1679.7504963393981
 31
0.0
  0
LINE
  5
1426B
  8
0
 10
2049.6294972724631
 20
1682.216083339398
 30
0.0
 11
2054.9420592724641
 21
1683.6395793393981
 31
0.0
  0
CIRCLE
  5
1426C
  8
0
 10
2053.5185962724622
 20
1678.326982339398
 30
0.0
 40
6.75
  0
LINE
  5
1426D
  8
0
 10
2049.6294932724632
 20
1605.2160683393979
 30
0.0
 11
2048.2059892724628
 21
1599.9034803393979
 31
0.0
  0
LINE
  5
1426E
  8
0
 10
2048.2059742724632
 20
1599.9034903393981
 30
0.0
 11
2052.0950612724632
 21
1596.014402339398
 31
0.0
  0
LINE
  5
1426F
  8
0
 10
2057.4076452724621
 20
1597.437889339398
 30
0.0
 11
2052.0950802724619
 21
1596.0143913393979
 31
0.0
  0
LINE
  5
14270
  8
0
 10
2058.8311682724639
 20
1602.7504883393981
 30
0.0
 11
2057.4076642724631
 21
1597.4378983393981
 31
0.0
  0
LINE
  5
14271
  8
0
 10
2054.9420672724632
 20
1606.6395833393981
 30
0.0
 11
2058.8311552724622
 21
1602.7504963393981
 31
0.0
  0
LINE
  5
14272
  8
0
 10
2049.6294972724631
 20
1605.216083339398
 30
0.0
 11
2054.9420592724641
 21
1606.6395793393981
 31
0.0
  0
CIRCLE
  5
14273
  8
0
 10
2053.5185962724622
 20
1601.326982339398
 30
0.0
 40
6.75
  0
LINE
  5
14274
  8
0
 10
2082.9714712724631
 20
1662.9660683393979
 30
0.0
 11
2081.5479672724609
 21
1657.6534803393979
 31
0.0
  0
LINE
  5
14275
  8
0
 10
2081.547952272464
 20
1657.6534903393981
 30
0.0
 11
2085.4370392724632
 21
1653.764402339398
 31
0.0
  0
LINE
  5
14276
  8
0
 10
2090.7496232724629
 20
1655.187889339398
 30
0.0
 11
2085.4370582724632
 21
1653.7643913393979
 31
0.0
  0
LINE
  5
14277
  8
0
 10
2092.1731462724638
 20
1660.5004883393981
 30
0.0
 11
2090.7496422724621
 21
1655.1878983393981
 31
0.0
  0
LINE
  5
14278
  8
0
 10
2088.2840452724631
 20
1664.3895833393981
 30
0.0
 11
2092.173133272463
 21
1660.5004963393981
 31
0.0
  0
LINE
  5
14279
  8
0
 10
2082.9714752724631
 20
1662.966083339398
 30
0.0
 11
2088.2840372724618
 21
1664.3895793393981
 31
0.0
  0
CIRCLE
  5
1427A
  8
0
 10
2086.8605742724631
 20
1659.076982339398
 30
0.0
 40
6.75
  0
CIRCLE
  5
1427B
  8
0
 10
2020.1766182724621
 20
1659.076982339398
 30
0.0
 40
6.75
  0
LINE
  5
1427C
  8
0
 10
2016.287518272464
 20
1662.966083339398
 30
0.0
 11
2021.6000802724629
 21
1664.3895793393981
 31
0.0
  0
LINE
  5
1427D
  8
0
 10
2024.0656662724609
 20
1655.187889339398
 30
0.0
 11
2018.753101272463
 21
1653.7643913393979
 31
0.0
  0
LINE
  5
1427E
  8
0
 10
2021.600088272462
 20
1664.3895833393981
 30
0.0
 11
2025.4891762724619
 21
1660.5004963393981
 31
0.0
  0
LINE
  5
1427F
  8
0
 10
2025.489189272462
 20
1660.5004883393981
 30
0.0
 11
2024.0656852724619
 21
1655.1878983393981
 31
0.0
  0
LINE
  5
14280
  8
0
 10
2016.287514272462
 20
1662.9660683393979
 30
0.0
 11
2014.8640102724639
 21
1657.6534803393979
 31
0.0
  0
LINE
  5
14281
  8
0
 10
2014.8639952724629
 20
1657.6534903393981
 30
0.0
 11
2018.7530822724621
 21
1653.764402339398
 31
0.0
  0
ARC
  5
14282
  8
CENTER
 10
2053.5185962724622
 20
1639.826982339398
 30
0.0
 40
38.5
 50
134.46756600002911
 51
164.19277500002059
  0
LINE
  5
14283
  8
CENTER
 10
2078.9929432724639
 20
1625.119361339398
 30
0.0
 11
2094.5363842724619
 21
1616.1453513393981
 31
0.0
  0
LINE
  5
14284
  8
CENTER
 10
2028.4698562724629
 20
1625.3650853393981
 30
0.0
 11
2012.918743272463
 21
1616.3866463393981
 31
0.0
  0
LINE
  5
14285
  8
CENTER
 10
2028.1690692724619
 20
1654.462538339398
 30
0.0
 11
2012.639978272462
 21
1663.428263339398
 31
0.0
  0
LINE
  5
14286
  8
CENTER
 10
2078.8681222724631
 20
1654.462538339398
 30
0.0
 11
2094.8500582724628
 21
1663.6897133393979
 31
0.0
  0
CIRCLE
  5
14287
  8
0
 10
2053.5185962724622
 20
1639.826982339398
 30
0.0
 40
25.5
  0
CIRCLE
  5
14288
  8
0
 10
2053.5185962724622
 20
1639.826982339398
 30
0.0
 40
48.0
  0
ARC
  5
14289
  8
CENTER
 10
2053.5185962724622
 20
1639.826982339398
 30
0.0
 40
58.0
 50
77.459215999979904
 51
101.49575500002349
  0
ARC
  5
1428A
  8
CENTER
 10
2053.5185962724622
 20
1639.826982339398
 30
0.0
 40
58.0
 50
34.404126999971083
 51
56.581080000006303
  0
ARC
  5
1428B
  8
CENTER
 10
2053.5185962724622
 20
1639.826982339398
 30
0.0
 40
58.0
 50
303.90721800002228
 51
327.0607209999784
  0
ARC
  5
1428C
  8
CENTER
 10
2053.5185962724622
 20
1639.826982339398
 30
0.0
 40
58.0
 50
258.78968500001821
 51
281.91349299998473
  0
ARC
  5
1428D
  8
CENTER
 10
2053.5185962724622
 20
1639.826982339398
 30
0.0
 40
58.0
 50
213.4325499999654
 51
235.50531199999989
  0
ARC
  5
1428E
  8
CENTER
 10
2053.5185962724622
 20
1639.826982339398
 30
0.0
 40
58.0
 50
123.7171930000012
 51
146.68183900002239
  0
ARC
  5
1428F
  8
0
 10
2053.5185962724622
 20
1639.826982339398
 30
0.0
 40
69.0
 50
39.814997999985373
 51
140.18500200001461
  0
CIRCLE
  5
14290
  8
0
 10
2053.5185962724622
 20
1581.826982339398
 30
0.0
 40
5.5
  0
CIRCLE
  5
14291
  8
0
 10
2053.5185962724622
 20
1581.826982339398
 30
0.0
 40
8.75
  0
CIRCLE
  5
14292
  8
0
 10
2094.5307892724632
 20
1598.814789339398
 30
0.0
 40
5.5
  0
CIRCLE
  5
14293
  8
0
 10
2094.5307892724632
 20
1598.814789339398
 30
0.0
 40
8.75
  0
CIRCLE
  5
14294
  8
0
 10
2012.506403272462
 20
1598.814789339398
 30
0.0
 40
5.5
  0
CIRCLE
  5
14295
  8
0
 10
2012.506403272462
 20
1598.814789339398
 30
0.0
 40
8.75
  0
CIRCLE
  5
14296
  8
0
 10
2012.506403272462
 20
1680.839175339398
 30
0.0
 40
5.5
  0
CIRCLE
  5
14297
  8
0
 10
2012.506403272462
 20
1680.839175339398
 30
0.0
 40
8.75
  0
CIRCLE
  5
14298
  8
0
 10
2053.5185962724622
 20
1697.826982339398
 30
0.0
 40
5.5
  0
CIRCLE
  5
14299
  8
0
 10
2053.5185962724622
 20
1697.826982339398
 30
0.0
 40
8.75
  0
CIRCLE
  5
1429A
  8
0
 10
2094.5307892724632
 20
1680.839175339398
 30
0.0
 40
8.75
  0
CIRCLE
  5
1429B
  8
0
 10
2094.5307892724632
 20
1680.839175339398
 30
0.0
 40
5.5
  0
LINE
  5
1429C
  8
CENTER
 10
2020.8669502724631
 20
1607.175336339398
 30
0.0
 11
2003.2402672724641
 21
1589.548653339398
 31
0.0
  0
LINE
  5
1429D
  8
CENTER
 10
2086.8895592724621
 20
1606.4560193393979
 30
0.0
 11
2103.6168532724628
 21
1589.7287253393979
 31
0.0
  0
LINE
  5
1429E
  8
CENTER
 10
2020.699426272462
 20
1672.646152339398
 30
0.0
 11
2003.4326092724621
 21
1689.9129693393979
 31
0.0
  0
LINE
  5
1429F
  8
CENTER
 10
2086.5172842724628
 20
1672.825670339397
 30
0.0
 11
2103.9641732724631
 21
1690.272559339398
 31
0.0
  0
ARC
  5
142A0
  8
0
 10
2053.5185962724622
 20
1639.826982339398
 30
0.0
 40
69.0
 50
219.81499799998539
 51
320.18500200001461
  0
LINE
  5
142A1
  8
0
 10
2000.5185962724629
 20
1684.0084263393981
 30
0.0
 11
2000.5185962724629
 21
1595.6455383393979
 31
0.0
  0
LINE
  5
142A2
  8
0
 10
2106.5185962724631
 20
1684.0084263393981
 30
0.0
 11
2106.5185962724631
 21
1595.6455383393979
 31
0.0
  0
LINE
  5
142A3
  8
CENTER
 10
1991.5185962724629
 20
1639.826982339398
 30
0.0
 11
2115.5185962724631
 21
1639.826982339398
 31
0.0
  0
LINE
  5
142A4
  8
CENTER
 10
2053.5185962724622
 20
1562.826982339398
 30
0.0
 11
2053.5185962724622
 21
1716.826982339398
 31
0.0
  0
ENDSEC
  0
EOF
