  0
SECTION
  2
HEADER
  9
$ACADVER
  1
AC1009
  9
$INSBASE
 10
0.0
 20
0.0
 30
0.0
  9
$EXTMIN
 10
1903.0405749290021
 20
1433.173578249188
 30
0.0
  9
$EXTMAX
 10
2348.540574929003
 20
1748.173578249188
 30
0.0
  9
$LIMMIN
 10
0.0
 20
0.0
  9
$LIMMAX
 10
12.0
 20
9.0
  9
$ORTHOMODE
 70
     0
  9
$REGENMODE
 70
     1
  9
$FILLMODE
 70
     1
  9
$QTEXTMODE
 70
     0
  9
$MIRRTEXT
 70
     0
  9
$DRAGMODE
 70
     2
  9
$LTSCALE
 40
5.0
  9
$OSMODE
 70
  2239
  9
$ATTMODE
 70
     1
  9
$TEXTSIZE
 40
2.5
  9
$TRACEWID
 40
0.05
  9
$TEXTSTYLE
  7
BIG
  9
$CLAYER
  8
0
  9
$CELTYPE
  6
BYLAYER
  9
$CECOLOR
 62
   256
  9
$DIMSCALE
 40
1.0
  9
$DIMASZ
 40
3.0
  9
$DIMEXO
 40
1.0
  9
$DIMDLI
 40
0.0
  9
$DIMRND
 40
0.0
  9
$DIMDLE
 40
0.0
  9
$DIMEXE
 40
1.0
  9
$DIMTP
 40
0.0
  9
$DIMTM
 40
0.0
  9
$DIMTXT
 40
3.0
  9
$DIMCEN
 40
0.0
  9
$DIMTSZ
 40
0.0
  9
$DIMTOL
 70
     0
  9
$DIMLIM
 70
     0
  9
$DIMTIH
 70
     0
  9
$DIMTOH
 70
     0
  9
$DIMSE1
 70
     0
  9
$DIMSE2
 70
     0
  9
$DIMTAD
 70
     1
  9
$DIMZIN
 70
     8
  9
$DIMBLK
  1

  9
$DIMASO
 70
     1
  9
$DIMSHO
 70
     1
  9
$DIMPOST
  1

  9
$DIMAPOST
  1

  9
$DIMALT
 70
     0
  9
$DIMALTD
 70
     2
  9
$DIMALTF
 40
25.399999999999999
  9
$DIMLFAC
 40
1.0
  9
$DIMTOFL
 70
     1
  9
$DIMTVP
 40
0.0
  9
$DIMTIX
 70
     1
  9
$DIMSOXD
 70
     0
  9
$DIMSAH
 70
     0
  9
$DIMBLK1
  1

  9
$DIMBLK2
  1

  9
$DIMSTYLE
  2
DUKITEC
  9
$DIMCLRD
 70
     5
  9
$DIMCLRE
 70
     5
  9
$DIMCLRT
 70
     0
  9
$DIMTFAC
 40
1.0
  9
$DIMGAP
 40
1.0
  9
$LUNITS
 70
     2
  9
$LUPREC
 70
     4
  9
$SKETCHINC
 40
0.1
  9
$FILLETRAD
 40
0.2
  9
$AUNITS
 70
     0
  9
$AUPREC
 70
     0
  9
$MENU
  1
.
  9
$ELEVATION
 40
0.0
  9
$PELEVATION
 40
0.0
  9
$THICKNESS
 40
0.0
  9
$LIMCHECK
 70
     0
  9
$BLIPMODE
 70
     0
  9
$CHAMFERA
 40
0.5
  9
$CHAMFERB
 40
0.5
  9
$SKPOLY
 70
     0
  9
$TDCREATE
 40
2454396.731303703
  9
$TDUPDATE
 40
2456631.4150304981
  9
$TDINDWG
 40
0.0027009028
  9
$TDUSRTIMER
 40
0.0027006713
  9
$USRTIMER
 70
     1
  9
$ANGBASE
 50
0.0
  9
$ANGDIR
 70
     0
  9
$PDMODE
 70
     0
  9
$PDSIZE
 40
0.0
  9
$PLINEWID
 40
0.0
  9
$COORDS
 70
     1
  9
$SPLFRAME
 70
     0
  9
$SPLINETYPE
 70
     6
  9
$SPLINESEGS
 70
     8
  9
$ATTDIA
 70
     0
  9
$ATTREQ
 70
     1
  9
$HANDLING
 70
     1
  9
$HANDSEED
  5
144AD
  9
$SURFTAB1
 70
     6
  9
$SURFTAB2
 70
     6
  9
$SURFTYPE
 70
     6
  9
$SURFU
 70
     6
  9
$SURFV
 70
     6
  9
$UCSNAME
  2

  9
$UCSORG
 10
0.0
 20
0.0
 30
0.0
  9
$UCSXDIR
 10
1.0
 20
0.0
 30
0.0
  9
$UCSYDIR
 10
0.0
 20
1.0
 30
0.0
  9
$PUCSNAME
  2

  9
$PUCSORG
 10
0.0
 20
0.0
 30
0.0
  9
$PUCSXDIR
 10
1.0
 20
0.0
 30
0.0
  9
$PUCSYDIR
 10
0.0
 20
1.0
 30
0.0
  9
$USERI1
 70
     0
  9
$USERI2
 70
     0
  9
$USERI3
 70
     0
  9
$USERI4
 70
     0
  9
$USERI5
 70
     0
  9
$USERR1
 40
0.0
  9
$USERR2
 40
0.0
  9
$USERR3
 40
0.0
  9
$USERR4
 40
0.0
  9
$USERR5
 40
0.0
  9
$WORLDVIEW
 70
     1
  9
$SHADEDGE
 70
     3
  9
$SHADEDIF
 70
    70
  9
$TILEMODE
 70
     1
  9
$MAXACTVP
 70
    64
  9
$PLIMCHECK
 70
     0
  9
$PEXTMIN
 10
0.0
 20
0.0
 30
0.0
  9
$PEXTMAX
 10
0.0
 20
0.0
 30
0.0
  9
$PLIMMIN
 10
0.0
 20
0.0
  9
$PLIMMAX
 10
12.0
 20
9.0
  9
$UNITMODE
 70
     0
  9
$VISRETAIN
 70
     1
  9
$PLINEGEN
 70
     0
  9
$PSLTSCALE
 70
     1
  0
ENDSEC
  0
SECTION
  2
TABLES
  0
TABLE
  2
VPORT
 70
     1
  0
VPORT
  2
*ACTIVE
 70
     0
 10
0.0
 20
0.0
 11
1.0
 21
1.0
 12
2130.3272095213251
 22
1591.973679412509
 13
0.0
 23
0.0
 14
0.5
 24
0.5
 15
0.5
 25
0.5
 16
0.0
 26
0.0
 36
1.0
 17
0.0
 27
0.0
 37
0.0
 40
365.7999148215219
 41
2.1408934707903771
 42
50.0
 43
0.0
 44
0.0
 50
0.0
 51
0.0
 71
     0
 72
  2000
 73
     1
 74
     3
 75
     0
 76
     0
 77
     0
 78
     0
  0
ENDTAB
  0
TABLE
  2
LTYPE
 70
     5
  0
LTYPE
  2
CONTINUOUS
 70
     0
  3
Solid line
 72
    65
 73
     0
 40
0.0
  0
LTYPE
  2
PHANTOM2
 70
     0
  3
Phantom (.5x) ___ _ _ ___ _ _ ___ _ _ ___ _ _
 72
    65
 73
     6
 40
1.25
 49
0.625
 49
-0.125
 49
0.125
 49
-0.125
 49
0.125
 49
-0.125
  0
LTYPE
  2
CENTER
 70
     0
  3
___ _ ___ _ ___ _ ___ _ ___ _ ___ _ ___ _ ___ _
 72
    65
 73
     4
 40
0.95
 49
0.625
 49
-0.125
 49
0.075
 49
-0.125
  0
LTYPE
  2
DASHED2
 70
     0
  3
Dashed (.5x) _ _ _ _ _ _ _ _ _ _ _ _ _ _ _ _ _
 72
    65
 73
     2
 40
0.375
 49
0.25
 49
-0.125
  0
ENDTAB
  0
TABLE
  2
LAYER
 70
     4
  0
LAYER
  2
0
 70
     0
 62
     7
  6
CONTINUOUS
  0
LAYER
  2
HIDE
 70
     0
 62
     1
  6
DASHED2
  0
LAYER
  2
CENTER
 70
     0
 62
     3
  6
CENTER
  0
ENDTAB
  0
TABLE
  2
STYLE
 70
     4
  0
STYLE
  2
STANDARD
 70
     0
 40
5.0
 41
1.0
 50
0.0
 71
     0
 42
5.0
  3
txt.shx
  4
whgtxt.shx
  0
STYLE
  2
BIG
 70
     0
 40
20.0
 41
1.0
 50
0.0
 71
     0
 42
2.5
  3
txt
  4

  0
ENDTAB
  0
TABLE
  2
VIEW
 70
     0
  0
ENDTAB
  0
TABLE
  2
UCS
 70
     0
  0
ENDTAB
  0
TABLE
  2
APPID
 70
    11
  0
APPID
  2
ACAD
 70
     0
  0
APPID
  2
ACADANNOTATIVE
 70
     0
  0
APPID
  2
ACAD_EXEMPT_FROM_CAD_STANDARDS
 70
     0
  0
APPID
  2
ACAD_DSTYLE_DIMJOGGED_JOGA
 70
     0
  0
APPID
  2
ACAD_PSEXT
 70
     0
  0
APPID
  2
ACAECLAYERSTANDARD
 70
     0
  0
APPID
  2
DCO15
 70
     0
  0
APPID
  2
CONTENTBLOCKICON
 70
     0
  0
APPID
  2
ACAD_NAV_VCDISPLAY
 70
     0
  0
APPID
  2
ACAD_MLEADERVER
 70
     0
  0
APPID
  2
ACAD_DSTYLE_DIMRADIAL_EXTENSION
 70
     0
  0
ENDTAB
  0
TABLE
  2
DIMSTYLE
 70
     5
  0
DIMSTYLE
  2
DUKITEC
 70
     0
  3

  4

  5

  6

  7

 40
1.0
 41
3.0
 42
1.0
 43
0.0
 44
1.0
 45
0.0
 46
0.0
 47
0.0
 48
0.0
140
3.0
141
0.0
142
0.0
143
25.399999999999999
144
1.0
145
0.0
146
1.0
147
1.0
 71
     0
 72
     0
 73
     0
 74
     0
 75
     0
 76
     0
 77
     1
 78
     8
170
     0
171
     2
172
     1
173
     0
174
     1
175
     0
176
     5
177
     5
178
     0
  0
ENDTAB
  0
ENDSEC
  0
SECTION
  2
BLOCKS
  0
BLOCK
  8
0
  2
$MODEL_SPACE
 70
     0
 10
0.0
 20
0.0
 30
0.0
  3
$MODEL_SPACE
  1

  0
ENDBLK
  5
1435A
  8
0
  0
BLOCK
 67
     1
  8
0
  2
$PAPER_SPACE
 70
     0
 10
0.0
 20
0.0
 30
0.0
  3
$PAPER_SPACE
  1

  0
ENDBLK
  5
14356
 67
     1
  8
0
  0
ENDSEC
  0
SECTION
  2
ENTITIES
  0
TEXT
  5
14035
  8
0
 10
2088.0757549128848
 20
1479.3539839043769
 30
0.0
 40
20.0
  1
FK 35
  7
BIG
  0
ARC
  5
14141
  8
HIDE
 10
2063.0837463110411
 20
1621.4465201503619
 30
0.0
 40
17.5
 50
270.0
 51
180.0
  0
LINE
  5
14142
  8
0
 10
2069.0353764411529
 20
1592.0428112211409
 30
0.0
 11
2092.487455240268
 21
1615.4948900202589
 31
0.0
  0
LINE
  5
14143
  8
0
 10
2033.680037381816
 20
1627.3981502804611
 30
0.0
 11
2057.132116180921
 21
1650.850229079582
 31
0.0
  0
LINE
  5
14144
  8
0
 10
2057.132116180951
 20
1592.0428112211371
 30
0.0
 11
2033.680037381816
 21
1615.494890020281
 31
0.0
  0
LINE
  5
14145
  8
0
 10
2092.4874552402589
 20
1627.3981502804811
 30
0.0
 11
2069.035376441167
 21
1650.85022907958
 31
0.0
  0
CIRCLE
  5
14146
  8
0
 10
2063.0837463110411
 20
1621.4465201503619
 30
0.0
 40
16.75
  0
ARC
  5
14147
  8
0
 10
2063.0837463110411
 20
1621.4465201503619
 30
0.0
 40
30.0
 50
348.5573097618821
 51
11.44269023811788
  0
ARC
  5
14148
  8
0
 10
2063.0837463110411
 20
1621.4465201503619
 30
0.0
 40
30.0
 50
78.55730976169491
 51
101.4426902383051
  0
ARC
  5
14149
  8
0
 10
2063.0837463110411
 20
1621.4465201503619
 30
0.0
 40
30.0
 50
168.5573097618821
 51
191.44269023801041
  0
ARC
  5
1414A
  8
0
 10
2063.0837463110411
 20
1621.4465201503619
 30
0.0
 40
30.0
 50
258.5573097621201
 51
281.44269023787979
  0
CIRCLE
  5
1414B
  8
HIDE
 10
2063.0837463110411
 20
1621.446520150364
 30
0.0
 40
23.0
  0
LINE
  5
1414C
  8
HIDE
 10
2059.0837463110338
 20
1651.178657644997
 30
0.0
 11
2059.0837463110261
 21
1637.7118974899711
 31
0.0
  0
LINE
  5
1414D
  8
HIDE
 10
2067.0837463110338
 20
1651.1786576450011
 30
0.0
 11
2067.0837463110338
 21
1637.7118974899779
 31
0.0
  0
LINE
  5
1414E
  8
HIDE
 10
2059.6837463110401
 20
1651.253230804173
 30
0.0
 11
2059.6837463110401
 21
1637.8478158308881
 31
0.0
  0
LINE
  5
1414F
  8
HIDE
 10
2066.483746311028
 20
1651.253230804175
 30
0.0
 11
2066.483746311043
 21
1637.8478158308881
 31
0.0
  0
LINE
  5
14150
  8
HIDE
 10
2059.6837463110401
 20
1641.4465201503619
 30
0.0
 11
2066.483746311043
 21
1641.4465201503619
 31
0.0
  0
LINE
  5
14151
  8
HIDE
 10
2059.6837463110401
 20
1641.4465201503619
 30
0.0
 11
2059.0837463110338
 21
1642.485750634899
 31
0.0
  0
LINE
  5
14152
  8
HIDE
 10
2066.483746311043
 20
1641.4465201503619
 30
0.0
 11
2067.0837463110338
 21
1642.485750634899
 31
0.0
  0
LINE
  5
14153
  8
HIDE
 10
2059.0837463110338
 20
1642.485750634899
 30
0.0
 11
2067.0837463110338
 21
1642.485750634899
 31
0.0
  0
LINE
  5
14154
  8
HIDE
 10
2059.0837463110338
 20
1650.485750634899
 30
0.0
 11
2067.0837463110338
 21
1650.485750634899
 31
0.0
  0
LINE
  5
14155
  8
HIDE
 10
2059.0837463110188
 20
1591.714382655736
 30
0.0
 11
2059.0837463110188
 21
1605.181142810763
 31
0.0
  0
LINE
  5
14156
  8
HIDE
 10
2067.0837463110188
 20
1591.714382655729
 30
0.0
 11
2067.083746311027
 21
1605.181142810751
 31
0.0
  0
LINE
  5
14157
  8
HIDE
 10
2059.6837463110251
 20
1591.63980949656
 30
0.0
 11
2059.6837463110319
 21
1605.0452244698461
 31
0.0
  0
LINE
  5
14158
  8
HIDE
 10
2066.4837463110139
 20
1591.639809496555
 30
0.0
 11
2066.4837463110348
 21
1605.045224469842
 31
0.0
  0
LINE
  5
14159
  8
HIDE
 10
2059.6837463110251
 20
1601.446520150371
 30
0.0
 11
2066.483746311028
 21
1601.446520150367
 31
0.0
  0
LINE
  5
1415A
  8
HIDE
 10
2059.6837463110251
 20
1601.446520150371
 30
0.0
 11
2059.0837463110188
 21
1600.407289665834
 31
0.0
  0
LINE
  5
1415B
  8
HIDE
 10
2066.483746311028
 20
1601.446520150367
 30
0.0
 11
2067.0837463110188
 21
1600.4072896658299
 31
0.0
  0
LINE
  5
1415C
  8
HIDE
 10
2059.0837463110188
 20
1600.407289665834
 30
0.0
 11
2067.0837463110188
 21
1600.4072896658299
 31
0.0
  0
LINE
  5
1415D
  8
HIDE
 10
2059.0837463110188
 20
1592.407289665834
 30
0.0
 11
2067.0837463110188
 21
1592.4072896658299
 31
0.0
  0
LINE
  5
1415E
  8
CENTER
 10
2155.2077202919991
 20
1621.446520150364
 30
0.0
 11
2182.2077202919982
 21
1621.446520150364
 31
0.0
  0
LINE
  5
14160
  8
0
 10
2158.2077202919991
 20
1591.446520150364
 30
0.0
 11
2158.2077202919991
 21
1651.446520150364
 31
0.0
  0
LINE
  5
14161
  8
HIDE
 10
2179.2077202919991
 20
1598.4465201503749
 30
0.0
 11
2179.2077202919991
 21
1644.4465201503649
 31
0.0
  0
LINE
  5
14162
  8
HIDE
 10
2178.7077202919991
 20
1591.446520150364
 30
0.0
 11
2178.7077202919991
 21
1651.446520150364
 31
0.0
  0
LINE
  5
14163
  8
0
 10
2158.2077202919991
 20
1651.446520150364
 30
0.0
 11
2173.2076902919989
 21
1651.446520150364
 31
0.0
  0
LINE
  5
14164
  8
0
 10
2158.2077202919991
 20
1591.446520150364
 30
0.0
 11
2173.2076902919989
 21
1591.446520150364
 31
0.0
  0
LINE
  5
14165
  8
HIDE
 10
2178.70772029199
 20
1644.946520150377
 30
0.0
 11
2179.2077202919909
 21
1644.446520150364
 31
0.0
  0
LINE
  5
14166
  8
HIDE
 10
2178.70772029199
 20
1597.946520150351
 30
0.0
 11
2179.2077202919909
 21
1598.446520150364
 31
0.0
  0
LINE
  5
14167
  8
HIDE
 10
2179.2077202919909
 20
1638.946520150364
 30
0.0
 11
2158.2077202919991
 21
1638.946520150364
 31
0.0
  0
LINE
  5
14168
  8
HIDE
 10
2179.2077202919909
 20
1638.1965201503619
 30
0.0
 11
2158.2077202919991
 21
1638.196520150364
 31
0.0
  0
LINE
  5
14169
  8
HIDE
 10
2179.2077202919909
 20
1603.946520150364
 30
0.0
 11
2158.2077202919991
 21
1603.946520150364
 31
0.0
  0
LINE
  5
1416A
  8
HIDE
 10
2179.2077202919909
 20
1604.696520150366
 30
0.0
 11
2158.2077202919991
 21
1604.696520150364
 31
0.0
  0
LINE
  5
1416B
  8
CENTER
 10
2165.2077202919991
 20
1653.8988665303491
 30
0.0
 11
2165.2077202919991
 21
1636.2974670230619
 31
0.0
  0
LINE
  5
1416C
  8
HIDE
 10
2169.207720292005
 20
1651.446520150364
 30
0.0
 11
2169.2077202920118
 21
1638.196520150364
 31
0.0
  0
LINE
  5
1416D
  8
HIDE
 10
2161.207720292005
 20
1651.446520150364
 30
0.0
 11
2161.207720292005
 21
1638.196520150364
 31
0.0
  0
LINE
  5
1416E
  8
HIDE
 10
2168.6077202919992
 20
1651.446520150364
 30
0.0
 11
2168.6077202919992
 21
1638.1965201503619
 31
0.0
  0
LINE
  5
1416F
  8
HIDE
 10
2161.8077202920108
 20
1651.446520150364
 30
0.0
 11
2161.8077202919958
 21
1638.196520150364
 31
0.0
  0
LINE
  5
14170
  8
HIDE
 10
2168.6077202919992
 20
1641.446520150364
 30
0.0
 11
2161.8077202919958
 21
1641.446520150364
 31
0.0
  0
LINE
  5
14171
  8
HIDE
 10
2168.6077202919992
 20
1641.446520150364
 30
0.0
 11
2169.207720292005
 21
1642.485750634901
 31
0.0
  0
LINE
  5
14172
  8
HIDE
 10
2161.8077202919958
 20
1641.446520150364
 30
0.0
 11
2161.207720292005
 21
1642.485750634901
 31
0.0
  0
LINE
  5
14173
  8
HIDE
 10
2169.207720292005
 20
1642.485750634901
 30
0.0
 11
2161.207720292005
 21
1642.485750634901
 31
0.0
  0
LINE
  5
14174
  8
HIDE
 10
2169.207720292005
 20
1650.485750634901
 30
0.0
 11
2161.207720292005
 21
1650.485750634901
 31
0.0
  0
LINE
  5
14175
  8
CENTER
 10
2165.2077202919991
 20
1588.994173770378
 30
0.0
 11
2165.2077202919991
 21
1606.5955732776649
 31
0.0
  0
LINE
  5
14176
  8
HIDE
 10
2169.207720292005
 20
1591.446520150364
 30
0.0
 11
2169.2077202920118
 21
1604.696520150364
 31
0.0
  0
LINE
  5
14177
  8
HIDE
 10
2161.207720292005
 20
1591.446520150364
 30
0.0
 11
2161.207720292005
 21
1604.696520150364
 31
0.0
  0
LINE
  5
14178
  8
HIDE
 10
2168.6077202919992
 20
1591.446520150364
 30
0.0
 11
2168.6077202919992
 21
1604.696520150366
 31
0.0
  0
LINE
  5
14179
  8
HIDE
 10
2161.8077202920108
 20
1591.446520150364
 30
0.0
 11
2161.8077202919958
 21
1604.696520150364
 31
0.0
  0
LINE
  5
1417A
  8
HIDE
 10
2168.6077202919992
 20
1601.446520150364
 30
0.0
 11
2161.8077202919958
 21
1601.446520150364
 31
0.0
  0
LINE
  5
1417B
  8
HIDE
 10
2168.6077202919992
 20
1601.446520150364
 30
0.0
 11
2169.207720292005
 21
1600.407289665827
 31
0.0
  0
LINE
  5
1417C
  8
HIDE
 10
2161.8077202919958
 20
1601.446520150364
 30
0.0
 11
2161.207720292005
 21
1600.407289665827
 31
0.0
  0
LINE
  5
1417D
  8
HIDE
 10
2169.207720292005
 20
1600.407289665827
 30
0.0
 11
2161.207720292005
 21
1600.407289665827
 31
0.0
  0
LINE
  5
1417E
  8
HIDE
 10
2169.207720292005
 20
1592.407289665827
 30
0.0
 11
2161.207720292005
 21
1592.407289665827
 31
0.0
  0
LINE
  5
1417F
  8
HIDE
 10
2179.2077202919941
 20
1641.4465201503699
 30
0.0
 11
2179.2077202920009
 21
1601.4465201503699
 31
0.0
  0
LINE
  5
14180
  8
HIDE
 10
2178.7077202919991
 20
1591.446520150364
 30
0.0
 11
2173.2076902919989
 21
1591.446520150364
 31
0.0
  0
LINE
  5
14181
  8
HIDE
 10
2173.2076902919989
 20
1651.446520150364
 30
0.0
 11
2178.7077202919991
 21
1651.446520150364
 31
0.0
  0
CIRCLE
  5
14183
  8
0
 10
2063.0837618110409
 20
1621.446520150364
 30
0.0
 40
31.0
  0
CIRCLE
  5
14184
  8
0
 10
2063.0837618110409
 20
1621.446520150364
 30
0.0
 40
56.0
  0
ARC
  5
14185
  8
CENTER
 10
2063.0837618110409
 20
1621.446520150364
 30
0.0
 40
66.0
 50
94.958778000026356
 51
114.427138999973
  0
ARC
  5
14186
  8
CENTER
 10
2063.0837618110409
 20
1621.446520150364
 30
0.0
 40
66.0
 50
65.081980999999416
 51
84.472879000008376
  0
ARC
  5
14187
  8
CENTER
 10
2063.0837618110409
 20
1621.446520150364
 30
0.0
 40
66.0
 50
35.376434999989101
 51
54.778217000021442
  0
ARC
  5
14188
  8
CENTER
 10
2063.0837618110409
 20
1621.446520150364
 30
0.0
 40
66.0
 50
305.19538400000238
 51
324.4071390000359
  0
ARC
  5
14189
  8
CENTER
 10
2063.0837618110409
 20
1621.446520150364
 30
0.0
 40
66.0
 50
274.8819159999897
 51
295.5823749999733
  0
ARC
  5
1418A
  8
CENTER
 10
2063.0837618110409
 20
1621.446520150364
 30
0.0
 40
66.0
 50
244.92369700001049
 51
265.37592599998828
  0
ARC
  5
1418B
  8
CENTER
 10
2063.0837618110409
 20
1621.446520150364
 30
0.0
 40
66.0
 50
215.0929070000108
 51
234.56785099999479
  0
CIRCLE
  5
1418C
  8
0
 10
2109.7528098110411
 20
1574.777472150364
 30
0.0
 40
5.5
  0
CIRCLE
  5
1418D
  8
0
 10
2109.7528098110411
 20
1574.777472150364
 30
0.0
 40
8.75
  0
CIRCLE
  5
1418E
  8
0
 10
2080.1658188110409
 20
1557.6954151503639
 30
0.0
 40
5.5
  0
CIRCLE
  5
1418F
  8
0
 10
2080.1658188110409
 20
1557.6954151503639
 30
0.0
 40
8.75
  0
CIRCLE
  5
14190
  8
0
 10
2046.001704811041
 20
1557.6954151503639
 30
0.0
 40
5.5
  0
CIRCLE
  5
14191
  8
0
 10
2046.001704811041
 20
1557.6954151503639
 30
0.0
 40
8.75
  0
CIRCLE
  5
14192
  8
0
 10
2016.4147138110411
 20
1574.777472150364
 30
0.0
 40
5.5
  0
CIRCLE
  5
14193
  8
0
 10
2016.4147138110411
 20
1574.777472150364
 30
0.0
 40
8.75
  0
CIRCLE
  5
14194
  8
0
 10
2016.4147138110411
 20
1668.115568150364
 30
0.0
 40
5.5
  0
CIRCLE
  5
14195
  8
0
 10
2016.4147138110411
 20
1668.115568150364
 30
0.0
 40
8.75
  0
CIRCLE
  5
14196
  8
0
 10
2046.001704811041
 20
1685.197625150364
 30
0.0
 40
5.5
  0
CIRCLE
  5
14197
  8
0
 10
2046.001704811041
 20
1685.197625150364
 30
0.0
 40
8.75
  0
CIRCLE
  5
14198
  8
0
 10
2080.1658188110409
 20
1685.197625150364
 30
0.0
 40
5.5
  0
CIRCLE
  5
14199
  8
0
 10
2080.1658188110409
 20
1685.197625150364
 30
0.0
 40
8.75
  0
CIRCLE
  5
1419A
  8
0
 10
2109.7528098110411
 20
1668.115568150364
 30
0.0
 40
8.75
  0
CIRCLE
  5
1419B
  8
0
 10
2109.7528098110411
 20
1668.115568150364
 30
0.0
 40
5.5
  0
LINE
  5
1419C
  8
CENTER
 10
2048.890864811041
 20
1568.4779081503641
 30
0.0
 11
2042.5103768110409
 21
1544.665601150364
 31
0.0
  0
LINE
  5
1419D
  8
CENTER
 10
2024.5411458110409
 20
1582.903904150364
 30
0.0
 11
2006.947116811041
 21
1565.309875150364
 31
0.0
  0
LINE
  5
1419E
  8
CENTER
 10
2077.124417811041
 20
1569.0460781503641
 30
0.0
 11
2083.5692618110411
 21
1544.9935941503641
 31
0.0
  0
LINE
  5
1419F
  8
CENTER
 10
2101.6863468110409
 20
1582.8439351503639
 30
0.0
 11
2119.27983481104
 21
1565.2504471503639
 31
0.0
  0
LINE
  5
141A0
  8
CENTER
 10
2101.6021308110412
 20
1659.9648891503639
 30
0.0
 11
2119.372030811041
 21
1677.7347891503639
 31
0.0
  0
LINE
  5
141A1
  8
CENTER
 10
2077.1876438110412
 20
1674.082923150364
 30
0.0
 11
2083.550937811041
 21
1697.8310591503639
 31
0.0
  0
LINE
  5
141A2
  8
CENTER
 10
2024.565392811041
 20
1659.9648891503639
 30
0.0
 11
2007.499247811041
 21
1677.0310341503639
 31
0.0
  0
LINE
  5
141A3
  8
CENTER
 10
2049.044234811041
 20
1673.8427461503641
 30
0.0
 11
2042.305618811042
 21
1698.991607150364
 31
0.0
  0
ARC
  5
141A4
  8
CENTER
 10
2063.0837618110409
 20
1621.446520150364
 30
0.0
 40
66.0
 50
125.1054809999914
 51
145.01828300001009
  0
ARC
  5
141A5
  8
0
 10
2063.0837618110409
 20
1621.446520150364
 30
0.0
 40
77.0
 50
38.81071399997419
 51
141.18928600002579
  0
ARC
  5
141A6
  8
0
 10
2063.0837618110409
 20
1621.446520150364
 30
0.0
 40
77.0
 50
218.81071399997421
 51
321.18928600002567
  0
LINE
  5
141A7
  8
0
 10
2003.0837618110411
 20
1669.706234150364
 30
0.0
 11
2003.0837618110411
 21
1573.186806150364
 31
0.0
  0
LINE
  5
141A8
  8
0
 10
2123.0837618110409
 20
1669.706234150364
 30
0.0
 11
2123.0837618110409
 21
1573.186806150364
 31
0.0
  0
LINE
  5
141A9
  8
0
 10
2021.955565811041
 20
1603.8356061503639
 30
0.0
 11
2020.53206181104
 21
1598.5230181503639
 31
0.0
  0
LINE
  5
141AA
  8
0
 10
2020.532046811041
 20
1598.5230281503641
 30
0.0
 11
2024.421133811041
 21
1594.633940150364
 31
0.0
  0
LINE
  5
141AB
  8
0
 10
2029.7337178110411
 20
1596.057427150364
 30
0.0
 11
2024.4211528110411
 21
1594.6339291503641
 31
0.0
  0
LINE
  5
141AC
  8
0
 10
2031.1572408110401
 20
1601.3700261503641
 30
0.0
 11
2029.7337368110409
 21
1596.0574361503641
 31
0.0
  0
LINE
  5
141AD
  8
0
 10
2027.268139811041
 20
1605.2591211503641
 30
0.0
 11
2031.1572278110409
 21
1601.3700341503641
 31
0.0
  0
LINE
  5
141AE
  8
0
 10
2021.955569811041
 20
1603.835621150364
 30
0.0
 11
2027.268131811041
 21
1605.2591171503641
 31
0.0
  0
CIRCLE
  5
141AF
  8
0
 10
2025.8446698110411
 20
1599.946520150364
 30
0.0
 40
6.75
  0
LINE
  5
141B0
  8
0
 10
2096.4337508110411
 20
1603.8356061503639
 30
0.0
 11
2095.0102468110408
 21
1598.5230181503639
 31
0.0
  0
LINE
  5
141B1
  8
0
 10
2095.0102318110412
 20
1598.5230281503641
 30
0.0
 11
2098.8993188110412
 21
1594.633940150364
 31
0.0
  0
LINE
  5
141B2
  8
0
 10
2104.211902811041
 20
1596.057427150364
 30
0.0
 11
2098.8993378110408
 21
1594.6339291503641
 31
0.0
  0
LINE
  5
141B3
  8
0
 10
2105.6354258110409
 20
1601.3700261503641
 30
0.0
 11
2104.2119218110411
 21
1596.0574361503641
 31
0.0
  0
LINE
  5
141B4
  8
0
 10
2101.7463248110412
 20
1605.2591211503641
 30
0.0
 11
2105.6354128110411
 21
1601.3700341503641
 31
0.0
  0
LINE
  5
141B5
  8
0
 10
2096.4337548110411
 20
1603.835621150364
 30
0.0
 11
2101.7463168110412
 21
1605.2591171503641
 31
0.0
  0
CIRCLE
  5
141B6
  8
0
 10
2100.3228538110411
 20
1599.946520150364
 30
0.0
 40
6.75
  0
LINE
  5
141B7
  8
0
 10
2059.1946588110409
 20
1668.3356061503639
 30
0.0
 11
2057.771154811041
 21
1663.023018150363
 31
0.0
  0
LINE
  5
141B8
  8
0
 10
2057.7711398110409
 20
1663.0230281503641
 30
0.0
 11
2061.660226811041
 21
1659.133940150364
 31
0.0
  0
LINE
  5
141B9
  8
0
 10
2066.9728108110412
 20
1660.557427150364
 30
0.0
 11
2061.660245811041
 21
1659.1339291503641
 31
0.0
  0
LINE
  5
141BA
  8
0
 10
2068.3963338110402
 20
1665.8700261503641
 30
0.0
 11
2066.9728298110408
 21
1660.5574361503641
 31
0.0
  0
LINE
  5
141BB
  8
0
 10
2064.50723281104
 20
1669.7591211503641
 30
0.0
 11
2068.3963208110408
 21
1665.8700341503641
 31
0.0
  0
LINE
  5
141BC
  8
0
 10
2059.1946628110409
 20
1668.335621150364
 30
0.0
 11
2064.5072248110409
 21
1669.7591171503641
 31
0.0
  0
CIRCLE
  5
141BD
  8
0
 10
2063.0837618110409
 20
1664.446520150364
 30
0.0
 40
6.75
  0
LINE
  5
141BE
  8
0
 10
2059.1946588110409
 20
1582.3356061503639
 30
0.0
 11
2057.771154811041
 21
1577.0230181503639
 31
0.0
  0
LINE
  5
141BF
  8
0
 10
2057.7711398110409
 20
1577.0230281503641
 30
0.0
 11
2061.660226811041
 21
1573.133940150364
 31
0.0
  0
LINE
  5
141C0
  8
0
 10
2066.9728108110412
 20
1574.557427150364
 30
0.0
 11
2061.660245811041
 21
1573.1339291503641
 31
0.0
  0
LINE
  5
141C1
  8
0
 10
2068.3963338110402
 20
1579.8700261503641
 30
0.0
 11
2066.9728298110408
 21
1574.5574361503641
 31
0.0
  0
LINE
  5
141C2
  8
0
 10
2064.50723281104
 20
1583.7591211503641
 30
0.0
 11
2068.3963208110408
 21
1579.8700341503641
 31
0.0
  0
LINE
  5
141C3
  8
0
 10
2059.1946628110409
 20
1582.335621150364
 30
0.0
 11
2064.5072248110409
 21
1583.7591171503641
 31
0.0
  0
CIRCLE
  5
141C4
  8
0
 10
2063.0837618110409
 20
1578.446520150364
 30
0.0
 40
6.75
  0
LINE
  5
141C5
  8
0
 10
2096.4337508110411
 20
1646.8356061503639
 30
0.0
 11
2095.0102468110408
 21
1641.5230181503639
 31
0.0
  0
LINE
  5
141C6
  8
0
 10
2095.0102318110412
 20
1641.5230281503641
 30
0.0
 11
2098.8993188110412
 21
1637.633940150364
 31
0.0
  0
LINE
  5
141C7
  8
0
 10
2104.211902811041
 20
1639.057427150364
 30
0.0
 11
2098.8993378110408
 21
1637.6339291503641
 31
0.0
  0
LINE
  5
141C8
  8
0
 10
2105.6354258110409
 20
1644.3700261503641
 30
0.0
 11
2104.2119218110411
 21
1639.0574361503641
 31
0.0
  0
LINE
  5
141C9
  8
0
 10
2101.7463248110412
 20
1648.2591211503641
 30
0.0
 11
2105.6354128110411
 21
1644.3700341503641
 31
0.0
  0
LINE
  5
141CA
  8
0
 10
2096.4337548110411
 20
1646.835621150364
 30
0.0
 11
2101.7463168110412
 21
1648.2591171503641
 31
0.0
  0
CIRCLE
  5
141CB
  8
0
 10
2100.3228538110411
 20
1642.946520150364
 30
0.0
 40
6.75
  0
CIRCLE
  5
141CC
  8
0
 10
2025.8446698110411
 20
1642.946520150364
 30
0.0
 40
6.75
  0
LINE
  5
141CD
  8
0
 10
2021.955569811041
 20
1646.835621150364
 30
0.0
 11
2027.268131811041
 21
1648.2591171503641
 31
0.0
  0
LINE
  5
141CE
  8
0
 10
2029.7337178110411
 20
1639.057427150364
 30
0.0
 11
2024.4211528110411
 21
1637.6339291503641
 31
0.0
  0
LINE
  5
141CF
  8
0
 10
2027.268139811041
 20
1648.2591211503641
 30
0.0
 11
2031.1572278110409
 21
1644.3700341503641
 31
0.0
  0
LINE
  5
141D0
  8
0
 10
2031.1572408110401
 20
1644.3700261503641
 30
0.0
 11
2029.7337368110409
 21
1639.0574361503641
 31
0.0
  0
LINE
  5
141D1
  8
0
 10
2021.955565811041
 20
1646.8356061503639
 30
0.0
 11
2020.53206181104
 21
1641.5230181503639
 31
0.0
  0
LINE
  5
141D2
  8
0
 10
2020.532046811041
 20
1641.5230281503641
 30
0.0
 11
2024.421133811041
 21
1637.633940150364
 31
0.0
  0
LINE
  5
141D3
  8
CENTER
 10
1998.5282558110409
 20
1621.446520150364
 30
0.0
 11
2127.639267811041
 21
1621.446520150364
 31
0.0
  0
LINE
  5
141D4
  8
CENTER
 10
2063.0837618110409
 20
1540.525737150364
 30
0.0
 11
2063.0837618110409
 21
1702.367303150364
 31
0.0
  0
ARC
  5
141F6
  8
CENTER
 10
2063.0837618110409
 20
1621.446520150364
 30
0.0
 40
42.999999685865667
 50
137.98586237008121
 51
162.01413828540021
  0
ARC
  5
141F7
  8
CENTER
 10
2063.0837618110409
 20
1621.446520150364
 30
0.0
 40
42.999999685865667
 50
197.98586233495919
 51
222.01413825028729
  0
ARC
  5
141F8
  8
CENTER
 10
2063.0837618110409
 20
1621.446520150364
 30
0.0
 40
42.999999685865667
 50
257.98586204236159
 51
282.01413795763841
  0
ARC
  5
141F9
  8
CENTER
 10
2063.0837618110409
 20
1621.446520150364
 30
0.0
 40
42.999999685865667
 50
317.98586219105442
 51
342.01413810635381
  0
ARC
  5
141FA
  8
CENTER
 10
2063.0837618110409
 20
1621.446520150364
 30
0.0
 40
42.999999685865667
 50
17.985861949881571
 51
42.014137865205562
  0
ARC
  5
141FB
  8
CENTER
 10
2063.0837618110409
 20
1621.446520150364
 30
0.0
 40
42.999999685865667
 50
77.985862042361617
 51
102.0141379576384
  0
LINE
  5
141FC
  8
CENTER
 10
2092.5286251959601
 20
1638.446520117488
 30
0.0
 11
2108.1170824261212
 21
1647.4465201832379
 31
0.0
  0
LINE
  5
141FD
  8
CENTER
 10
2063.0837616676358
 20
1655.44651983623
 30
0.0
 11
2063.0837615917162
 21
1673.44651983623
 31
0.0
  0
LINE
  5
141FE
  8
CENTER
 10
2033.638898282717
 20
1638.446519869103
 30
0.0
 11
2018.0504409766349
 21
1647.4465198033561
 31
0.0
  0
LINE
  5
141FF
  8
CENTER
 10
2033.6388984261209
 20
1604.446520183239
 30
0.0
 11
2018.050441195961
 21
1595.4465201174901
 31
0.0
  0
LINE
  5
14200
  8
CENTER
 10
2063.083761954445
 20
1587.4465204645001
 30
0.0
 11
2063.0837620303669
 21
1569.4465204644989
 31
0.0
  0
LINE
  5
14201
  8
CENTER
 10
2092.528625339366
 20
1604.446520431623
 30
0.0
 11
2108.1170826454459
 21
1595.4465204973719
 31
0.0
  0
LINE
  5
14204
  8
HIDE
 10
2187.2077202919991
 20
1566.4454151503639
 30
0.0
 11
2198.2077202919982
 21
1566.4454151503639
 31
0.0
  0
LINE
  5
14205
  8
HIDE
 10
2198.2077202919982
 20
1563.1954151503639
 30
0.0
 11
2205.2077202919991
 21
1563.1954151503639
 31
0.0
  0
LINE
  5
14206
  8
HIDE
 10
2198.2077202919982
 20
1552.1954151503639
 30
0.0
 11
2205.2077202919991
 21
1552.1954151503639
 31
0.0
  0
LINE
  5
14207
  8
HIDE
 10
2187.2077202919991
 20
1548.9454151503639
 30
0.0
 11
2198.2077202919982
 21
1548.9454151503639
 31
0.0
  0
LINE
  5
14208
  8
HIDE
 10
2198.2077202919982
 20
1566.4454151503639
 30
0.0
 11
2198.2077202919982
 21
1548.9454151503639
 31
0.0
  0
LINE
  5
14209
  8
CENTER
 10
2182.633829717111
 20
1557.6954151503639
 30
0.0
 11
2209.9929834868722
 21
1557.6954151503639
 31
0.0
  0
LINE
  5
1420A
  8
CENTER
 10
2182.633829717111
 20
1685.197625150364
 30
0.0
 11
2209.9929834868722
 21
1685.197625150364
 31
0.0
  0
LINE
  5
1420B
  8
HIDE
 10
2198.2077202919982
 20
1693.947625150364
 30
0.0
 11
2198.2077202919982
 21
1676.447625150364
 31
0.0
  0
LINE
  5
1420C
  8
HIDE
 10
2187.2077202919991
 20
1676.447625150364
 30
0.0
 11
2198.2077202919982
 21
1676.447625150364
 31
0.0
  0
LINE
  5
1420D
  8
HIDE
 10
2198.2077202919982
 20
1679.697625150364
 30
0.0
 11
2205.2077202919991
 21
1679.697625150364
 31
0.0
  0
LINE
  5
1420E
  8
HIDE
 10
2198.2077202919982
 20
1690.697625150364
 30
0.0
 11
2205.2077202919991
 21
1690.697625150364
 31
0.0
  0
LINE
  5
1420F
  8
HIDE
 10
2187.2077202919991
 20
1693.947625150364
 30
0.0
 11
2198.2077202919982
 21
1693.947625150364
 31
0.0
  0
LINE
  5
14210
  8
0
 10
2187.2077202919991
 20
1544.446520150364
 30
0.0
 11
2205.2077202919991
 21
1544.446520150364
 31
0.0
  0
LINE
  5
14211
  8
0
 10
2173.2077202919991
 20
1565.446520150364
 30
0.0
 11
2187.2077202919991
 21
1565.446520150364
 31
0.0
  0
LINE
  5
14212
  8
0
 10
2187.2077202919991
 20
1698.446520150364
 30
0.0
 11
2205.2077202919991
 21
1698.446520150364
 31
0.0
  0
LINE
  5
14213
  8
0
 10
2173.2077202919991
 20
1677.446520150364
 30
0.0
 11
2187.2077202919991
 21
1677.446520150364
 31
0.0
  0
LINE
  5
14214
  8
0
 10
2237.2077202919991
 20
1671.446520150364
 30
0.0
 11
2205.2077202919991
 21
1671.446520150364
 31
0.0
  0
LINE
  5
14215
  8
0
 10
2237.2077202919991
 20
1571.446520150364
 30
0.0
 11
2205.2077202919991
 21
1571.446520150364
 31
0.0
  0
LINE
  5
14216
  8
0
 10
2237.2077202919991
 20
1671.446520150364
 30
0.0
 11
2237.2077202919991
 21
1571.446520150364
 31
0.0
  0
LINE
  5
14217
  8
0
 10
2205.2077202919991
 20
1698.446520150364
 30
0.0
 11
2205.2077202919991
 21
1544.446520150364
 31
0.0
  0
LINE
  5
14218
  8
0
 10
2187.2077202919991
 20
1698.446520150364
 30
0.0
 11
2187.2077202919991
 21
1544.446520150364
 31
0.0
  0
LINE
  5
14219
  8
0
 10
2173.2077202919991
 20
1677.446520150364
 30
0.0
 11
2173.2077202919991
 21
1565.446520150364
 31
0.0
  0
LINE
  5
1421A
  8
CENTER
 10
2157.2289012738579
 20
1621.446520150364
 30
0.0
 11
2242.6564632573441
 21
1621.446520150364
 31
0.0
  0
LINE
  5
1421B
  8
HIDE
 10
2179.2077202919991
 20
1638.946520150364
 30
0.0
 11
2191.2077202919982
 21
1638.946520150364
 31
0.0
  0
LINE
  5
1421C
  8
HIDE
 10
2225.2077202919968
 20
1638.946520150364
 30
0.0
 11
2237.2077202919968
 21
1638.946520150364
 31
0.0
  0
LINE
  5
1421D
  8
HIDE
 10
2179.2077202919991
 20
1603.946520150364
 30
0.0
 11
2191.2077202919982
 21
1603.9465201503631
 31
0.0
  0
LINE
  5
1421E
  8
HIDE
 10
2225.2077202919968
 20
1603.9465201503631
 30
0.0
 11
2237.2077202919968
 21
1603.946520150364
 31
0.0
  0
CIRCLE
  5
14223
  8
HIDE
 10
2216.7077202919991
 20
1594.696520150364
 30
0.0
 40
5.549999999999998
  0
CIRCLE
  5
14224
  8
HIDE
 10
2216.7077202919991
 20
1648.196520150364
 30
0.0
 40
5.549999999999998
  0
CIRCLE
  5
14225
  8
HIDE
 10
2199.7077202919991
 20
1594.696520150364
 30
0.0
 40
5.549999999999998
  0
CIRCLE
  5
14226
  8
HIDE
 10
2199.7077202919991
 20
1648.196520150364
 30
0.0
 40
5.549999999999998
  0
ARC
  5
14227
  8
HIDE
 10
2207.6077202919969
 20
1656.8465201503629
 30
0.0
 40
0.6000000000000015
 50
0.0
 51
90.0
  0
ARC
  5
14228
  8
HIDE
 10
2192.3077202919981
 20
1656.3465201503629
 30
0.0
 40
1.1000000000000001
 50
90.0
 51
180.0
  0
ARC
  5
14229
  8
HIDE
 10
2207.1077202919969
 20
1640.0465201503639
 30
0.0
 40
1.1000000000000001
 50
270.0
 51
0.0
  0
ARC
  5
1422A
  8
HIDE
 10
2207.1077202919969
 20
1602.8465201503629
 30
0.0
 40
1.1000000000000001
 50
0.0
 51
90.0
  0
ARC
  5
1422B
  8
HIDE
 10
2191.8077202919972
 20
1639.5465201503639
 30
0.0
 40
0.6000000000000015
 50
180.0
 51
270.0
  0
ARC
  5
1422C
  8
HIDE
 10
2191.8077202919972
 20
1603.3465201503641
 30
0.0
 40
0.6000000000000015
 50
90.0
 51
180.0
  0
ARC
  5
1422D
  8
HIDE
 10
2207.6077202919969
 20
1586.0465201503639
 30
0.0
 40
0.6000000000000015
 50
270.0
 51
0.0
  0
ARC
  5
1422E
  8
HIDE
 10
2192.3077202919981
 20
1586.5465201503639
 30
0.0
 40
1.1000000000000001
 50
180.0
 51
270.0
  0
LINE
  5
1422F
  8
HIDE
 10
2191.2077202919982
 20
1650.5965201503629
 30
0.0
 11
2194.703472096714
 21
1650.5965201503629
 31
0.0
  0
LINE
  5
14230
  8
HIDE
 10
2192.3077202919981
 20
1657.446520150364
 30
0.0
 11
2207.6077202919969
 21
1657.446520150364
 31
0.0
  0
LINE
  5
14231
  8
HIDE
 10
2208.2077202919991
 20
1645.7965201503639
 30
0.0
 11
2204.711968487281
 21
1645.7965201503639
 31
0.0
  0
LINE
  5
14232
  8
HIDE
 10
2201.6682133065369
 20
1653.3887226830029
 30
0.0
 11
2208.2077202919991
 21
1654.0465201503639
 31
0.0
  0
LINE
  5
14233
  8
HIDE
 10
2191.2077202919982
 20
1645.7965201503639
 30
0.0
 11
2194.703472096714
 21
1645.7965201503639
 31
0.0
  0
LINE
  5
14234
  8
HIDE
 10
2191.2077202919982
 20
1597.0965201503641
 30
0.0
 11
2194.703472096714
 21
1597.0965201503641
 31
0.0
  0
LINE
  5
14235
  8
HIDE
 10
2191.8077202919972
 20
1638.946520150364
 30
0.0
 11
2207.1077202919969
 21
1638.946520150364
 31
0.0
  0
LINE
  5
14236
  8
HIDE
 10
2191.8077202919972
 20
1603.946520150364
 30
0.0
 11
2207.1077202919969
 21
1603.946520150364
 31
0.0
  0
LINE
  5
14237
  8
HIDE
 10
2208.2077202919991
 20
1597.0965201503641
 30
0.0
 11
2204.711968487281
 21
1597.0965201503641
 31
0.0
  0
LINE
  5
14238
  8
HIDE
 10
2191.2077202919982
 20
1592.2965201503639
 30
0.0
 11
2194.703472096714
 21
1592.2965201503639
 31
0.0
  0
LINE
  5
14239
  8
HIDE
 10
2207.6077202919969
 20
1585.446520150364
 30
0.0
 11
2192.3077202919981
 21
1585.446520150364
 31
0.0
  0
LINE
  5
1423A
  8
HIDE
 10
2201.6682133065369
 20
1589.5043176177251
 30
0.0
 11
2208.2077202919991
 21
1588.8465201503641
 31
0.0
  0
LINE
  5
1423B
  8
HIDE
 10
2191.2077202919982
 20
1586.5465201503639
 30
0.0
 11
2191.2077202919982
 21
1656.3465201503629
 31
0.0
  0
LINE
  5
1423C
  8
HIDE
 10
2208.2077202919991
 20
1656.8465201503629
 30
0.0
 11
2208.2077202919991
 21
1586.0465201503639
 31
0.0
  0
ARC
  5
1423D
  8
HIDE
 10
2208.8077202919972
 20
1586.0465201503639
 30
0.0
 40
0.6000000000000015
 50
180.0
 51
270.0
  0
ARC
  5
1423E
  8
HIDE
 10
2224.1077202919978
 20
1586.5465201503639
 30
0.0
 40
1.1000000000000001
 50
270.0
 51
0.0
  0
ARC
  5
1423F
  8
HIDE
 10
2209.3077202919972
 20
1602.8465201503641
 30
0.0
 40
1.1000000000000001
 50
90.0
 51
180.0
  0
ARC
  5
14240
  8
HIDE
 10
2209.3077202919981
 20
1640.0465201503639
 30
0.0
 40
1.0999999999999981
 50
180.0
 51
270.0
  0
ARC
  5
14241
  8
HIDE
 10
2224.6077202919969
 20
1603.3465201503641
 30
0.0
 40
0.6
 50
0.0
 51
90.0
  0
ARC
  5
14242
  8
HIDE
 10
2224.6077202919969
 20
1639.5465201503639
 30
0.0
 40
0.6000000000000015
 50
270.0
 51
0.0
  0
ARC
  5
14243
  8
HIDE
 10
2208.8077202919981
 20
1656.8465201503641
 30
0.0
 40
0.6000000000000015
 50
90.0
 51
180.0
  0
ARC
  5
14244
  8
HIDE
 10
2224.1077202919978
 20
1656.3465201503629
 30
0.0
 40
1.1000000000000001
 50
0.0
 51
90.0
  0
LINE
  5
14245
  8
HIDE
 10
2225.2077202919991
 20
1592.2965201503639
 30
0.0
 11
2221.711968487281
 21
1592.2965201503639
 31
0.0
  0
LINE
  5
14246
  8
HIDE
 10
2224.1077202919978
 20
1585.446520150364
 30
0.0
 11
2208.8077202919972
 21
1585.446520150364
 31
0.0
  0
LINE
  5
14247
  8
HIDE
 10
2208.2077202919991
 20
1597.0965201503641
 30
0.0
 11
2211.703472096714
 21
1597.0965201503641
 31
0.0
  0
LINE
  5
14248
  8
HIDE
 10
2214.747227277458
 20
1589.5043176177251
 30
0.0
 11
2208.2077202919991
 21
1588.8465201503641
 31
0.0
  0
LINE
  5
14249
  8
HIDE
 10
2225.2077202919991
 20
1597.0965201503641
 30
0.0
 11
2221.711968487281
 21
1597.0965201503641
 31
0.0
  0
LINE
  5
1424A
  8
HIDE
 10
2225.2077202919991
 20
1645.7965201503639
 30
0.0
 11
2221.711968487281
 21
1645.7965201503639
 31
0.0
  0
LINE
  5
1424B
  8
HIDE
 10
2224.6077202919969
 20
1603.946520150364
 30
0.0
 11
2209.3077202919972
 21
1603.946520150364
 31
0.0
  0
LINE
  5
1424C
  8
HIDE
 10
2224.6077202919969
 20
1638.946520150364
 30
0.0
 11
2209.3077202919981
 21
1638.946520150364
 31
0.0
  0
LINE
  5
1424D
  8
HIDE
 10
2208.2077202919991
 20
1645.7965201503639
 30
0.0
 11
2211.703472096714
 21
1645.7965201503639
 31
0.0
  0
LINE
  5
1424E
  8
HIDE
 10
2225.2077202919991
 20
1650.5965201503629
 30
0.0
 11
2221.711968487281
 21
1650.5965201503629
 31
0.0
  0
LINE
  5
1424F
  8
HIDE
 10
2208.8077202919981
 20
1657.446520150364
 30
0.0
 11
2224.1077202919978
 21
1657.446520150364
 31
0.0
  0
LINE
  5
14250
  8
HIDE
 10
2214.747227277458
 20
1653.3887226830029
 30
0.0
 11
2208.2077202919991
 21
1654.0465201503639
 31
0.0
  0
LINE
  5
14251
  8
HIDE
 10
2225.2077202919991
 20
1656.3465201503629
 30
0.0
 11
2225.2077202919991
 21
1586.5465201503639
 31
0.0
  0
LINE
  5
14284
  8
HIDE
 10
2179.2077202919991
 20
1640.696520150364
 30
0.0
 11
2179.2077202919991
 21
1602.196520150364
 31
0.0
  0
LINE
  5
143E6
  8
HIDE
 10
2179.2077202919991
 20
1641.446520150364
 30
0.0
 11
2191.2077202919982
 21
1641.446520150364
 31
0.0
  0
LINE
  5
143E9
  8
HIDE
 10
2179.2077202919991
 20
1601.446520150364
 30
0.0
 11
2191.2077202919982
 21
1601.446520150364
 31
0.0
  0
LINE
  5
143EA
  8
HIDE
 10
2225.2077202919991
 20
1641.446520150364
 30
0.0
 11
2237.2077202919991
 21
1641.446520150364
 31
0.0
  0
LINE
  5
143EB
  8
HIDE
 10
2225.2077202919991
 20
1601.446520150364
 30
0.0
 11
2237.2077202919991
 21
1601.446520150364
 31
0.0
  0
ENDSEC
  0
EOF
