  0
SECTION
  2
HEADER
  9
$ACADVER
  1
AC1009
  9
$INSBASE
 10
0.0
 20
0.0
 30
0.0
  9
$EXTMIN
 10
1982.9551973348839
 20
1489.601325843689
 30
0.0
  9
$EXTMAX
 10
2271.7657720413831
 20
1732.229000335605
 30
0.0
  9
$LIMMIN
 10
0.0
 20
0.0
  9
$LIMMAX
 10
12.0
 20
9.0
  9
$ORTHOMODE
 70
     1
  9
$REGENMODE
 70
     1
  9
$FILLMODE
 70
     1
  9
$QTEXTMODE
 70
     0
  9
$MIRRTEXT
 70
     0
  9
$DRAGMODE
 70
     2
  9
$LTSCALE
 40
5.0
  9
$OSMODE
 70
  2239
  9
$ATTMODE
 70
     1
  9
$TEXTSIZE
 40
2.5
  9
$TRACEWID
 40
0.05
  9
$TEXTSTYLE
  7
BIG
  9
$CLAYER
  8
0
  9
$CELTYPE
  6
BYLAYER
  9
$CECOLOR
 62
   256
  9
$DIMSCALE
 40
1.0
  9
$DIMASZ
 40
3.0
  9
$DIMEXO
 40
1.0
  9
$DIMDLI
 40
0.0
  9
$DIMRND
 40
0.0
  9
$DIMDLE
 40
0.0
  9
$DIMEXE
 40
1.0
  9
$DIMTP
 40
0.0
  9
$DIMTM
 40
0.0
  9
$DIMTXT
 40
3.0
  9
$DIMCEN
 40
0.0
  9
$DIMTSZ
 40
0.0
  9
$DIMTOL
 70
     0
  9
$DIMLIM
 70
     0
  9
$DIMTIH
 70
     0
  9
$DIMTOH
 70
     0
  9
$DIMSE1
 70
     0
  9
$DIMSE2
 70
     0
  9
$DIMTAD
 70
     1
  9
$DIMZIN
 70
     8
  9
$DIMBLK
  1

  9
$DIMASO
 70
     1
  9
$DIMSHO
 70
     1
  9
$DIMPOST
  1

  9
$DIMAPOST
  1

  9
$DIMALT
 70
     0
  9
$DIMALTD
 70
     2
  9
$DIMALTF
 40
25.399999999999999
  9
$DIMLFAC
 40
1.0
  9
$DIMTOFL
 70
     1
  9
$DIMTVP
 40
0.0
  9
$DIMTIX
 70
     1
  9
$DIMSOXD
 70
     0
  9
$DIMSAH
 70
     0
  9
$DIMBLK1
  1

  9
$DIMBLK2
  1

  9
$DIMSTYLE
  2
DUKITEC
  9
$DIMCLRD
 70
     5
  9
$DIMCLRE
 70
     5
  9
$DIMCLRT
 70
     0
  9
$DIMTFAC
 40
1.0
  9
$DIMGAP
 40
1.0
  9
$LUNITS
 70
     2
  9
$LUPREC
 70
     4
  9
$SKETCHINC
 40
0.1
  9
$FILLETRAD
 40
0.2
  9
$AUNITS
 70
     0
  9
$AUPREC
 70
     0
  9
$MENU
  1
.
  9
$ELEVATION
 40
0.0
  9
$PELEVATION
 40
0.0
  9
$THICKNESS
 40
0.0
  9
$LIMCHECK
 70
     0
  9
$BLIPMODE
 70
     0
  9
$CHAMFERA
 40
0.5
  9
$CHAMFERB
 40
0.5
  9
$SKPOLY
 70
     0
  9
$TDCREATE
 40
2454396.7544033919
  9
$TDUPDATE
 40
2456631.447782327
  9
$TDINDWG
 40
0.0188981597
  9
$TDUSRTIMER
 40
0.0188981019
  9
$USRTIMER
 70
     1
  9
$ANGBASE
 50
0.0
  9
$ANGDIR
 70
     0
  9
$PDMODE
 70
     0
  9
$PDSIZE
 40
0.0
  9
$PLINEWID
 40
0.0
  9
$COORDS
 70
     1
  9
$SPLFRAME
 70
     0
  9
$SPLINETYPE
 70
     6
  9
$SPLINESEGS
 70
     8
  9
$ATTDIA
 70
     0
  9
$ATTREQ
 70
     1
  9
$HANDLING
 70
     1
  9
$HANDSEED
  5
14577
  9
$SURFTAB1
 70
     6
  9
$SURFTAB2
 70
     6
  9
$SURFTYPE
 70
     6
  9
$SURFU
 70
     6
  9
$SURFV
 70
     6
  9
$UCSNAME
  2

  9
$UCSORG
 10
0.0
 20
0.0
 30
0.0
  9
$UCSXDIR
 10
1.0
 20
0.0
 30
0.0
  9
$UCSYDIR
 10
0.0
 20
1.0
 30
0.0
  9
$PUCSNAME
  2

  9
$PUCSORG
 10
0.0
 20
0.0
 30
0.0
  9
$PUCSXDIR
 10
1.0
 20
0.0
 30
0.0
  9
$PUCSYDIR
 10
0.0
 20
1.0
 30
0.0
  9
$USERI1
 70
     0
  9
$USERI2
 70
     0
  9
$USERI3
 70
     0
  9
$USERI4
 70
     0
  9
$USERI5
 70
     0
  9
$USERR1
 40
0.0
  9
$USERR2
 40
0.0
  9
$USERR3
 40
0.0
  9
$USERR4
 40
0.0
  9
$USERR5
 40
0.0
  9
$WORLDVIEW
 70
     1
  9
$SHADEDGE
 70
     3
  9
$SHADEDIF
 70
    70
  9
$TILEMODE
 70
     1
  9
$MAXACTVP
 70
    64
  9
$PLIMCHECK
 70
     0
  9
$PEXTMIN
 10
0.0
 20
0.0
 30
0.0
  9
$PEXTMAX
 10
0.0
 20
0.0
 30
0.0
  9
$PLIMMIN
 10
0.0
 20
0.0
  9
$PLIMMAX
 10
12.0
 20
9.0
  9
$UNITMODE
 70
     0
  9
$VISRETAIN
 70
     1
  9
$PLINEGEN
 70
     0
  9
$PSLTSCALE
 70
     1
  0
ENDSEC
  0
SECTION
  2
TABLES
  0
TABLE
  2
VPORT
 70
     1
  0
VPORT
  2
*ACTIVE
 70
     0
 10
0.0
 20
0.0
 11
1.0
 21
1.0
 12
2139.378842918828
 22
1625.5091041350249
 13
0.0
 23
0.0
 14
0.5
 24
0.5
 15
0.5
 25
0.5
 16
0.0
 26
0.0
 36
1.0
 17
0.0
 27
0.0
 37
0.0
 40
321.03024030171218
 41
2.1408934707903771
 42
50.0
 43
0.0
 44
0.0
 50
0.0
 51
0.0
 71
     0
 72
  2000
 73
     1
 74
     3
 75
     0
 76
     0
 77
     0
 78
     0
  0
ENDTAB
  0
TABLE
  2
LTYPE
 70
     4
  0
LTYPE
  2
CONTINUOUS
 70
     0
  3
Solid line
 72
    65
 73
     0
 40
0.0
  0
LTYPE
  2
PHANTOM2
 70
     0
  3
Phantom (.5x) ___ _ _ ___ _ _ ___ _ _ ___ _ _
 72
    65
 73
     6
 40
1.25
 49
0.625
 49
-0.125
 49
0.125
 49
-0.125
 49
0.125
 49
-0.125
  0
LTYPE
  2
CENTER
 70
     0
  3
___ _ ___ _ ___ _ ___ _ ___ _ ___ _ ___ _ ___ _
 72
    65
 73
     4
 40
0.95
 49
0.625
 49
-0.125
 49
0.075
 49
-0.125
  0
LTYPE
  2
DASHED2
 70
     0
  3
Dashed (.5x) _ _ _ _ _ _ _ _ _ _ _ _ _ _ _ _ _
 72
    65
 73
     2
 40
0.375
 49
0.25
 49
-0.125
  0
ENDTAB
  0
TABLE
  2
LAYER
 70
     4
  0
LAYER
  2
0
 70
     0
 62
     7
  6
CONTINUOUS
  0
LAYER
  2
HIDE
 70
     0
 62
     1
  6
DASHED2
  0
LAYER
  2
CENTER
 70
     0
 62
     3
  6
CENTER
  0
ENDTAB
  0
TABLE
  2
STYLE
 70
     3
  0
STYLE
  2
STANDARD
 70
     0
 40
5.0
 41
1.0
 50
0.0
 71
     0
 42
5.0
  3
txt.shx
  4
whgtxt.shx
  0
STYLE
  2
BIG
 70
     0
 40
20.0
 41
1.0
 50
0.0
 71
     0
 42
2.5
  3
txt
  4

  0
ENDTAB
  0
TABLE
  2
VIEW
 70
     0
  0
ENDTAB
  0
TABLE
  2
UCS
 70
     0
  0
ENDTAB
  0
TABLE
  2
APPID
 70
    10
  0
APPID
  2
ACAD
 70
     0
  0
APPID
  2
ACADANNOTATIVE
 70
     0
  0
APPID
  2
ACAD_EXEMPT_FROM_CAD_STANDARDS
 70
     0
  0
APPID
  2
ACAD_DSTYLE_DIMJOGGED_JOGA
 70
     0
  0
APPID
  2
ACAD_PSEXT
 70
     0
  0
APPID
  2
ACAECLAYERSTANDARD
 70
     0
  0
APPID
  2
DCO15
 70
     0
  0
APPID
  2
CONTENTBLOCKICON
 70
     0
  0
APPID
  2
ACAD_NAV_VCDISPLAY
 70
     0
  0
APPID
  2
ACAD_MLEADERVER
 70
     0
  0
ENDTAB
  0
TABLE
  2
DIMSTYLE
 70
     3
  0
DIMSTYLE
  2
DUKITEC
 70
     0
  3

  4

  5

  6

  7

 40
1.0
 41
3.0
 42
1.0
 43
0.0
 44
1.0
 45
0.0
 46
0.0
 47
0.0
 48
0.0
140
3.0
141
0.0
142
0.0
143
25.399999999999999
144
1.0
145
0.0
146
1.0
147
1.0
 71
     0
 72
     0
 73
     0
 74
     0
 75
     0
 76
     0
 77
     1
 78
     8
170
     0
171
     2
172
     1
173
     0
174
     1
175
     0
176
     5
177
     5
178
     0
  0
ENDTAB
  0
ENDSEC
  0
SECTION
  2
BLOCKS
  0
BLOCK
  8
0
  2
$MODEL_SPACE
 70
     0
 10
0.0
 20
0.0
 30
0.0
  3
$MODEL_SPACE
  1

  0
ENDBLK
  5
143AA
  8
0
  0
BLOCK
 67
     1
  8
0
  2
$PAPER_SPACE
 70
     0
 10
0.0
 20
0.0
 30
0.0
  3
$PAPER_SPACE
  1

  0
ENDBLK
  5
143A6
 67
     1
  8
0
  0
ENDSEC
  0
SECTION
  2
ENTITIES
  0
TEXT
  5
14064
  8
0
 10
2066.3308851213878
 20
1489.601325843689
 30
0.0
 40
20.0
  1
FK 35DFT
  7
BIG
  0
ARC
  5
14170
  8
HIDE
 10
2047.510703334885
 20
1651.3082173356049
 30
0.0
 40
17.5
 50
270.0
 51
180.0
  0
LINE
  5
14171
  8
0
 10
2053.4623334649968
 20
1621.904508406383
 30
0.0
 11
2076.9144122641101
 21
1645.3565872055019
 31
0.0
  0
LINE
  5
14172
  8
0
 10
2018.1069944056601
 20
1657.2598474657041
 30
0.0
 11
2041.559073204766
 21
1680.7119262648239
 31
0.0
  0
LINE
  5
14173
  8
0
 10
2041.5590732047949
 20
1621.90450840638
 30
0.0
 11
2018.1069944056601
 21
1645.356587205524
 31
0.0
  0
LINE
  5
14174
  8
0
 10
2076.9144122641028
 20
1657.2598474657241
 30
0.0
 11
2053.4623334650109
 21
1680.711926264823
 31
0.0
  0
CIRCLE
  5
14175
  8
0
 10
2047.510703334885
 20
1651.3082173356049
 30
0.0
 40
16.75
  0
ARC
  5
14176
  8
0
 10
2047.510703334885
 20
1651.3082173356049
 30
0.0
 40
30.0
 50
348.5573097618821
 51
11.44269023811788
  0
ARC
  5
14177
  8
0
 10
2047.510703334885
 20
1651.3082173356049
 30
0.0
 40
30.0
 50
78.55730976169491
 51
101.4426902383051
  0
ARC
  5
14178
  8
0
 10
2047.510703334885
 20
1651.3082173356049
 30
0.0
 40
30.0
 50
168.5573097618821
 51
191.4426902380101
  0
ARC
  5
14179
  8
0
 10
2047.510703334885
 20
1651.3082173356049
 30
0.0
 40
30.0
 50
258.5573097621201
 51
281.44269023787979
  0
CIRCLE
  5
1417A
  8
HIDE
 10
2047.510703334885
 20
1651.308217335607
 30
0.0
 40
23.0
  0
LINE
  5
1417B
  8
HIDE
 10
2043.5107033348779
 20
1681.0403548302399
 30
0.0
 11
2043.51070333487
 21
1667.5735946752141
 31
0.0
  0
LINE
  5
1417C
  8
HIDE
 10
2051.5107033348781
 20
1681.0403548302429
 30
0.0
 11
2051.5107033348781
 21
1667.5735946752211
 31
0.0
  0
LINE
  5
1417D
  8
HIDE
 10
2044.1107033348831
 20
1681.1149279894159
 30
0.0
 11
2044.1107033348831
 21
1667.7095130161299
 31
0.0
  0
LINE
  5
1417E
  8
HIDE
 10
2050.9107033348728
 20
1681.1149279894171
 30
0.0
 11
2050.9107033348869
 21
1667.7095130161299
 31
0.0
  0
LINE
  5
1417F
  8
HIDE
 10
2044.1107033348831
 20
1671.3082173356049
 30
0.0
 11
2050.9107033348869
 21
1671.3082173356049
 31
0.0
  0
LINE
  5
14180
  8
HIDE
 10
2044.1107033348831
 20
1671.3082173356049
 30
0.0
 11
2043.5107033348779
 21
1672.347447820142
 31
0.0
  0
LINE
  5
14181
  8
HIDE
 10
2050.9107033348869
 20
1671.3082173356049
 30
0.0
 11
2051.5107033348781
 21
1672.347447820142
 31
0.0
  0
LINE
  5
14182
  8
HIDE
 10
2043.5107033348779
 20
1672.347447820142
 30
0.0
 11
2051.5107033348781
 21
1672.347447820142
 31
0.0
  0
LINE
  5
14183
  8
HIDE
 10
2043.5107033348779
 20
1680.347447820142
 30
0.0
 11
2051.5107033348781
 21
1680.347447820142
 31
0.0
  0
LINE
  5
14184
  8
HIDE
 10
2043.5107033348629
 20
1621.576079840979
 30
0.0
 11
2043.5107033348629
 21
1635.0428399960049
 31
0.0
  0
LINE
  5
14185
  8
HIDE
 10
2051.5107033348631
 20
1621.5760798409719
 30
0.0
 11
2051.5107033348709
 21
1635.042839995994
 31
0.0
  0
LINE
  5
14186
  8
HIDE
 10
2044.110703334869
 20
1621.501506681803
 30
0.0
 11
2044.110703334876
 21
1634.906921655089
 31
0.0
  0
LINE
  5
14187
  8
HIDE
 10
2050.9107033348569
 20
1621.5015066817971
 30
0.0
 11
2050.9107033348791
 21
1634.9069216550849
 31
0.0
  0
LINE
  5
14188
  8
HIDE
 10
2044.110703334869
 20
1631.308217335614
 30
0.0
 11
2050.9107033348728
 21
1631.3082173356099
 31
0.0
  0
LINE
  5
14189
  8
HIDE
 10
2044.110703334869
 20
1631.308217335614
 30
0.0
 11
2043.5107033348629
 21
1630.268986851077
 31
0.0
  0
LINE
  5
1418A
  8
HIDE
 10
2050.9107033348728
 20
1631.3082173356099
 30
0.0
 11
2051.5107033348631
 21
1630.268986851072
 31
0.0
  0
LINE
  5
1418B
  8
HIDE
 10
2043.5107033348629
 20
1630.268986851077
 30
0.0
 11
2051.5107033348631
 21
1630.268986851072
 31
0.0
  0
LINE
  5
1418C
  8
HIDE
 10
2043.5107033348629
 20
1622.2689868510761
 30
0.0
 11
2051.5107033348631
 21
1622.2689868510729
 31
0.0
  0
LINE
  5
1418F
  8
0
 10
2154.5073919853771
 20
1621.3082173355981
 30
0.0
 11
2154.5073919853771
 21
1681.308217335599
 31
0.0
  0
LINE
  5
14190
  8
HIDE
 10
2175.5073919853771
 20
1628.308217335609
 30
0.0
 11
2175.5073919853771
 21
1674.3082173355999
 31
0.0
  0
LINE
  5
14191
  8
HIDE
 10
2175.0073919853771
 20
1621.3082173355981
 30
0.0
 11
2175.0073919853771
 21
1681.308217335599
 31
0.0
  0
LINE
  5
14192
  8
0
 10
2154.5073919853771
 20
1681.308217335599
 30
0.0
 11
2169.507361985377
 21
1681.308217335599
 31
0.0
  0
LINE
  5
14193
  8
0
 10
2154.5073919853771
 20
1621.3082173355981
 30
0.0
 11
2169.507361985377
 21
1621.3082173355981
 31
0.0
  0
LINE
  5
14194
  8
HIDE
 10
2175.0073919853689
 20
1674.8082173356111
 30
0.0
 11
2175.5073919853689
 21
1674.308217335599
 31
0.0
  0
LINE
  5
14195
  8
HIDE
 10
2175.0073919853689
 20
1627.8082173355861
 30
0.0
 11
2175.5073919853689
 21
1628.3082173355981
 31
0.0
  0
LINE
  5
14196
  8
HIDE
 10
2175.5073919853689
 20
1668.8082173355981
 30
0.0
 11
2154.5073919853771
 21
1668.8082173355981
 31
0.0
  0
LINE
  5
14197
  8
HIDE
 10
2175.5073919853689
 20
1668.058217335597
 30
0.0
 11
2154.5073919853771
 21
1668.0582173355981
 31
0.0
  0
LINE
  5
14198
  8
HIDE
 10
2175.5073919853689
 20
1633.8082173355981
 30
0.0
 11
2154.5073919853771
 21
1633.8082173355981
 31
0.0
  0
LINE
  5
14199
  8
HIDE
 10
2175.5073919853689
 20
1634.5582173355999
 30
0.0
 11
2154.5073919853771
 21
1634.5582173355981
 31
0.0
  0
LINE
  5
1419A
  8
CENTER
 10
2161.5073919853771
 20
1683.760563715583
 30
0.0
 11
2161.5073919853771
 21
1666.1591642082969
 31
0.0
  0
LINE
  5
1419B
  8
HIDE
 10
2165.5073919853839
 20
1681.308217335599
 30
0.0
 11
2165.5073919853912
 21
1668.0582173355981
 31
0.0
  0
LINE
  5
1419C
  8
HIDE
 10
2157.5073919853839
 20
1681.308217335599
 30
0.0
 11
2157.5073919853839
 21
1668.0582173355981
 31
0.0
  0
LINE
  5
1419D
  8
HIDE
 10
2164.9073919853781
 20
1681.308217335599
 30
0.0
 11
2164.9073919853781
 21
1668.058217335597
 31
0.0
  0
LINE
  5
1419E
  8
HIDE
 10
2158.1073919853911
 20
1681.308217335599
 30
0.0
 11
2158.1073919853752
 21
1668.0582173355981
 31
0.0
  0
LINE
  5
1419F
  8
HIDE
 10
2164.9073919853781
 20
1671.3082173355981
 30
0.0
 11
2158.1073919853752
 21
1671.3082173355981
 31
0.0
  0
LINE
  5
141A0
  8
HIDE
 10
2164.9073919853781
 20
1671.3082173355981
 30
0.0
 11
2165.5073919853839
 21
1672.347447820136
 31
0.0
  0
LINE
  5
141A1
  8
HIDE
 10
2158.1073919853752
 20
1671.3082173355981
 30
0.0
 11
2157.5073919853839
 21
1672.347447820136
 31
0.0
  0
LINE
  5
141A2
  8
HIDE
 10
2165.5073919853839
 20
1672.347447820136
 30
0.0
 11
2157.5073919853839
 21
1672.347447820136
 31
0.0
  0
LINE
  5
141A3
  8
HIDE
 10
2165.5073919853839
 20
1680.347447820136
 30
0.0
 11
2157.5073919853839
 21
1680.347447820136
 31
0.0
  0
LINE
  5
141A4
  8
CENTER
 10
2161.5073919853771
 20
1618.855870955613
 30
0.0
 11
2161.5073919853771
 21
1636.4572704628999
 31
0.0
  0
LINE
  5
141A5
  8
HIDE
 10
2165.5073919853839
 20
1621.3082173355981
 30
0.0
 11
2165.5073919853912
 21
1634.5582173355981
 31
0.0
  0
LINE
  5
141A6
  8
HIDE
 10
2157.5073919853839
 20
1621.3082173355981
 30
0.0
 11
2157.5073919853839
 21
1634.5582173355981
 31
0.0
  0
LINE
  5
141A7
  8
HIDE
 10
2164.9073919853781
 20
1621.3082173355981
 30
0.0
 11
2164.9073919853781
 21
1634.5582173355999
 31
0.0
  0
LINE
  5
141A8
  8
HIDE
 10
2158.1073919853911
 20
1621.3082173355981
 30
0.0
 11
2158.1073919853752
 21
1634.5582173355981
 31
0.0
  0
LINE
  5
141A9
  8
HIDE
 10
2164.9073919853781
 20
1631.308217335599
 30
0.0
 11
2158.1073919853752
 21
1631.308217335599
 31
0.0
  0
LINE
  5
141AA
  8
HIDE
 10
2164.9073919853781
 20
1631.308217335599
 30
0.0
 11
2165.5073919853839
 21
1630.2689868510611
 31
0.0
  0
LINE
  5
141AB
  8
HIDE
 10
2158.1073919853752
 20
1631.308217335599
 30
0.0
 11
2157.5073919853839
 21
1630.2689868510611
 31
0.0
  0
LINE
  5
141AC
  8
HIDE
 10
2165.5073919853839
 20
1630.2689868510611
 30
0.0
 11
2157.5073919853839
 21
1630.2689868510611
 31
0.0
  0
LINE
  5
141AD
  8
HIDE
 10
2165.5073919853839
 20
1622.2689868510611
 30
0.0
 11
2157.5073919853839
 21
1622.2689868510611
 31
0.0
  0
LINE
  5
141AF
  8
HIDE
 10
2175.0073919853771
 20
1621.3082173355981
 30
0.0
 11
2169.507361985377
 21
1621.3082173355981
 31
0.0
  0
LINE
  5
141B0
  8
HIDE
 10
2169.507361985377
 20
1681.308217335599
 30
0.0
 11
2175.0073919853771
 21
1681.308217335599
 31
0.0
  0
LINE
  5
141B1
  8
CENTER
 10
2178.5932725985081
 20
1587.55711289748
 30
0.0
 11
2206.2435979761049
 21
1587.55711289748
 31
0.0
  0
LINE
  5
141B2
  8
HIDE
 10
2183.5073919853771
 20
1578.8071123356051
 30
0.0
 11
2194.5073919853771
 21
1578.8071123356051
 31
0.0
  0
LINE
  5
141B3
  8
HIDE
 10
2194.5073919853771
 20
1582.0571123356051
 30
0.0
 11
2201.5073919853762
 21
1582.0571123356051
 31
0.0
  0
LINE
  5
141B4
  8
HIDE
 10
2194.5073919853771
 20
1593.0571123356051
 30
0.0
 11
2201.5073919853762
 21
1593.0571123356051
 31
0.0
  0
LINE
  5
141B5
  8
HIDE
 10
2183.5073919853771
 20
1596.3071123356051
 30
0.0
 11
2194.5073919853771
 21
1596.3071123356051
 31
0.0
  0
LINE
  5
141B6
  8
HIDE
 10
2194.5073919853771
 20
1578.8071123356051
 30
0.0
 11
2194.5073919853771
 21
1596.3071123356051
 31
0.0
  0
LINE
  5
141B7
  8
HIDE
 10
2194.5073919853771
 20
1723.809322335605
 30
0.0
 11
2194.5073919853771
 21
1706.309322335605
 31
0.0
  0
LINE
  5
141B8
  8
HIDE
 10
2183.5073919853771
 20
1706.309322335605
 30
0.0
 11
2194.5073919853771
 21
1706.309322335605
 31
0.0
  0
LINE
  5
141B9
  8
HIDE
 10
2194.5073919853771
 20
1709.559322335605
 30
0.0
 11
2201.5073919853762
 21
1709.559322335605
 31
0.0
  0
LINE
  5
141BA
  8
HIDE
 10
2194.5073919853771
 20
1720.559322335605
 30
0.0
 11
2201.5073919853762
 21
1720.559322335605
 31
0.0
  0
LINE
  5
141BB
  8
HIDE
 10
2183.5073919853771
 20
1723.809322335605
 30
0.0
 11
2194.5073919853771
 21
1723.809322335605
 31
0.0
  0
LINE
  5
141BC
  8
CENTER
 10
2178.5932725985081
 20
1715.0593217737289
 30
0.0
 11
2206.2435979761049
 21
1715.0593217737289
 31
0.0
  0
LINE
  5
141BD
  8
0
 10
2169.5073919853762
 20
1595.3082173356049
 30
0.0
 11
2183.5073919853771
 21
1595.3082173356049
 31
0.0
  0
LINE
  5
141BE
  8
0
 10
2201.5073919853762
 20
1574.3082173356049
 30
0.0
 11
2183.5073919853771
 21
1574.3082173356049
 31
0.0
  0
LINE
  5
141BF
  8
0
 10
2183.5073919853771
 20
1728.3082173356049
 30
0.0
 11
2201.5073919853762
 21
1728.3082173356049
 31
0.0
  0
LINE
  5
141C0
  8
0
 10
2169.5073919853762
 20
1707.3082173356049
 30
0.0
 11
2183.5073919853771
 21
1707.3082173356049
 31
0.0
  0
LINE
  5
141C1
  8
0
 10
2267.5073919853771
 20
1701.3082173356049
 30
0.0
 11
2201.5073919853762
 21
1701.3082173356049
 31
0.0
  0
LINE
  5
141C2
  8
0
 10
2267.5073919853771
 20
1601.3082173356049
 30
0.0
 11
2201.5073919853762
 21
1601.3082173356049
 31
0.0
  0
LINE
  5
141C3
  8
0
 10
2267.5073919853771
 20
1701.3082173356049
 30
0.0
 11
2267.5073919853771
 21
1601.3082173356049
 31
0.0
  0
LINE
  5
141C4
  8
0
 10
2201.5073919853762
 20
1728.3082173356049
 30
0.0
 11
2201.5073919853762
 21
1701.3082173356049
 31
0.0
  0
LINE
  5
141C5
  8
0
 10
2183.5073919853771
 20
1728.3082173356049
 30
0.0
 11
2183.5073919853771
 21
1574.3082173356049
 31
0.0
  0
LINE
  5
141C6
  8
0
 10
2169.5073919853762
 20
1707.3082173356049
 30
0.0
 11
2169.507391985378
 21
1595.3082173356049
 31
0.0
  0
LINE
  5
141C7
  8
CENTER
 10
2152.340518455911
 20
1651.3082173356049
 30
0.0
 11
2271.7657720413831
 21
1651.3082173356049
 31
0.0
  0
CIRCLE
  5
141C8
  8
HIDE
 10
2230.0073919853771
 20
1624.5582173356049
 30
0.0
 40
5.549999999999998
  0
CIRCLE
  5
141C9
  8
HIDE
 10
2230.0073919853771
 20
1678.0582173356049
 30
0.0
 40
5.549999999999998
  0
LINE
  5
141CA
  8
HIDE
 10
2221.5073919853771
 20
1686.7082173356041
 30
0.0
 11
2221.5073919853771
 21
1615.9082173356051
 31
0.0
  0
ARC
  5
141CB
  8
HIDE
 10
2222.1073919853752
 20
1615.9082173356051
 30
0.0
 40
0.6000000000000015
 50
180.0
 51
270.0
  0
ARC
  5
141CC
  8
HIDE
 10
2237.4073919853759
 20
1616.4082173356051
 30
0.0
 40
1.1000000000000001
 50
270.0
 51
0.0
  0
ARC
  5
141CD
  8
HIDE
 10
2222.6073919853752
 20
1632.7082173356041
 30
0.0
 40
1.1000000000000001
 50
90.0
 51
180.0
  0
ARC
  5
141CE
  8
HIDE
 10
2222.607391985377
 20
1669.9082173356051
 30
0.0
 40
1.0999999999999981
 50
180.0
 51
270.0
  0
ARC
  5
141CF
  8
HIDE
 10
2237.9073919853759
 20
1633.2082173356041
 30
0.0
 40
0.6
 50
0.0
 51
90.0
  0
ARC
  5
141D0
  8
HIDE
 10
2237.9073919853759
 20
1669.4082173356051
 30
0.0
 40
0.6000000000000015
 50
270.0
 51
0.0
  0
ARC
  5
141D1
  8
HIDE
 10
2222.107391985377
 20
1686.7082173356059
 30
0.0
 40
0.6000000000000015
 50
90.0
 51
180.0
  0
ARC
  5
141D2
  8
HIDE
 10
2237.4073919853759
 20
1686.208217335605
 30
0.0
 40
1.1000000000000001
 50
0.0
 51
90.0
  0
LINE
  5
141D3
  8
HIDE
 10
2238.5073919853771
 20
1622.1582173356051
 30
0.0
 11
2235.0116401806608
 21
1622.1582173356051
 31
0.0
  0
LINE
  5
141D4
  8
HIDE
 10
2237.4073919853759
 20
1615.3082173356049
 30
0.0
 11
2222.1073919853752
 21
1615.3082173356049
 31
0.0
  0
LINE
  5
141D5
  8
HIDE
 10
2221.5073919853771
 20
1626.958217335605
 30
0.0
 11
2225.003143790093
 21
1626.958217335605
 31
0.0
  0
LINE
  5
141D6
  8
HIDE
 10
2228.046898970837
 20
1619.366014802966
 30
0.0
 11
2221.5073919853771
 21
1618.708217335605
 31
0.0
  0
LINE
  5
141D7
  8
HIDE
 10
2238.5073919853771
 20
1626.9582173356041
 30
0.0
 11
2235.0116401806608
 21
1626.9582173356041
 31
0.0
  0
LINE
  5
141D8
  8
HIDE
 10
2238.5073919853771
 20
1675.6582173356051
 30
0.0
 11
2235.0116401806608
 21
1675.6582173356051
 31
0.0
  0
LINE
  5
141D9
  8
HIDE
 10
2237.9073919853759
 20
1633.8082173356049
 30
0.0
 11
2222.6073919853752
 21
1633.8082173356049
 31
0.0
  0
LINE
  5
141DA
  8
HIDE
 10
2237.9073919853759
 20
1668.8082173356049
 30
0.0
 11
2222.607391985377
 21
1668.8082173356049
 31
0.0
  0
LINE
  5
141DB
  8
HIDE
 10
2221.5073919853771
 20
1675.6582173356051
 30
0.0
 11
2225.003143790093
 21
1675.6582173356051
 31
0.0
  0
LINE
  5
141DC
  8
HIDE
 10
2238.5073919853771
 20
1680.4582173356041
 30
0.0
 11
2235.0116401806608
 21
1680.4582173356041
 31
0.0
  0
LINE
  5
141DD
  8
HIDE
 10
2222.107391985377
 20
1687.3082173356049
 30
0.0
 11
2237.4073919853781
 21
1687.3082173356049
 31
0.0
  0
LINE
  5
141DE
  8
HIDE
 10
2228.046898970837
 20
1683.2504198682441
 30
0.0
 11
2221.5073919853771
 21
1683.9082173356051
 31
0.0
  0
LINE
  5
141DF
  8
HIDE
 10
2238.5073919853771
 20
1686.208217335605
 30
0.0
 11
2238.5073919853771
 21
1616.4082173356051
 31
0.0
  0
CIRCLE
  5
141E0
  8
HIDE
 10
2247.0073919853771
 20
1624.5582173356049
 30
0.0
 40
5.549999999999998
  0
CIRCLE
  5
141E1
  8
HIDE
 10
2247.0073919853771
 20
1678.0582173356049
 30
0.0
 40
5.549999999999998
  0
LINE
  5
141E2
  8
HIDE
 10
2238.5073919853771
 20
1686.7082173356041
 30
0.0
 11
2238.5073919853771
 21
1615.9082173356051
 31
0.0
  0
ARC
  5
141E3
  8
HIDE
 10
2239.1073919853752
 20
1615.9082173356051
 30
0.0
 40
0.6000000000000015
 50
180.0
 51
270.0
  0
ARC
  5
141E4
  8
HIDE
 10
2254.4073919853759
 20
1616.4082173356051
 30
0.0
 40
1.1000000000000001
 50
270.0
 51
0.0
  0
ARC
  5
141E5
  8
HIDE
 10
2239.6073919853752
 20
1632.7082173356041
 30
0.0
 40
1.1000000000000001
 50
90.0
 51
180.0
  0
ARC
  5
141E6
  8
HIDE
 10
2239.607391985377
 20
1669.9082173356051
 30
0.0
 40
1.0999999999999981
 50
180.0
 51
270.0
  0
ARC
  5
141E7
  8
HIDE
 10
2254.9073919853759
 20
1633.2082173356041
 30
0.0
 40
0.6
 50
0.0
 51
90.0
  0
ARC
  5
141E8
  8
HIDE
 10
2254.9073919853759
 20
1669.4082173356051
 30
0.0
 40
0.6000000000000015
 50
270.0
 51
0.0
  0
ARC
  5
141E9
  8
HIDE
 10
2239.107391985377
 20
1686.7082173356059
 30
0.0
 40
0.6000000000000015
 50
90.0
 51
180.0
  0
ARC
  5
141EA
  8
HIDE
 10
2254.4073919853759
 20
1686.208217335605
 30
0.0
 40
1.1000000000000001
 50
0.0
 51
90.0
  0
LINE
  5
141EB
  8
HIDE
 10
2255.5073919853771
 20
1622.1582173356051
 30
0.0
 11
2252.0116401806608
 21
1622.1582173356051
 31
0.0
  0
LINE
  5
141EC
  8
HIDE
 10
2254.4073919853759
 20
1615.3082173356049
 30
0.0
 11
2239.1073919853752
 21
1615.3082173356049
 31
0.0
  0
LINE
  5
141ED
  8
HIDE
 10
2238.5073919853771
 20
1626.958217335605
 30
0.0
 11
2242.003143790093
 21
1626.958217335605
 31
0.0
  0
LINE
  5
141EE
  8
HIDE
 10
2245.046898970837
 20
1619.366014802966
 30
0.0
 11
2238.5073919853771
 21
1618.708217335605
 31
0.0
  0
LINE
  5
141EF
  8
HIDE
 10
2255.5073919853771
 20
1626.9582173356041
 30
0.0
 11
2252.0116401806608
 21
1626.9582173356041
 31
0.0
  0
LINE
  5
141F0
  8
HIDE
 10
2255.5073919853771
 20
1675.6582173356051
 30
0.0
 11
2252.0116401806608
 21
1675.6582173356051
 31
0.0
  0
LINE
  5
141F1
  8
HIDE
 10
2254.9073919853759
 20
1633.8082173356049
 30
0.0
 11
2239.6073919853752
 21
1633.8082173356049
 31
0.0
  0
LINE
  5
141F2
  8
HIDE
 10
2254.9073919853759
 20
1668.8082173356049
 30
0.0
 11
2239.607391985377
 21
1668.8082173356049
 31
0.0
  0
LINE
  5
141F3
  8
HIDE
 10
2238.5073919853771
 20
1675.6582173356051
 30
0.0
 11
2242.003143790093
 21
1675.6582173356051
 31
0.0
  0
LINE
  5
141F4
  8
HIDE
 10
2255.5073919853771
 20
1680.4582173356041
 30
0.0
 11
2252.0116401806608
 21
1680.4582173356041
 31
0.0
  0
LINE
  5
141F5
  8
HIDE
 10
2239.107391985377
 20
1687.3082173356049
 30
0.0
 11
2254.4073919853781
 21
1687.3082173356049
 31
0.0
  0
LINE
  5
141F6
  8
HIDE
 10
2245.046898970837
 20
1683.2504198682441
 30
0.0
 11
2238.5073919853771
 21
1683.9082173356051
 31
0.0
  0
LINE
  5
141F7
  8
HIDE
 10
2255.5073919853771
 20
1686.208217335605
 30
0.0
 11
2255.5073919853771
 21
1616.4082173356051
 31
0.0
  0
LINE
  5
141F8
  8
HIDE
 10
2255.5073919853771
 20
1668.8082173356049
 30
0.0
 11
2267.5073919853771
 21
1668.8082173356049
 31
0.0
  0
LINE
  5
141F9
  8
HIDE
 10
2255.5073919853771
 20
1671.3082173356049
 30
0.0
 11
2267.5073919853771
 21
1671.3082173356049
 31
0.0
  0
LINE
  5
141FA
  8
HIDE
 10
2255.5073919853771
 20
1633.8082173356049
 30
0.0
 11
2267.5073919853771
 21
1633.8082173356049
 31
0.0
  0
LINE
  5
141FB
  8
HIDE
 10
2255.5073919853771
 20
1631.3082173356049
 30
0.0
 11
2267.5073919853771
 21
1631.3082173356049
 31
0.0
  0
LINE
  5
141FC
  8
HIDE
 10
2175.5073919853771
 20
1633.8082173356049
 30
0.0
 11
2187.0073919853762
 21
1633.8082173356049
 31
0.0
  0
LINE
  5
141FD
  8
HIDE
 10
2175.5073919853771
 20
1631.3082173356049
 30
0.0
 11
2187.0073919853762
 21
1631.3082173356049
 31
0.0
  0
LINE
  5
141FE
  8
HIDE
 10
2175.5073919853771
 20
1668.8082173356049
 30
0.0
 11
2187.0073919853762
 21
1668.8082173356049
 31
0.0
  0
LINE
  5
141FF
  8
HIDE
 10
2175.5073919853771
 20
1671.3082173356049
 30
0.0
 11
2187.0073919853762
 21
1671.3082173356049
 31
0.0
  0
CIRCLE
  5
14200
  8
HIDE
 10
2196.0073919853771
 20
1624.5582173356049
 30
0.0
 40
5.549999999999998
  0
CIRCLE
  5
14201
  8
HIDE
 10
2196.0073919853771
 20
1678.0582173356049
 30
0.0
 40
5.549999999999998
  0
ARC
  5
14202
  8
HIDE
 10
2203.9073919853759
 20
1686.7082173356041
 30
0.0
 40
0.6000000000000015
 50
0.0
 51
90.0
  0
ARC
  5
14203
  8
HIDE
 10
2188.6073919853752
 20
1686.208217335605
 30
0.0
 40
1.1000000000000001
 50
90.0
 51
180.0
  0
ARC
  5
14204
  8
HIDE
 10
2203.4073919853759
 20
1669.9082173356051
 30
0.0
 40
1.1000000000000001
 50
270.0
 51
0.0
  0
ARC
  5
14205
  8
HIDE
 10
2203.4073919853759
 20
1632.7082173356041
 30
0.0
 40
1.1000000000000001
 50
0.0
 51
90.0
  0
ARC
  5
14206
  8
HIDE
 10
2188.1073919853752
 20
1669.4082173356051
 30
0.0
 40
0.6000000000000015
 50
180.0
 51
270.0
  0
ARC
  5
14207
  8
HIDE
 10
2188.1073919853752
 20
1633.2082173356041
 30
0.0
 40
0.6000000000000015
 50
90.0
 51
180.0
  0
ARC
  5
14208
  8
HIDE
 10
2203.9073919853759
 20
1615.9082173356039
 30
0.0
 40
0.6000000000000015
 50
270.0
 51
0.0
  0
ARC
  5
14209
  8
HIDE
 10
2188.6073919853752
 20
1616.4082173356051
 30
0.0
 40
1.1000000000000001
 50
180.0
 51
270.0
  0
LINE
  5
1420A
  8
HIDE
 10
2187.5073919853771
 20
1680.4582173356041
 30
0.0
 11
2191.0031437900921
 21
1680.4582173356041
 31
0.0
  0
LINE
  5
1420B
  8
HIDE
 10
2188.6073919853752
 20
1687.3082173356049
 30
0.0
 11
2203.9073919853759
 21
1687.3082173356049
 31
0.0
  0
LINE
  5
1420C
  8
HIDE
 10
2204.5073919853771
 20
1675.6582173356051
 30
0.0
 11
2201.0116401806608
 21
1675.6582173356051
 31
0.0
  0
LINE
  5
1420D
  8
HIDE
 10
2197.9678849999168
 20
1683.2504198682441
 30
0.0
 11
2204.5073919853771
 21
1683.9082173356051
 31
0.0
  0
LINE
  5
1420E
  8
HIDE
 10
2187.5073919853771
 20
1675.6582173356051
 30
0.0
 11
2191.0031437900921
 21
1675.6582173356051
 31
0.0
  0
LINE
  5
1420F
  8
HIDE
 10
2187.5073919853771
 20
1626.9582173356041
 30
0.0
 11
2191.0031437900921
 21
1626.9582173356041
 31
0.0
  0
LINE
  5
14210
  8
HIDE
 10
2188.1073919853752
 20
1668.8082173356049
 30
0.0
 11
2203.4073919853759
 21
1668.8082173356049
 31
0.0
  0
LINE
  5
14211
  8
HIDE
 10
2188.1073919853752
 20
1633.8082173356049
 30
0.0
 11
2203.4073919853759
 21
1633.8082173356049
 31
0.0
  0
LINE
  5
14212
  8
HIDE
 10
2204.5073919853771
 20
1626.9582173356041
 30
0.0
 11
2201.0116401806608
 21
1626.9582173356041
 31
0.0
  0
LINE
  5
14213
  8
HIDE
 10
2187.5073919853771
 20
1622.1582173356051
 30
0.0
 11
2191.0031437900921
 21
1622.1582173356051
 31
0.0
  0
LINE
  5
14214
  8
HIDE
 10
2203.9073919853759
 20
1615.3082173356049
 30
0.0
 11
2188.6073919853752
 21
1615.3082173356049
 31
0.0
  0
LINE
  5
14215
  8
HIDE
 10
2197.9678849999168
 20
1619.366014802966
 30
0.0
 11
2204.5073919853771
 21
1618.7082173356041
 31
0.0
  0
LINE
  5
14216
  8
HIDE
 10
2187.5073919853771
 20
1616.4082173356051
 30
0.0
 11
2187.5073919853771
 21
1686.208217335605
 31
0.0
  0
CIRCLE
  5
14217
  8
HIDE
 10
2213.0073919853771
 20
1624.5582173356049
 30
0.0
 40
5.549999999999998
  0
CIRCLE
  5
14218
  8
HIDE
 10
2213.0073919853771
 20
1678.0582173356049
 30
0.0
 40
5.549999999999998
  0
LINE
  5
14219
  8
HIDE
 10
2204.5073919853771
 20
1686.7082173356041
 30
0.0
 11
2204.5073919853771
 21
1615.9082173356051
 31
0.0
  0
ARC
  5
1421A
  8
HIDE
 10
2205.1073919853752
 20
1615.9082173356051
 30
0.0
 40
0.6000000000000015
 50
180.0
 51
270.0
  0
ARC
  5
1421B
  8
HIDE
 10
2220.4073919853759
 20
1616.4082173356051
 30
0.0
 40
1.1000000000000001
 50
270.0
 51
0.0
  0
ARC
  5
1421C
  8
HIDE
 10
2205.6073919853752
 20
1632.7082173356041
 30
0.0
 40
1.1000000000000001
 50
90.0
 51
180.0
  0
ARC
  5
1421D
  8
HIDE
 10
2205.607391985377
 20
1669.9082173356051
 30
0.0
 40
1.0999999999999981
 50
180.0
 51
270.0
  0
ARC
  5
1421E
  8
HIDE
 10
2220.9073919853772
 20
1633.2082173356041
 30
0.0
 40
0.6
 50
0.0
 51
90.0
  0
ARC
  5
1421F
  8
HIDE
 10
2220.9073919853772
 20
1669.4082173356051
 30
0.0
 40
0.6000000000000015
 50
270.0
 51
0.0
  0
ARC
  5
14220
  8
HIDE
 10
2205.107391985377
 20
1686.7082173356059
 30
0.0
 40
0.6000000000000015
 50
90.0
 51
180.0
  0
ARC
  5
14221
  8
HIDE
 10
2220.4073919853759
 20
1686.208217335605
 30
0.0
 40
1.1000000000000001
 50
0.0
 51
90.0
  0
LINE
  5
14222
  8
HIDE
 10
2221.5073919853771
 20
1622.1582173356051
 30
0.0
 11
2218.0116401806608
 21
1622.1582173356051
 31
0.0
  0
LINE
  5
14223
  8
HIDE
 10
2220.4073919853759
 20
1615.3082173356049
 30
0.0
 11
2205.1073919853752
 21
1615.3082173356049
 31
0.0
  0
LINE
  5
14224
  8
HIDE
 10
2204.5073919853771
 20
1626.958217335605
 30
0.0
 11
2208.0031437900921
 21
1626.958217335605
 31
0.0
  0
LINE
  5
14225
  8
HIDE
 10
2211.046898970837
 20
1619.366014802966
 30
0.0
 11
2204.5073919853771
 21
1618.708217335605
 31
0.0
  0
LINE
  5
14226
  8
HIDE
 10
2221.5073919853771
 20
1626.9582173356041
 30
0.0
 11
2218.0116401806608
 21
1626.9582173356041
 31
0.0
  0
LINE
  5
14227
  8
HIDE
 10
2221.5073919853771
 20
1675.6582173356051
 30
0.0
 11
2218.0116401806608
 21
1675.6582173356051
 31
0.0
  0
LINE
  5
14228
  8
HIDE
 10
2220.9073919853772
 20
1633.8082173356049
 30
0.0
 11
2205.6073919853752
 21
1633.8082173356049
 31
0.0
  0
LINE
  5
14229
  8
HIDE
 10
2220.9073919853772
 20
1668.8082173356049
 30
0.0
 11
2205.607391985377
 21
1668.8082173356049
 31
0.0
  0
LINE
  5
1422A
  8
HIDE
 10
2204.5073919853771
 20
1675.6582173356051
 30
0.0
 11
2208.0031437900921
 21
1675.6582173356051
 31
0.0
  0
LINE
  5
1422B
  8
HIDE
 10
2221.5073919853771
 20
1680.4582173356041
 30
0.0
 11
2218.0116401806608
 21
1680.4582173356041
 31
0.0
  0
LINE
  5
1422C
  8
HIDE
 10
2205.107391985377
 20
1687.3082173356049
 30
0.0
 11
2220.4073919853781
 21
1687.3082173356049
 31
0.0
  0
LINE
  5
1422D
  8
HIDE
 10
2211.046898970837
 20
1683.2504198682441
 30
0.0
 11
2204.5073919853771
 21
1683.9082173356051
 31
0.0
  0
LINE
  5
1422E
  8
HIDE
 10
2221.5073919853771
 20
1686.208217335605
 30
0.0
 11
2221.5073919853771
 21
1616.4082173356051
 31
0.0
  0
LINE
  5
1422F
  8
0
 10
2201.5073919853762
 20
1601.3082173356049
 30
0.0
 11
2201.5073919853762
 21
1574.3082173356049
 31
0.0
  0
CIRCLE
  5
14265
  8
0
 10
2047.510703334885
 20
1651.3082173356049
 30
0.0
 40
31.0
  0
CIRCLE
  5
14266
  8
0
 10
2047.510703334885
 20
1651.3082173356049
 30
0.0
 40
56.0
  0
ARC
  5
14267
  8
CENTER
 10
2047.510703334885
 20
1651.3082173356049
 30
0.0
 40
66.0
 50
94.958778000026356
 51
114.427138999973
  0
ARC
  5
14268
  8
CENTER
 10
2047.510703334885
 20
1651.3082173356049
 30
0.0
 40
66.0
 50
65.081980999999416
 51
84.472879000008376
  0
ARC
  5
14269
  8
CENTER
 10
2047.510703334885
 20
1651.3082173356049
 30
0.0
 40
66.0
 50
35.376434999978471
 51
54.778217000021442
  0
ARC
  5
1426A
  8
CENTER
 10
2047.510703334885
 20
1651.3082173356049
 30
0.0
 40
66.0
 50
305.19538400000238
 51
324.4071390000359
  0
ARC
  5
1426B
  8
CENTER
 10
2047.510703334885
 20
1651.3082173356049
 30
0.0
 40
66.0
 50
274.8819159999897
 51
295.58237499997892
  0
ARC
  5
1426C
  8
CENTER
 10
2047.510703334885
 20
1651.3082173356049
 30
0.0
 40
66.0
 50
244.92369700001049
 51
265.37592599998828
  0
ARC
  5
1426D
  8
CENTER
 10
2047.510703334885
 20
1651.3082173356049
 30
0.0
 40
66.0
 50
215.09290700002151
 51
234.56785100000229
  0
CIRCLE
  5
1426E
  8
0
 10
2094.1797513348852
 20
1604.6391693356049
 30
0.0
 40
5.5
  0
CIRCLE
  5
1426F
  8
0
 10
2094.1797513348852
 20
1604.6391693356049
 30
0.0
 40
8.75
  0
CIRCLE
  5
14270
  8
0
 10
2064.592760334885
 20
1587.5571123356051
 30
0.0
 40
5.5
  0
CIRCLE
  5
14271
  8
0
 10
2064.592760334885
 20
1587.5571123356051
 30
0.0
 40
8.75
  0
CIRCLE
  5
14272
  8
0
 10
2030.428646334886
 20
1587.5571123356051
 30
0.0
 40
5.5
  0
CIRCLE
  5
14273
  8
0
 10
2030.428646334886
 20
1587.5571123356051
 30
0.0
 40
8.75
  0
CIRCLE
  5
14274
  8
0
 10
2000.841655334885
 20
1604.6391693356049
 30
0.0
 40
5.5
  0
CIRCLE
  5
14275
  8
0
 10
2000.841655334885
 20
1604.6391693356049
 30
0.0
 40
8.75
  0
CIRCLE
  5
14276
  8
0
 10
2000.841655334885
 20
1697.9772653356049
 30
0.0
 40
5.5
  0
CIRCLE
  5
14277
  8
0
 10
2000.841655334885
 20
1697.9772653356049
 30
0.0
 40
8.75
  0
CIRCLE
  5
14278
  8
0
 10
2030.428646334886
 20
1715.0593223356041
 30
0.0
 40
5.5
  0
CIRCLE
  5
14279
  8
0
 10
2030.428646334886
 20
1715.0593223356041
 30
0.0
 40
8.75
  0
CIRCLE
  5
1427A
  8
0
 10
2064.592760334885
 20
1715.0593223356041
 30
0.0
 40
5.5
  0
CIRCLE
  5
1427B
  8
0
 10
2064.592760334885
 20
1715.0593223356041
 30
0.0
 40
8.75
  0
CIRCLE
  5
1427C
  8
0
 10
2094.1797513348852
 20
1697.9772653356049
 30
0.0
 40
8.75
  0
CIRCLE
  5
1427D
  8
0
 10
2094.1797513348852
 20
1697.9772653356049
 30
0.0
 40
5.5
  0
LINE
  5
1427E
  8
CENTER
 10
2033.3178063348839
 20
1598.339605335605
 30
0.0
 11
2026.937318334885
 21
1574.5272983356051
 31
0.0
  0
LINE
  5
1427F
  8
CENTER
 10
2008.968087334885
 20
1612.765601335605
 30
0.0
 11
1991.3740583348849
 21
1595.1715723356051
 31
0.0
  0
LINE
  5
14280
  8
CENTER
 10
2061.551359334886
 20
1598.907775335605
 30
0.0
 11
2067.9962033348838
 21
1574.855291335605
 31
0.0
  0
LINE
  5
14281
  8
CENTER
 10
2086.1132883348851
 20
1612.7056323356051
 30
0.0
 11
2103.7067763348841
 21
1595.1121443356051
 31
0.0
  0
LINE
  5
14282
  8
CENTER
 10
2086.0290723348871
 20
1689.826586335605
 30
0.0
 11
2103.7989723348851
 21
1707.5964863356051
 31
0.0
  0
LINE
  5
14283
  8
CENTER
 10
2061.6145853348849
 20
1703.9446203356049
 30
0.0
 11
2067.9778793348842
 21
1727.6927563356051
 31
0.0
  0
LINE
  5
14284
  8
CENTER
 10
2008.9923343348839
 20
1689.826586335605
 30
0.0
 11
1991.9261893348839
 21
1706.892731335605
 31
0.0
  0
LINE
  5
14285
  8
CENTER
 10
2033.4711763348839
 20
1703.7044433356041
 30
0.0
 11
2026.7325603348861
 21
1728.8533043356049
 31
0.0
  0
ARC
  5
14286
  8
CENTER
 10
2047.510703334885
 20
1651.3082173356049
 30
0.0
 40
66.0
 50
125.1054809999989
 51
145.01828300001009
  0
ARC
  5
14287
  8
0
 10
2047.510703334885
 20
1651.3082173356049
 30
0.0
 40
77.0
 50
38.81071399996403
 51
141.18928600003591
  0
ARC
  5
14288
  8
0
 10
2047.510703334885
 20
1651.3082173356049
 30
0.0
 40
77.0
 50
218.81071399996401
 51
321.18928600003602
  0
LINE
  5
14289
  8
0
 10
1987.510703334885
 20
1699.567931335605
 30
0.0
 11
1987.510703334885
 21
1603.0485033356049
 31
0.0
  0
LINE
  5
1428A
  8
0
 10
2107.510703334885
 20
1699.567931335605
 30
0.0
 11
2107.510703334885
 21
1603.0485033356049
 31
0.0
  0
ARC
  5
1428B
  8
CENTER
 10
2047.510703334885
 20
1655.8082173356049
 30
0.0
 40
38.5
 50
77.051749999985873
 51
104.7728919999728
  0
ARC
  5
1428C
  8
CENTER
 10
2051.4078173348848
 20
1653.5582173356049
 30
0.0
 40
38.5
 50
16.465443000008651
 51
43.632459000005021
  0
ARC
  5
1428D
  8
CENTER
 10
2051.4078173348848
 20
1649.0582173356049
 30
0.0
 40
38.5
 50
315.9667890000336
 51
344.66874700000398
  0
ARC
  5
1428E
  8
CENTER
 10
2047.510703334885
 20
1646.8082173356049
 30
0.0
 40
38.5
 50
255.63859500002229
 51
283.58521200001547
  0
ARC
  5
1428F
  8
CENTER
 10
2043.6135893348851
 20
1649.0582173356049
 30
0.0
 40
38.5
 50
195.69859699998241
 51
223.28990200000871
  0
LINE
  5
14290
  8
0
 10
2006.3825073348851
 20
1633.6973033356051
 30
0.0
 11
2004.959003334885
 21
1628.3847153356051
 31
0.0
  0
LINE
  5
14291
  8
0
 10
2004.958988334886
 20
1628.3847253356039
 30
0.0
 11
2008.8480753348849
 21
1624.4956373356049
 31
0.0
  0
LINE
  5
14292
  8
0
 10
2014.1606593348861
 20
1625.9191243356049
 30
0.0
 11
2008.8480943348859
 21
1624.495626335605
 31
0.0
  0
LINE
  5
14293
  8
0
 10
2015.584182334884
 20
1631.231723335605
 30
0.0
 11
2014.160678334885
 21
1625.919133335605
 31
0.0
  0
LINE
  5
14294
  8
0
 10
2011.6950813348849
 20
1635.120818335605
 30
0.0
 11
2015.584169334885
 21
1631.231731335605
 31
0.0
  0
LINE
  5
14295
  8
0
 10
2006.3825113348851
 20
1633.6973183356049
 30
0.0
 11
2011.695073334884
 21
1635.120814335605
 31
0.0
  0
CIRCLE
  5
14296
  8
0
 10
2010.2716113348849
 20
1629.8082173356049
 30
0.0
 40
6.75
  0
LINE
  5
14297
  8
0
 10
2080.8606923348848
 20
1633.6973033356051
 30
0.0
 11
2079.4371883348849
 21
1628.3847153356051
 31
0.0
  0
LINE
  5
14298
  8
0
 10
2079.4371733348848
 20
1628.3847253356039
 30
0.0
 11
2083.3262603348849
 21
1624.4956373356049
 31
0.0
  0
LINE
  5
14299
  8
0
 10
2088.638844334886
 20
1625.9191243356049
 30
0.0
 11
2083.3262793348849
 21
1624.495626335605
 31
0.0
  0
LINE
  5
1429A
  8
0
 10
2090.0623673348832
 20
1631.231723335605
 30
0.0
 11
2088.6388633348852
 21
1625.919133335605
 31
0.0
  0
LINE
  5
1429B
  8
0
 10
2086.1732663348848
 20
1635.120818335605
 30
0.0
 11
2090.0623543348852
 21
1631.231731335605
 31
0.0
  0
LINE
  5
1429C
  8
0
 10
2080.8606963348848
 20
1633.6973183356049
 30
0.0
 11
2086.1732583348839
 21
1635.120814335605
 31
0.0
  0
CIRCLE
  5
1429D
  8
0
 10
2084.7497953348852
 20
1629.8082173356049
 30
0.0
 40
6.75
  0
LINE
  5
1429E
  8
0
 10
2043.6216003348829
 20
1698.1973033356051
 30
0.0
 11
2042.1980963348849
 21
1692.8847153356051
 31
0.0
  0
LINE
  5
1429F
  8
0
 10
2042.1980813348839
 20
1692.884725335605
 30
0.0
 11
2046.0871683348851
 21
1688.9956373356049
 31
0.0
  0
LINE
  5
142A0
  8
0
 10
2051.3997523348871
 20
1690.4191243356049
 30
0.0
 11
2046.087187334886
 21
1688.995626335605
 31
0.0
  0
LINE
  5
142A1
  8
0
 10
2052.8232753348839
 20
1695.731723335605
 30
0.0
 11
2051.3997713348849
 21
1690.419133335605
 31
0.0
  0
LINE
  5
142A2
  8
0
 10
2048.934174334885
 20
1699.620818335605
 30
0.0
 11
2052.823262334884
 21
1695.731731335605
 31
0.0
  0
LINE
  5
142A3
  8
0
 10
2043.621604334885
 20
1698.1973183356049
 30
0.0
 11
2048.9341663348841
 21
1699.620814335605
 31
0.0
  0
CIRCLE
  5
142A4
  8
0
 10
2047.510703334885
 20
1694.3082173356049
 30
0.0
 40
6.75
  0
LINE
  5
142A5
  8
0
 10
2043.6216003348829
 20
1612.1973033356051
 30
0.0
 11
2042.1980963348849
 21
1606.8847153356051
 31
0.0
  0
LINE
  5
142A6
  8
0
 10
2042.1980813348839
 20
1606.884725335605
 30
0.0
 11
2046.0871683348851
 21
1602.9956373356049
 31
0.0
  0
LINE
  5
142A7
  8
0
 10
2051.3997523348871
 20
1604.4191243356049
 30
0.0
 11
2046.087187334886
 21
1602.995626335605
 31
0.0
  0
LINE
  5
142A8
  8
0
 10
2052.8232753348839
 20
1609.7317233356041
 30
0.0
 11
2051.3997713348849
 21
1604.4191333356041
 31
0.0
  0
LINE
  5
142A9
  8
0
 10
2048.934174334885
 20
1613.6208183356041
 30
0.0
 11
2052.823262334884
 21
1609.7317313356041
 31
0.0
  0
LINE
  5
142AA
  8
0
 10
2043.621604334885
 20
1612.1973183356049
 30
0.0
 11
2048.9341663348841
 21
1613.620814335605
 31
0.0
  0
CIRCLE
  5
142AB
  8
0
 10
2047.510703334885
 20
1608.3082173356049
 30
0.0
 40
6.75
  0
LINE
  5
142AC
  8
0
 10
2080.8606923348848
 20
1676.6973033356051
 30
0.0
 11
2079.4371883348849
 21
1671.3847153356051
 31
0.0
  0
LINE
  5
142AD
  8
0
 10
2079.4371733348848
 20
1671.3847253356039
 30
0.0
 11
2083.3262603348849
 21
1667.4956373356049
 31
0.0
  0
LINE
  5
142AE
  8
0
 10
2088.638844334886
 20
1668.9191243356049
 30
0.0
 11
2083.3262793348849
 21
1667.495626335605
 31
0.0
  0
LINE
  5
142AF
  8
0
 10
2090.0623673348832
 20
1674.2317233356041
 30
0.0
 11
2088.6388633348852
 21
1668.919133335605
 31
0.0
  0
LINE
  5
142B0
  8
0
 10
2086.1732663348848
 20
1678.120818335605
 30
0.0
 11
2090.0623543348852
 21
1674.231731335605
 31
0.0
  0
LINE
  5
142B1
  8
0
 10
2080.8606963348848
 20
1676.6973183356049
 30
0.0
 11
2086.1732583348839
 21
1678.120814335605
 31
0.0
  0
CIRCLE
  5
142B2
  8
0
 10
2084.7497953348852
 20
1672.8082173356049
 30
0.0
 40
6.75
  0
CIRCLE
  5
142B3
  8
0
 10
2010.2716113348849
 20
1672.8082173356049
 30
0.0
 40
6.75
  0
LINE
  5
142B4
  8
0
 10
2006.3825113348851
 20
1676.6973183356049
 30
0.0
 11
2011.695073334884
 21
1678.120814335605
 31
0.0
  0
LINE
  5
142B5
  8
0
 10
2014.1606593348861
 20
1668.9191243356049
 30
0.0
 11
2008.8480943348859
 21
1667.495626335605
 31
0.0
  0
LINE
  5
142B6
  8
0
 10
2011.6950813348849
 20
1678.120818335605
 30
0.0
 11
2015.584169334885
 21
1674.231731335605
 31
0.0
  0
LINE
  5
142B7
  8
0
 10
2015.584182334884
 20
1674.2317233356041
 30
0.0
 11
2014.160678334885
 21
1668.919133335605
 31
0.0
  0
LINE
  5
142B8
  8
0
 10
2006.3825073348851
 20
1676.6973033356051
 30
0.0
 11
2004.959003334885
 21
1671.3847153356051
 31
0.0
  0
LINE
  5
142B9
  8
0
 10
2004.958988334886
 20
1671.3847253356039
 30
0.0
 11
2008.8480753348849
 21
1667.4956373356049
 31
0.0
  0
ARC
  5
142BA
  8
CENTER
 10
2043.6135893348851
 20
1653.5582173356049
 30
0.0
 40
38.5
 50
134.46756600002911
 51
164.19277500001701
  0
LINE
  5
142BB
  8
CENTER
 10
2076.8821643348838
 20
1634.3505963356049
 30
0.0
 11
2092.4256063348871
 21
1625.376586335605
 31
0.0
  0
LINE
  5
142BC
  8
CENTER
 10
2018.564849334886
 20
1634.596320335605
 30
0.0
 11
2003.0137363348861
 21
1625.617881335605
 31
0.0
  0
LINE
  5
142BD
  8
CENTER
 10
2018.264062334885
 20
1668.1937733356051
 30
0.0
 11
2002.734970334885
 21
1677.1594983356049
 31
0.0
  0
LINE
  5
142BE
  8
CENTER
 10
2076.7573443348851
 20
1668.1937733356051
 30
0.0
 11
2092.7392803348848
 21
1677.4209483356051
 31
0.0
  0
LINE
  5
142BF
  8
CENTER
 10
1982.9551973348839
 20
1651.3082173356049
 30
0.0
 11
2112.0662093348851
 21
1651.3082173356049
 31
0.0
  0
LINE
  5
142C0
  8
CENTER
 10
2047.510703334885
 20
1570.3874343356049
 30
0.0
 11
2047.510703334885
 21
1732.229000335605
 31
0.0
  0
ENDSEC
  0
EOF
