  0
SECTION
  2
HEADER
  9
$ACADVER
  1
AC1009
  9
$INSBASE
 10
0.0
 20
0.0
 30
0.0
  9
$EXTMIN
 10
1861.7605495177991
 20
1462.753721082556
 30
0.0
  9
$EXTMAX
 10
2270.939897648002
 20
1721.445583004114
 30
0.0
  9
$LIMMIN
 10
0.0
 20
0.0
  9
$LIMMAX
 10
12.0
 20
9.0
  9
$ORTHOMODE
 70
     0
  9
$REGENMODE
 70
     1
  9
$FILLMODE
 70
     1
  9
$QTEXTMODE
 70
     0
  9
$MIRRTEXT
 70
     0
  9
$DRAGMODE
 70
     2
  9
$LTSCALE
 40
5.0
  9
$OSMODE
 70
  2495
  9
$ATTMODE
 70
     1
  9
$TEXTSIZE
 40
2.5
  9
$TRACEWID
 40
0.05
  9
$TEXTSTYLE
  7
BIG
  9
$CLAYER
  8
0
  9
$CELTYPE
  6
BYLAYER
  9
$CECOLOR
 62
   256
  9
$DIMSCALE
 40
1.0
  9
$DIMASZ
 40
3.0
  9
$DIMEXO
 40
1.0
  9
$DIMDLI
 40
0.0
  9
$DIMRND
 40
0.0
  9
$DIMDLE
 40
0.0
  9
$DIMEXE
 40
1.0
  9
$DIMTP
 40
0.0
  9
$DIMTM
 40
0.0
  9
$DIMTXT
 40
3.0
  9
$DIMCEN
 40
0.0
  9
$DIMTSZ
 40
0.0
  9
$DIMTOL
 70
     0
  9
$DIMLIM
 70
     0
  9
$DIMTIH
 70
     0
  9
$DIMTOH
 70
     0
  9
$DIMSE1
 70
     0
  9
$DIMSE2
 70
     0
  9
$DIMTAD
 70
     1
  9
$DIMZIN
 70
     8
  9
$DIMBLK
  1

  9
$DIMASO
 70
     1
  9
$DIMSHO
 70
     1
  9
$DIMPOST
  1

  9
$DIMAPOST
  1

  9
$DIMALT
 70
     0
  9
$DIMALTD
 70
     2
  9
$DIMALTF
 40
25.399999999999999
  9
$DIMLFAC
 40
1.0
  9
$DIMTOFL
 70
     1
  9
$DIMTVP
 40
0.0
  9
$DIMTIX
 70
     1
  9
$DIMSOXD
 70
     0
  9
$DIMSAH
 70
     0
  9
$DIMBLK1
  1

  9
$DIMBLK2
  1

  9
$DIMSTYLE
  2
DUKITEC
  9
$DIMCLRD
 70
     5
  9
$DIMCLRE
 70
     5
  9
$DIMCLRT
 70
     0
  9
$DIMTFAC
 40
1.0
  9
$DIMGAP
 40
1.0
  9
$LUNITS
 70
     2
  9
$LUPREC
 70
     4
  9
$SKETCHINC
 40
0.1
  9
$FILLETRAD
 40
0.2
  9
$AUNITS
 70
     0
  9
$AUPREC
 70
     0
  9
$MENU
  1
.
  9
$ELEVATION
 40
0.0
  9
$PELEVATION
 40
0.0
  9
$THICKNESS
 40
0.0
  9
$LIMCHECK
 70
     0
  9
$BLIPMODE
 70
     0
  9
$CHAMFERA
 40
0.5
  9
$CHAMFERB
 40
0.5
  9
$SKPOLY
 70
     0
  9
$TDCREATE
 40
2454396.7315162038
  9
$TDUPDATE
 40
2457375.4957182989
  9
$TDINDWG
 40
0.0924333681
  9
$TDUSRTIMER
 40
0.092433206
  9
$USRTIMER
 70
     1
  9
$ANGBASE
 50
0.0
  9
$ANGDIR
 70
     0
  9
$PDMODE
 70
     0
  9
$PDSIZE
 40
0.0
  9
$PLINEWID
 40
0.0
  9
$COORDS
 70
     1
  9
$SPLFRAME
 70
     0
  9
$SPLINETYPE
 70
     6
  9
$SPLINESEGS
 70
     8
  9
$ATTDIA
 70
     0
  9
$ATTREQ
 70
     1
  9
$HANDLING
 70
     1
  9
$HANDSEED
  5
146A7
  9
$SURFTAB1
 70
     6
  9
$SURFTAB2
 70
     6
  9
$SURFTYPE
 70
     6
  9
$SURFU
 70
     6
  9
$SURFV
 70
     6
  9
$UCSNAME
  2

  9
$UCSORG
 10
0.0
 20
0.0
 30
0.0
  9
$UCSXDIR
 10
1.0
 20
0.0
 30
0.0
  9
$UCSYDIR
 10
0.0
 20
1.0
 30
0.0
  9
$PUCSNAME
  2

  9
$PUCSORG
 10
0.0
 20
0.0
 30
0.0
  9
$PUCSXDIR
 10
1.0
 20
0.0
 30
0.0
  9
$PUCSYDIR
 10
0.0
 20
1.0
 30
0.0
  9
$USERI1
 70
     0
  9
$USERI2
 70
     0
  9
$USERI3
 70
     0
  9
$USERI4
 70
     0
  9
$USERI5
 70
     0
  9
$USERR1
 40
0.0
  9
$USERR2
 40
0.0
  9
$USERR3
 40
0.0
  9
$USERR4
 40
0.0
  9
$USERR5
 40
0.0
  9
$WORLDVIEW
 70
     1
  9
$SHADEDGE
 70
     3
  9
$SHADEDIF
 70
    70
  9
$TILEMODE
 70
     1
  9
$MAXACTVP
 70
    64
  9
$PLIMCHECK
 70
     0
  9
$PEXTMIN
 10
0.0
 20
0.0
 30
0.0
  9
$PEXTMAX
 10
0.0
 20
0.0
 30
0.0
  9
$PLIMMIN
 10
0.0
 20
0.0
  9
$PLIMMAX
 10
12.0
 20
9.0
  9
$UNITMODE
 70
     0
  9
$VISRETAIN
 70
     1
  9
$PLINEGEN
 70
     0
  9
$PSLTSCALE
 70
     1
  0
ENDSEC
  0
SECTION
  2
TABLES
  0
TABLE
  2
VPORT
 70
     1
  0
VPORT
  2
*ACTIVE
 70
     0
 10
0.0
 20
0.0
 11
1.0
 21
1.0
 12
2062.9825214417401
 22
1583.478187061535
 13
0.0
 23
0.0
 14
0.5
 24
0.5
 15
0.5
 25
0.5
 16
0.0
 26
0.0
 36
1.0
 17
0.0
 27
0.0
 37
0.0
 40
392.03680456549051
 41
2.197368421052631
 42
50.0
 43
0.0
 44
0.0
 50
0.0
 51
0.0
 71
     0
 72
  2000
 73
     1
 74
     3
 75
     0
 76
     0
 77
     0
 78
     0
  0
ENDTAB
  0
TABLE
  2
LTYPE
 70
     4
  0
LTYPE
  2
CONTINUOUS
 70
     0
  3
Solid line
 72
    65
 73
     0
 40
0.0
  0
LTYPE
  2
PHANTOM2
 70
     0
  3
Phantom (.5x) ___ _ _ ___ _ _ ___ _ _ ___ _ _
 72
    65
 73
     6
 40
1.25
 49
0.625
 49
-0.125
 49
0.125
 49
-0.125
 49
0.125
 49
-0.125
  0
LTYPE
  2
CENTER
 70
     0
  3
___ _ ___ _ ___ _ ___ _ ___ _ ___ _ ___ _ ___ _
 72
    65
 73
     4
 40
0.95
 49
0.625
 49
-0.125
 49
0.075
 49
-0.125
  0
LTYPE
  2
DASHED2
 70
     0
  3
Dashed (.5x) _ _ _ _ _ _ _ _ _ _ _ _ _ _ _ _ _
 72
    65
 73
     2
 40
0.375
 49
0.25
 49
-0.125
  0
ENDTAB
  0
TABLE
  2
LAYER
 70
     4
  0
LAYER
  2
0
 70
     0
 62
     7
  6
CONTINUOUS
  0
LAYER
  2
HIDE
 70
     0
 62
     1
  6
DASHED2
  0
LAYER
  2
CENTER
 70
     0
 62
     3
  6
CENTER
  0
LAYER
  2
DEFPOINTS
 70
     0
 62
     7
  6
CONTINUOUS
  0
ENDTAB
  0
TABLE
  2
STYLE
 70
    10
  0
STYLE
  2
STANDARD
 70
     0
 40
5.0
 41
1.0
 50
0.0
 71
     0
 42
5.0
  3
txt.shx
  4
whgtxt.shx
  0
STYLE
  2
BIG
 70
     0
 40
20.0
 41
1.0
 50
0.0
 71
     0
 42
2.5
  3
txt
  4

  0
STYLE
  2
DUKI2-1
 70
     0
 40
4.0
 41
1.0
 50
0.0
 71
     0
 42
4.0
  3
txt
  4

  0
STYLE
  2
DUKI_1
 70
     0
 40
2.0
 41
1.0
 50
0.0
 71
     0
 42
2.0
  3
txt
  4

  0
STYLE
  2
DUKI_2
 70
     0
 40
3.0
 41
1.0
 50
0.0
 71
     0
 42
3.0
  3
txt
  4

  0
STYLE
  2
DUKI_3
 70
     0
 40
6.0
 41
1.0
 50
0.0
 71
     0
 42
6.0
  3
txt
  4

  0
STYLE
  2
DUKI2-5
 70
     0
 40
5.0
 41
1.0
 50
0.0
 71
     0
 42
5.0
  3
txt
  4

  0
STYLE
  2
DUKI5
 70
     0
 40
11.0
 41
1.0
 50
0.0
 71
     0
 42
11.0
  3
txt
  4

  0
STYLE
  2
DUKI7
 70
     0
 40
20.0
 41
1.0
 50
0.0
 71
     0
 42
20.0
  3
txt
  4

  0
STYLE
  2
DUKI1-5
 70
     0
 40
2.5
 41
1.0
 50
0.0
 71
     0
 42
2.5
  3
txt
  4

  0
ENDTAB
  0
TABLE
  2
VIEW
 70
     0
  0
ENDTAB
  0
TABLE
  2
UCS
 70
     0
  0
ENDTAB
  0
TABLE
  2
APPID
 70
    16
  0
APPID
  2
ACAD
 70
     0
  0
APPID
  2
ACADANNOTATIVE
 70
     0
  0
APPID
  2
ACAD_EXEMPT_FROM_CAD_STANDARDS
 70
     0
  0
APPID
  2
ACAD_DSTYLE_DIMJOGGED_JOGA
 70
     0
  0
APPID
  2
ACAD_PSEXT
 70
     0
  0
APPID
  2
ACAECLAYERSTANDARD
 70
     0
  0
APPID
  2
DCO15
 70
     0
  0
APPID
  2
CONTENTBLOCKICON
 70
     0
  0
APPID
  2
ACAD_NAV_VCDISPLAY
 70
     0
  0
APPID
  2
ACAD_MLEADERVER
 70
     0
  0
APPID
  2
ACAD_DSTYLE_DIMRADIAL_EXTENSION
 70
     0
  0
APPID
  2
ACAD_DSTYLE_DIMJAG
 70
     0
  0
APPID
  2
ACAD_DSTYLE_DIMBREAK
 70
     0
  0
APPID
  2
ACAD_DSTYLE_DIMTALN
 70
     0
  0
APPID
  2
ACAD_DSTYLE_DIMTEXT_FILL
 70
     0
  0
APPID
  2
ACDBDYNAMICBLOCKTRUENAME2
 70
     0
  0
ENDTAB
  0
TABLE
  2
DIMSTYLE
 70
     7
  0
DIMSTYLE
  2
DUKITEC
 70
     0
  3

  4

  5

  6

  7

 40
1.0
 41
3.0
 42
1.0
 43
0.0
 44
1.0
 45
0.0
 46
0.0
 47
0.0
 48
0.0
140
3.0
141
0.0
142
0.0
143
25.399999999999999
144
1.0
145
0.0
146
1.0
147
1.0
 71
     0
 72
     0
 73
     0
 74
     0
 75
     0
 76
     0
 77
     1
 78
     8
170
     0
171
     2
172
     1
173
     0
174
     1
175
     0
176
     5
177
     5
178
     0
  0
DIMSTYLE
  2
DUKI2
 70
     0
  3

  4

  5

  6

  7

 40
1.0
 41
2.0
 42
0.8
 43
1.0
 44
0.6
 45
0.0
 46
0.0
 47
0.0
 48
0.000000001
140
3.0
141
1.0
142
0.0
143
25.399999999999999
144
1.0
145
0.0
146
0.5
147
1.0
 71
     0
 72
     0
 73
     0
 74
     0
 75
     0
 76
     0
 77
     1
 78
     8
170
     0
171
     2
172
     1
173
     0
174
     0
175
     0
176
     5
177
     5
178
     2
  0
DIMSTYLE
  2
DUKI3
 70
     0
  3

  4

  5

  6

  7

 40
1.0
 41
4.0
 42
1.0
 43
1.0
 44
1.0
 45
0.0
 46
0.0
 47
0.0
 48
0.000000001
140
6.0
141
1.0
142
0.0
143
25.399999999999999
144
1.0
145
0.0
146
0.5
147
2.2000000000000002
 71
     0
 72
     0
 73
     0
 74
     0
 75
     0
 76
     0
 77
     1
 78
     8
170
     0
171
     2
172
     1
173
     0
174
     0
175
     0
176
     5
177
     5
178
     2
  0
DIMSTYLE
  2
DUKI2-5
 70
     0
  3

  4

  5

  6

  7

 40
1.0
 41
3.0
 42
1.0
 43
1.0
 44
1.0
 45
0.0
 46
0.0
 47
0.0
 48
0.000000001
140
5.0
141
1.0
142
0.0
143
25.399999999999999
144
1.0
145
0.0
146
0.5
147
1.6000000000000001
 71
     0
 72
     0
 73
     0
 74
     0
 75
     0
 76
     0
 77
     1
 78
     8
170
     0
171
     2
172
     1
173
     0
174
     0
175
     0
176
     5
177
     5
178
     2
  0
DIMSTYLE
  2
DUKI5
 70
     0
  3

  4

  5

  6

  7

 40
1.0
 41
6.0
 42
2.0
 43
1.0
 44
1.0
 45
0.0
 46
0.0
 47
0.0
 48
0.000000001
140
11.0
141
1.0
142
0.0
143
25.399999999999999
144
1.0
145
0.0
146
0.5
147
3.399999999999999
 71
     0
 72
     0
 73
     0
 74
     0
 75
     0
 76
     0
 77
     1
 78
     8
170
     0
171
     2
172
     1
173
     0
174
     0
175
     0
176
     5
177
     5
178
     2
  0
DIMSTYLE
  2
DUKI7
 70
     0
  3

  4

  5

  6

  7

 40
1.0
 41
14.0
 42
9.0
 43
1.0
 44
4.0
 45
0.0
 46
0.0
 47
0.0
 48
0.000000001
140
20.0
141
1.0
142
0.0
143
25.399999999999999
144
1.0
145
0.0
146
0.5
147
7.0
 71
     0
 72
     0
 73
     0
 74
     0
 75
     0
 76
     0
 77
     1
 78
     8
170
     0
171
     2
172
     1
173
     0
174
     0
175
     0
176
     5
177
     5
178
     2
  0
DIMSTYLE
  2
DUKI1-5
 70
     0
  3

  4

  5

  6

  7

 40
1.0
 41
1.8
 42
0.5
 43
1.0
 44
0.5
 45
0.0
 46
0.0
 47
0.0
 48
0.000000001
140
2.5
141
1.0
142
0.0
143
25.399999999999999
144
1.0
145
0.0
146
0.5
147
0.8
 71
     0
 72
     0
 73
     0
 74
     0
 75
     0
 76
     0
 77
     1
 78
     8
170
     0
171
     2
172
     1
173
     0
174
     0
175
     0
176
     5
177
     5
178
     2
  0
ENDTAB
  0
ENDSEC
  0
SECTION
  2
BLOCKS
  0
BLOCK
  8
0
  2
$MODEL_SPACE
 70
     0
 10
0.0
 20
0.0
 30
0.0
  3
$MODEL_SPACE
  1

  0
ENDBLK
  5
14355
  8
0
  0
BLOCK
 67
     1
  8
0
  2
$PAPER_SPACE
 70
     0
 10
0.0
 20
0.0
 30
0.0
  3
$PAPER_SPACE
  1

  0
ENDBLK
  5
14351
 67
     1
  8
0
  0
BLOCK
  8
0
  2
*D0
 70
     1
 10
0.0
 20
0.0
 30
0.0
  3
*D0
  1

  0
LINE
  5
1452B
  8
0
 62
     5
 10
-43917.783719477913
 20
11423.91787164792
 30
0.0
 11
-43936.291837575758
 21
11405.40975355007
 31
0.0
  0
LINE
  5
1452C
  8
0
 62
     5
 10
-43882.428380418583
 20
11388.562532588579
 30
0.0
 11
-43900.936498516428
 21
11370.05441449074
 31
0.0
  0
LINE
  5
1452D
  8
0
 62
     5
 10
-43933.463410451011
 20
11403.995539987691
 30
0.0
 11
-43902.350712078813
 21
11372.88284161549
 31
0.0
  0
SOLID
  5
1452E
  8
0
 62
     5
 10
-43933.109857060423
 20
11404.34909337829
 30
0.0
 11
-43933.8169638416
 21
11403.6419865971
 31
0.0
 12
-43935.584730794573
 22
11406.11686033126
 32
0.0
 13
-43935.584730794573
 23
11406.11686033126
 33
0.0
  0
SOLID
  5
1452F
  8
0
 62
     5
 10
-43901.997158688209
 20
11373.236395006081
 30
0.0
 11
-43902.704265469401
 21
11372.52928822489
 31
0.0
 12
-43900.229391735251
 22
11370.761521271919
 32
0.0
 13
-43900.229391735251
 23
11370.761521271919
 33
0.0
  0
INSERT
  5
14530
  8
0
  2
*U7
 10
0.0
 20
0.0
 30
0.0
  0
POINT
  5
14531
  8
DEFPOINTS
 62
     0
 10
-43917.076612696721
 20
11424.624978429099
 30
0.0
  0
POINT
  5
14532
  8
DEFPOINTS
 62
     0
 10
-43881.721273637391
 20
11389.26963936977
 30
0.0
  0
POINT
  5
14533
  8
DEFPOINTS
 62
     0
 10
-43900.229391735251
 20
11370.761521271919
 30
0.0
  0
ENDBLK
  5
14534
  8
0
  0
BLOCK
  8
0
  2
*D1
 70
     1
 10
0.0
 20
0.0
 30
0.0
  3
*D1
  1

  0
LINE
  5
14537
  8
0
 62
     5
 10
-43846.642054357428
 20
11435.90948428887
 30
0.0
 11
-43862.319097292711
 21
11429.32391153479
 31
0.0
  0
LINE
  5
14538
  8
0
 62
     5
 10
-43913.026710242259
 20
11408.0227850632
 30
0.0
 11
-43915.792580039502
 21
11406.86090543747
 31
0.0
  0
INSERT
  5
14539
  8
0
  2
*U8
 10
0.0
 20
0.0
 30
0.0
  0
LINE
  5
1453B
  8
0
 62
     5
 10
-43910.260840445007
 20
11409.184664688921
 30
0.0
 11
-43865.084967089948
 21
11428.162031909071
 31
0.0
  0
SOLID
  5
1453C
  8
0
 62
     5
 10
-43913.220356846541
 20
11408.483763362739
 30
0.0
 11
-43912.833063637969
 21
11407.561806763661
 31
0.0
 12
-43910.260840445007
 22
11409.184664688921
 32
0.0
 13
-43910.260840445007
 23
11409.184664688921
 33
0.0
  0
SOLID
  5
1453D
  8
0
 62
     5
 10
-43862.512743896987
 20
11429.78488983434
 30
0.0
 11
-43862.125450688422
 21
11428.86293323525
 31
0.0
 12
-43865.084967089948
 22
11428.162031909071
 32
0.0
 13
-43865.084967089948
 23
11428.162031909071
 33
0.0
  0
POINT
  5
1453E
  8
DEFPOINTS
 62
     0
 10
-43865.084967089948
 20
11428.162031909071
 30
0.0
  0
POINT
  5
1453F
  8
DEFPOINTS
 62
     0
 10
-43910.260840445007
 20
11409.184664688921
 30
0.0
  0
ENDBLK
  5
14540
  8
0
  0
BLOCK
  8
0
  2
*D2
 70
     1
 10
0.0
 20
0.0
 30
0.0
  3
*D2
  1

  0
LINE
  5
14543
  8
0
 62
     5
 10
-43837.020854517032
 20
11427.11849658543
 30
0.0
 11
-43853.642655561118
 21
11424.34716597429
 31
0.0
  0
LINE
  5
14544
  8
0
 62
     5
 10
-43921.703151973859
 20
11412.9995306237
 30
0.0
 11
-43924.662303991812
 21
11412.506155173671
 31
0.0
  0
INSERT
  5
14545
  8
0
  2
*U9
 10
0.0
 20
0.0
 30
0.0
  0
LINE
  5
14547
  8
0
 62
     5
 10
-43918.743999955921
 20
11413.492906073719
 30
0.0
 11
-43856.601807579063
 21
11423.853790524259
 31
0.0
  0
SOLID
  5
14548
  8
0
 62
     5
 10
-43921.78538121553
 20
11413.49272262669
 30
0.0
 11
-43921.620922732203
 21
11412.5063386207
 31
0.0
 12
-43918.743999955921
 22
11413.492906073719
 32
0.0
 13
-43918.743999955921
 23
11413.492906073719
 33
0.0
  0
SOLID
  5
14549
  8
0
 62
     5
 10
-43853.724884802781
 20
11424.84035797728
 30
0.0
 11
-43853.56042631944
 21
11423.8539739713
 31
0.0
 12
-43856.601807579063
 22
11423.853790524259
 32
0.0
 13
-43856.601807579063
 23
11423.853790524259
 33
0.0
  0
ARC
  5
1454A
  8
0
 62
     5
 10
-43887.672903767481
 20
11418.673348298989
 30
0.0
 40
31.5
 50
9.3469184525219458
 51
11.284691753673251
  0
POINT
  5
1454B
  8
DEFPOINTS
 62
     0
 10
-43856.601807579063
 20
11423.853790524259
 30
0.0
  0
POINT
  5
1454C
  8
DEFPOINTS
 62
     0
 10
-43918.743999955921
 20
11413.492906073719
 30
0.0
  0
ENDBLK
  5
1454D
  8
0
  0
BLOCK
  8
0
  2
*D4
 70
     1
 10
0.0
 20
0.0
 30
0.0
  3
*D4
  1

  0
LINE
  5
145C4
  8
0
 62
     5
 10
1880.2686676156511
 20
1624.439024776734
 30
0.0
 11
1861.7605495177991
 21
1605.9309066788851
 31
0.0
  0
LINE
  5
145C5
  8
0
 62
     5
 10
1915.624006674974
 20
1589.083685717404
 30
0.0
 11
1897.115888577122
 21
1570.5755676195549
 31
0.0
  0
LINE
  5
145C6
  8
0
 62
     5
 10
1864.588976642545
 20
1604.516693116512
 30
0.0
 11
1895.7016750147491
 21
1573.4039947443021
 31
0.0
  0
SOLID
  5
145C7
  8
0
 62
     5
 10
1864.9425300331391
 20
1604.8702465071051
 30
0.0
 11
1864.2354232519519
 21
1604.1631397259191
 31
0.0
 12
1862.467656298986
 22
1606.638013460072
 32
0.0
 13
1862.467656298986
 23
1606.638013460072
 33
0.0
  0
SOLID
  5
145C8
  8
0
 62
     5
 10
1896.0552284053419
 20
1573.7575481348949
 30
0.0
 11
1895.3481216241551
 21
1573.050441353708
 31
0.0
 12
1897.8229953583079
 22
1571.2826744007421
 32
0.0
 13
1897.8229953583079
 23
1571.2826744007421
 33
0.0
  0
INSERT
  5
145C9
  8
0
  2
*U10
 10
0.0
 20
0.0
 30
0.0
  0
POINT
  5
145CA
  8
DEFPOINTS
 62
     0
 10
1880.975774396838
 20
1625.1461315579199
 30
0.0
  0
POINT
  5
145CB
  8
DEFPOINTS
 62
     0
 10
1916.3311134561609
 20
1589.7907924985909
 30
0.0
  0
POINT
  5
145CC
  8
DEFPOINTS
 62
     0
 10
1897.8229953583079
 20
1571.2826744007421
 30
0.0
  0
ENDBLK
  5
145BA
  8
0
  0
BLOCK
  8
0
  2
*D5
 70
     1
 10
0.0
 20
0.0
 30
0.0
  3
*D5
  1

  0
LINE
  5
145ED
  8
0
 62
     5
 10
1951.4103327361329
 20
1636.430637417692
 30
0.0
 11
1935.7332898008519
 21
1629.8450646636111
 31
0.0
  0
LINE
  5
145EE
  8
0
 62
     5
 10
1885.025676851302
 20
1608.543938192016
 30
0.0
 11
1882.259807054055
 21
1607.3820585662929
 31
0.0
  0
INSERT
  5
145EF
  8
0
  2
*U12
 10
0.0
 20
0.0
 30
0.0
  0
LINE
  5
145F0
  8
0
 62
     5
 10
1887.791546648551
 20
1609.7058178177399
 30
0.0
 11
1932.967420003604
 21
1628.6831850378869
 31
0.0
  0
SOLID
  5
145F1
  8
0
 62
     5
 10
1884.8320302470149
 20
1609.0049164915581
 30
0.0
 11
1885.21932345559
 21
1608.0829598924749
 31
0.0
 12
1887.791546648551
 22
1609.7058178177399
 32
0.0
 13
1887.791546648551
 23
1609.7058178177399
 33
0.0
  0
SOLID
  5
145F2
  8
0
 62
     5
 10
1935.5396431965639
 20
1630.3060429631521
 30
0.0
 11
1935.926936405139
 21
1629.3840863640689
 31
0.0
 12
1932.967420003604
 22
1628.6831850378869
 32
0.0
 13
1932.967420003604
 23
1628.6831850378869
 33
0.0
  0
POINT
  5
145F3
  8
DEFPOINTS
 62
     0
 10
1932.967420003604
 20
1628.6831850378869
 30
0.0
  0
POINT
  5
145F4
  8
DEFPOINTS
 62
     0
 10
1887.791546648551
 20
1609.7058178177399
 30
0.0
  0
ENDBLK
  5
145CF
  8
0
  0
BLOCK
  8
0
  2
*D6
 70
     1
 10
0.0
 20
0.0
 30
0.0
  3
*D6
  1

  0
LINE
  5
145E4
  8
0
 62
     5
 10
1961.031532576535
 20
1627.6396497142559
 30
0.0
 11
1944.409731532453
 21
1624.8683191031109
 31
0.0
  0
LINE
  5
145E5
  8
0
 62
     5
 10
1876.349235119704
 20
1613.520683752517
 30
0.0
 11
1873.3900831017579
 21
1613.0273083024911
 31
0.0
  0
INSERT
  5
145E6
  8
0
  2
*U11
 10
0.0
 20
0.0
 30
0.0
  0
LINE
  5
145E7
  8
0
 62
     5
 10
1879.30838713765
 20
1614.014059202543
 30
0.0
 11
1941.4505795145069
 21
1624.374943653085
 31
0.0
  0
SOLID
  5
145E8
  8
0
 62
     5
 10
1876.2670058780329
 20
1614.013875755508
 30
0.0
 11
1876.431464361375
 21
1613.027491749526
 31
0.0
 12
1879.30838713765
 22
1614.014059202543
 32
0.0
 13
1879.30838713765
 23
1614.014059202543
 33
0.0
  0
SOLID
  5
145E9
  8
0
 62
     5
 10
1944.3275022907819
 20
1625.361511106101
 30
0.0
 11
1944.491960774124
 21
1624.3751271001199
 31
0.0
 12
1941.4505795145069
 22
1624.374943653085
 32
0.0
 13
1941.4505795145069
 23
1624.374943653085
 33
0.0
  0
ARC
  5
145EA
  8
0
 62
     5
 10
1910.3794833260779
 20
1619.194501427814
 30
0.0
 40
31.499999999999321
 50
9.3469184525470848
 51
11.284691753670611
  0
POINT
  5
145EB
  8
DEFPOINTS
 62
     0
 10
1941.4505795145069
 20
1624.374943653085
 30
0.0
  0
POINT
  5
145EC
  8
DEFPOINTS
 62
     0
 10
1879.30838713765
 20
1614.014059202543
 30
0.0
  0
ENDBLK
  5
145DA
  8
0
  0
BLOCK
  8
0
  2
*U7
 70
     1
 10
0.0
 20
0.0
 30
0.0
  3
*U7
  1

  0
TEXT
  5
1468B
  8
0
 62
     2
 10
-43919.522214206743
 20
11392.437178306869
 30
0.0
 40
5.0
  1
50
 50
314.99999999999409
  7
DUKI2-5
  0
ENDBLK
  5
1468D
  8
0
  0
BLOCK
  8
0
  2
*U8
 70
     1
 10
0.0
 20
0.0
 30
0.0
  3
*U8
  1

  0
TEXT
  5
1468F
  8
0
 62
     2
 10
-43858.861614164751
 20
11432.60386876433
 30
0.0
 40
5.0
  1
\U+2205
 50
22.786179436704241
  7
DUKI2-5
  0
TEXT
  5
14690
  8
0
 62
     2
 10
-43855.509044713537
 20
11434.0122077046
 30
0.0
 40
5.0
  1
49
 50
22.786179436704241
  7
DUKI2-5
  0
ENDBLK
  5
14692
  8
0
  0
BLOCK
  8
0
  2
*U9
 70
     1
 10
0.0
 20
0.0
 30
0.0
  3
*U9
  1

  0
TEXT
  5
14694
  8
0
 62
     2
 10
-43849.522499635561
 20
11426.74229105598
 30
0.0
 40
5.0
  1
\U+2205
 50
9.4657781183351766
  7
DUKI2-5
  0
TEXT
  5
14695
  8
0
 62
     2
 10
-43845.935648704719
 20
11427.340321904499
 30
0.0
 40
5.0
  1
63
 50
9.4657781183351766
  7
DUKI2-5
  0
ENDBLK
  5
14697
  8
0
  0
BLOCK
  8
0
  2
*U10
 70
     1
 10
0.0
 20
0.0
 30
0.0
  3
*U10
  1

  0
TEXT
  5
1469A
  8
0
 62
     2
 10
1878.530172886811
 20
1592.958331435693
 30
0.0
 40
5.0
  1
50
 50
314.99999999999409
  7
DUKI2-5
  0
ENDBLK
  5
1469C
  8
0
  0
BLOCK
  8
0
  2
*U11
 70
     1
 10
0.0
 20
0.0
 30
0.0
  3
*U11
  1

  0
TEXT
  5
1469E
  8
0
 62
     2
 10
1948.529887457993
 20
1627.2634441848029
 30
0.0
 40
5.0
  1
\U+2205
 50
9.465778118334617
  7
DUKI2-5
  0
TEXT
  5
1469F
  8
0
 62
     2
 10
1952.1167383888369
 20
1627.861475033319
 30
0.0
 40
5.0
  1
63
 50
9.465778118334617
  7
DUKI2-5
  0
ENDBLK
  5
146A1
  8
0
  0
BLOCK
  8
0
  2
*U12
 70
     1
 10
0.0
 20
0.0
 30
0.0
  3
*U12
  1

  0
TEXT
  5
146A3
  8
0
 62
     2
 10
1939.1907729288121
 20
1633.125021893148
 30
0.0
 40
5.0
  1
\U+2205
 50
22.786179436703929
  7
DUKI2-5
  0
TEXT
  5
146A4
  8
0
 62
     2
 10
1942.5433423800221
 20
1634.533360833419
 30
0.0
 40
5.0
  1
49
 50
22.786179436703929
  7
DUKI2-5
  0
ENDBLK
  5
146A6
  8
0
  0
ENDSEC
  0
SECTION
  2
ENTITIES
  0
TEXT
  5
14037
  8
0
 10
2089.069020068242
 20
1462.753721082556
 30
0.0
 40
20.0
  1
FK 40
  7
BIG
  0
LINE
  5
1417B
  8
0
 10
2011.847989269834
 20
1604.9648410041141
 30
0.0
 11
2016.867217269833
 21
1603.619943004114
 31
0.0
  0
CIRCLE
  5
1417C
  8
0
 10
2013.1929712698329
 20
1599.945703004114
 30
0.0
 40
9.0
  0
LINE
  5
1417D
  8
0
 10
2016.867396269834
 20
1603.619863004114
 30
0.0
 11
2018.2121532698341
 21
1598.6011630041139
 31
0.0
  0
LINE
  5
1417E
  8
0
 10
2014.5376292698329
 20
1594.926607004114
 30
0.0
 11
2018.212304269834
 21
1598.601282004114
 31
0.0
  0
LINE
  5
1417F
  8
0
 10
2009.519086269833
 20
1596.2713830041141
 30
0.0
 11
2014.5378462698329
 21
1594.9266100041141
 31
0.0
  0
LINE
  5
14180
  8
0
 10
2008.173962269834
 20
1601.2908760041139
 30
0.0
 11
2009.518922269833
 21
1596.271409004114
 31
0.0
  0
LINE
  5
14181
  8
0
 10
2008.1740122698329
 20
1601.290914004114
 30
0.0
 11
2011.847997269834
 21
1604.964898004114
 31
0.0
  0
LINE
  5
14182
  8
0
 10
2011.847989269834
 20
1643.926325004114
 30
0.0
 11
2016.867217269833
 21
1645.2712230041141
 31
0.0
  0
CIRCLE
  5
14183
  8
0
 10
2013.1929712698329
 20
1648.9454630041139
 30
0.0
 40
9.0
  0
LINE
  5
14184
  8
0
 10
2016.867396269834
 20
1645.2713030041141
 30
0.0
 11
2018.2121532698341
 21
1650.2900030041139
 31
0.0
  0
LINE
  5
14185
  8
0
 10
2014.5376292698329
 20
1653.9645590041141
 30
0.0
 11
2018.212304269834
 21
1650.2898840041139
 31
0.0
  0
LINE
  5
14186
  8
0
 10
2009.519086269833
 20
1652.619783004114
 30
0.0
 11
2014.5378462698329
 21
1653.964556004114
 31
0.0
  0
LINE
  5
14187
  8
0
 10
2008.173962269834
 20
1647.600290004114
 30
0.0
 11
2009.518922269833
 21
1652.619757004114
 31
0.0
  0
LINE
  5
14188
  8
0
 10
2008.1740122698329
 20
1647.6002520041141
 30
0.0
 11
2011.847997269834
 21
1643.926268004114
 31
0.0
  0
LINE
  5
14189
  8
0
 10
2054.2832342698339
 20
1668.426325004114
 30
0.0
 11
2059.302462269834
 21
1669.7712230041141
 31
0.0
  0
CIRCLE
  5
1418A
  8
0
 10
2055.628216269833
 20
1673.4454630041139
 30
0.0
 40
9.0
  0
LINE
  5
1418B
  8
0
 10
2059.3026412698332
 20
1669.7713030041141
 30
0.0
 11
2060.647398269833
 21
1674.7900030041139
 31
0.0
  0
LINE
  5
1418C
  8
0
 10
2056.972874269833
 20
1678.4645590041141
 30
0.0
 11
2060.6475492698328
 21
1674.7898840041139
 31
0.0
  0
LINE
  5
1418D
  8
0
 10
2051.9543312698329
 20
1677.119783004114
 30
0.0
 11
2056.9730912698351
 21
1678.464556004114
 31
0.0
  0
LINE
  5
1418E
  8
0
 10
2050.609207269833
 20
1672.100290004114
 30
0.0
 11
2051.9541672698351
 21
1677.119757004114
 31
0.0
  0
LINE
  5
1418F
  8
0
 10
2050.6092572698331
 20
1672.1002520041141
 30
0.0
 11
2054.2832422698339
 21
1668.426268004114
 31
0.0
  0
LINE
  5
14190
  8
0
 10
2096.7184792698331
 20
1643.926325004114
 30
0.0
 11
2101.7377072698332
 21
1645.2712230041141
 31
0.0
  0
CIRCLE
  5
14191
  8
0
 10
2098.0634612698341
 20
1648.9454630041139
 30
0.0
 40
9.0
  0
LINE
  5
14192
  8
0
 10
2101.7378862698329
 20
1645.2713030041141
 30
0.0
 11
2103.0826432698341
 21
1650.2900030041139
 31
0.0
  0
LINE
  5
14193
  8
0
 10
2099.4081192698332
 20
1653.9645590041141
 30
0.0
 11
2103.0827942698329
 21
1650.2898840041139
 31
0.0
  0
LINE
  5
14194
  8
0
 10
2094.3895762698339
 20
1652.619783004114
 30
0.0
 11
2099.4083362698329
 21
1653.964556004114
 31
0.0
  0
LINE
  5
14195
  8
0
 10
2093.0444522698331
 20
1647.600290004114
 30
0.0
 11
2094.389412269833
 21
1652.619757004114
 31
0.0
  0
LINE
  5
14196
  8
0
 10
2093.0445022698341
 20
1647.6002520041141
 30
0.0
 11
2096.7184872698331
 21
1643.926268004114
 31
0.0
  0
LINE
  5
14197
  8
0
 10
2096.7184792698331
 20
1604.9648410041141
 30
0.0
 11
2101.7377072698332
 21
1603.619943004114
 31
0.0
  0
CIRCLE
  5
14198
  8
0
 10
2098.0634612698341
 20
1599.945703004114
 30
0.0
 40
9.0
  0
LINE
  5
14199
  8
0
 10
2101.7378862698329
 20
1603.619863004114
 30
0.0
 11
2103.0826432698341
 21
1598.6011630041139
 31
0.0
  0
LINE
  5
1419A
  8
0
 10
2099.4081192698332
 20
1594.926607004114
 30
0.0
 11
2103.0827942698329
 21
1598.601282004114
 31
0.0
  0
LINE
  5
1419B
  8
0
 10
2094.3895762698339
 20
1596.2713830041141
 30
0.0
 11
2099.4083362698329
 21
1594.9266100041141
 31
0.0
  0
LINE
  5
1419C
  8
0
 10
2093.0444522698331
 20
1601.2908760041139
 30
0.0
 11
2094.389412269833
 21
1596.271409004114
 31
0.0
  0
LINE
  5
1419D
  8
0
 10
2093.0445022698341
 20
1601.290914004114
 30
0.0
 11
2096.7184872698331
 21
1604.964898004114
 31
0.0
  0
LINE
  5
1419E
  8
0
 10
2054.2832342698339
 20
1580.4648410041141
 30
0.0
 11
2059.302462269834
 21
1579.119943004114
 31
0.0
  0
CIRCLE
  5
1419F
  8
0
 10
2055.628216269833
 20
1575.445703004114
 30
0.0
 40
9.0
  0
LINE
  5
141A0
  8
0
 10
2059.3026412698332
 20
1579.119863004114
 30
0.0
 11
2060.647398269833
 21
1574.1011630041139
 31
0.0
  0
LINE
  5
141A1
  8
0
 10
2056.972874269833
 20
1570.426607004114
 30
0.0
 11
2060.6475492698328
 21
1574.101282004114
 31
0.0
  0
LINE
  5
141A2
  8
0
 10
2051.9543312698329
 20
1571.7713830041141
 30
0.0
 11
2056.9730912698351
 21
1570.4266100041141
 31
0.0
  0
LINE
  5
141A3
  8
0
 10
2050.609207269833
 20
1576.7908760041139
 30
0.0
 11
2051.9541672698351
 21
1571.771409004114
 31
0.0
  0
LINE
  5
141A4
  8
0
 10
2050.6092572698331
 20
1576.790914004114
 30
0.0
 11
2054.2832422698339
 21
1580.464898004114
 31
0.0
  0
CIRCLE
  5
141A5
  8
0
 10
2075.0395322698341
 20
1552.0011460041139
 30
0.0
 40
7.0
  0
ARC
  5
141A6
  8
0
 10
2055.6281042698338
 20
1624.445583004114
 30
0.0
 40
75.0
 50
324.42138499998123
 51
324.48628199998677
  0
CIRCLE
  5
141A7
  8
0
 10
2108.6611132698331
 20
1571.412574004114
 30
0.0
 40
7.0
  0
ARC
  5
141A8
  8
CENTER
 10
2055.6281042698338
 20
1624.445583004114
 30
0.0
 40
75.0
 50
305.45916899997462
 51
324.42138499998123
  0
LINE
  5
141A9
  8
CENTER
 10
2087.4602862698339
 20
1606.0672640041139
 30
0.0
 11
2108.360271269833
 21
1594.000652004114
 31
0.0
  0
ARC
  5
141AA
  8
CENTER
 10
2055.6281042698338
 20
1624.445583004114
 30
0.0
 40
49.0
 50
316.03959599999507
 51
344.50192800000428
  0
LINE
  5
141AB
  8
CENTER
 10
2071.7333042698328
 20
1564.3401580041141
 30
0.0
 11
2079.002226269833
 21
1537.212171004114
 31
0.0
  0
LINE
  5
141AC
  8
CENTER
 10
2099.7581402698329
 20
1580.315547004114
 30
0.0
 11
2118.7695012698341
 21
1561.3041860041139
 31
0.0
  0
CIRCLE
  5
141AD
  8
0
 10
2108.6611132698331
 20
1571.412574004114
 30
0.0
 40
10.0
  0
CIRCLE
  5
141AE
  8
0
 10
2075.0395322698341
 20
1552.0011460041139
 30
0.0
 40
10.0
  0
CIRCLE
  5
141AF
  8
0
 10
2036.216676269833
 20
1552.0011460041139
 30
0.0
 40
7.0
  0
ARC
  5
141B0
  8
CENTER
 10
2055.6281042698338
 20
1624.445583004114
 30
0.0
 40
75.0
 50
245.08781599997559
 51
264.63772999999293
  0
CIRCLE
  5
141B1
  8
0
 10
2002.595095269834
 20
1571.412574004114
 30
0.0
 40
7.0
  0
ARC
  5
141B2
  8
CENTER
 10
2055.6281042698338
 20
1624.445583004114
 30
0.0
 40
75.0
 50
216.10468599998759
 51
235.48657899998
  0
LINE
  5
141B3
  8
CENTER
 10
2023.200030269833
 20
1605.7232260041139
 30
0.0
 11
2002.890854269833
 21
1593.9977170041141
 31
0.0
  0
ARC
  5
141B4
  8
CENTER
 10
2055.6281042698338
 20
1624.445583004114
 30
0.0
 40
49.0
 50
194.7326960000037
 51
224.4949260000117
  0
LINE
  5
141B5
  8
CENTER
 10
2039.9510092698331
 20
1565.9378680041141
 30
0.0
 11
2032.158394269833
 21
1536.8554320041139
 31
0.0
  0
LINE
  5
141B6
  8
CENTER
 10
2012.563219269834
 20
1581.380698004114
 30
0.0
 11
1991.1755092698329
 21
1559.9929880041141
 31
0.0
  0
CIRCLE
  5
141B7
  8
0
 10
2036.216676269833
 20
1552.0011460041139
 30
0.0
 40
10.0
  0
CIRCLE
  5
141B8
  8
0
 10
2002.595095269834
 20
1571.412574004114
 30
0.0
 40
10.0
  0
ARC
  5
141B9
  8
0
 10
2055.6281042698338
 20
1624.445583004114
 30
0.0
 40
88.0
 50
223.3417580000289
 51
316.65824199997093
  0
ARC
  5
141BA
  8
CENTER
 10
2055.6281042698338
 20
1624.445583004114
 30
0.0
 40
75.0
 50
275.5125999999936
 51
294.77074600000151
  0
ARC
  5
141BB
  8
CENTER
 10
2055.6281042698338
 20
1624.445583004114
 30
0.0
 40
49.0
 50
255.65702700000409
 51
286.21228399998239
  0
LINE
  5
141BC
  8
0
 10
1991.6281042698331
 20
1564.0469080041139
 30
0.0
 11
1991.6281042698331
 21
1624.445583004114
 31
0.0
  0
LINE
  5
141BD
  8
0
 10
2119.6281042698338
 20
1564.0469080041139
 30
0.0
 11
2119.6281042698338
 21
1624.445583004114
 31
0.0
  0
ARC
  5
141BE
  8
CENTER
 10
2055.6281042698338
 20
1624.445583004114
 30
0.0
 40
49.0
 50
15.498071999995769
 51
43.960404000004999
  0
ARC
  5
141BF
  8
CENTER
 10
2055.6281042698338
 20
1624.445583004114
 30
0.0
 40
49.0
 50
73.787716000017625
 51
104.34297299999579
  0
ARC
  5
141C0
  8
CENTER
 10
2055.6281042698338
 20
1624.445583004114
 30
0.0
 40
49.0
 50
135.5050739999883
 51
165.2673039999963
  0
LINE
  5
141C1
  8
CENTER
 10
2023.200030269833
 20
1643.1679400041139
 30
0.0
 11
2002.890854269833
 21
1654.893449004114
 31
0.0
  0
LINE
  5
141C2
  8
CENTER
 10
2087.4602862698339
 20
1642.823902004114
 30
0.0
 11
2108.360271269833
 21
1654.890514004114
 31
0.0
  0
CIRCLE
  5
141C3
  8
0
 10
2055.6281042698338
 20
1624.445583004114
 30
0.0
 40
36.0
  0
CIRCLE
  5
141C4
  8
0
 10
2055.6281042698338
 20
1624.445583004114
 30
0.0
 40
63.0
  0
ARC
  5
141C5
  8
0
 10
2055.6281042698338
 20
1624.445583004114
 30
0.0
 40
75.0
 50
35.513718000013192
 51
35.578615000018686
  0
ARC
  5
141C6
  8
CENTER
 10
2055.6281042698338
 20
1624.445583004114
 30
0.0
 40
75.0
 50
35.578615000018686
 51
54.540831000025342
  0
ARC
  5
141C7
  8
CENTER
 10
2055.6281042698338
 20
1624.445583004114
 30
0.0
 40
75.0
 50
65.229253999998463
 51
84.487400000006417
  0
ARC
  5
141C8
  8
CENTER
 10
2055.6281042698338
 20
1624.445583004114
 30
0.0
 40
75.0
 50
95.362270000007044
 51
114.9121840000244
  0
ARC
  5
141C9
  8
CENTER
 10
2055.6281042698338
 20
1624.445583004114
 30
0.0
 40
75.0
 50
124.51342100002
 51
143.89531400001241
  0
CIRCLE
  5
141CA
  8
0
 10
2002.595095269834
 20
1677.478592004114
 30
0.0
 40
7.0
  0
CIRCLE
  5
141CB
  8
0
 10
2002.595095269834
 20
1677.478592004114
 30
0.0
 40
10.0
  0
CIRCLE
  5
141CC
  8
0
 10
2036.216676269833
 20
1696.8900200041139
 30
0.0
 40
7.0
  0
CIRCLE
  5
141CD
  8
0
 10
2036.216676269833
 20
1696.8900200041139
 30
0.0
 40
10.0
  0
CIRCLE
  5
141CE
  8
0
 10
2075.0395322698341
 20
1696.8900200041139
 30
0.0
 40
7.0
  0
CIRCLE
  5
141CF
  8
0
 10
2075.0395322698341
 20
1696.8900200041139
 30
0.0
 40
10.0
  0
CIRCLE
  5
141D0
  8
0
 10
2108.6611132698331
 20
1677.478592004114
 30
0.0
 40
10.0
  0
CIRCLE
  5
141D1
  8
0
 10
2108.6611132698331
 20
1677.478592004114
 30
0.0
 40
7.0
  0
LINE
  5
141D2
  8
CENTER
 10
2099.7581402698329
 20
1668.5756190041141
 30
0.0
 11
2118.7695012698341
 21
1687.5869800041139
 31
0.0
  0
LINE
  5
141D3
  8
CENTER
 10
2071.7333042698328
 20
1684.551008004114
 30
0.0
 11
2079.002226269833
 21
1711.6789950041141
 31
0.0
  0
LINE
  5
141D4
  8
CENTER
 10
2012.563219269834
 20
1667.5104680041129
 30
0.0
 11
1991.1755092698329
 21
1688.898178004114
 31
0.0
  0
LINE
  5
141D5
  8
CENTER
 10
2039.9510092698331
 20
1682.953298004114
 30
0.0
 11
2032.158394269833
 21
1712.0357340041139
 31
0.0
  0
ARC
  5
141D6
  8
0
 10
2055.6281042698338
 20
1624.445583004114
 30
0.0
 40
88.0
 50
43.341758000028968
 51
136.65824199997101
  0
LINE
  5
141D7
  8
0
 10
2119.6281042698338
 20
1684.844258004114
 30
0.0
 11
2119.6281042698338
 21
1624.445583004114
 31
0.0
  0
LINE
  5
141D8
  8
0
 10
1991.6281042698331
 20
1684.844258004114
 30
0.0
 11
1991.6281042698331
 21
1624.445583004114
 31
0.0
  0
LINE
  5
141D9
  8
CENTER
 10
1982.6281042698331
 20
1624.445583004114
 30
0.0
 11
2128.6281042698338
 21
1624.445583004114
 31
0.0
  0
LINE
  5
141DA
  8
CENTER
 10
2055.6281042698338
 20
1527.445583004114
 30
0.0
 11
2055.6281042698338
 21
1721.445583004114
 31
0.0
  0
LINE
  5
141FE
  8
CENTER
 10
2198.0632204569688
 20
1552.0011460041139
 30
0.0
 11
2223.9536185337179
 21
1552.0011460041139
 31
0.0
  0
LINE
  5
141FF
  8
HIDE
 10
2202.2148201555478
 20
1562.0011460041139
 30
0.0
 11
2215.2148201555478
 21
1562.0011460041139
 31
0.0
  0
LINE
  5
14200
  8
HIDE
 10
2215.2148201555478
 20
1559.0011460041139
 30
0.0
 11
2220.2148201555492
 21
1559.0011460041139
 31
0.0
  0
LINE
  5
14201
  8
HIDE
 10
2215.2148201555478
 20
1545.0011460041139
 30
0.0
 11
2220.2148201555492
 21
1545.0011460041139
 31
0.0
  0
LINE
  5
14202
  8
HIDE
 10
2202.2148201555478
 20
1542.0011460041139
 30
0.0
 11
2215.2148201555478
 21
1542.0011460041139
 31
0.0
  0
LINE
  5
14203
  8
HIDE
 10
2215.2148201555478
 20
1562.0011460041139
 30
0.0
 11
2215.2148201555478
 21
1542.0011460041139
 31
0.0
  0
LINE
  5
14204
  8
HIDE
 10
2215.2148201555478
 20
1706.8900200041139
 30
0.0
 11
2215.2148201555478
 21
1686.8900200041139
 31
0.0
  0
LINE
  5
14205
  8
HIDE
 10
2202.2148201555478
 20
1686.8900200041139
 30
0.0
 11
2215.2148201555478
 21
1686.8900200041139
 31
0.0
  0
LINE
  5
14206
  8
HIDE
 10
2215.2148201555478
 20
1689.8900200041139
 30
0.0
 11
2220.2148201555492
 21
1689.8900200041139
 31
0.0
  0
LINE
  5
14207
  8
HIDE
 10
2215.2148201555478
 20
1703.8900200041139
 30
0.0
 11
2220.2148201555492
 21
1703.8900200041139
 31
0.0
  0
LINE
  5
14208
  8
HIDE
 10
2202.2148201555478
 20
1706.8900200041139
 30
0.0
 11
2215.2148201555478
 21
1706.8900200041139
 31
0.0
  0
LINE
  5
14209
  8
CENTER
 10
2198.0632204569688
 20
1696.8900200041139
 30
0.0
 11
2223.9536185337179
 21
1696.8900200041139
 31
0.0
  0
LINE
  5
1420A
  8
0
 10
2202.2148201555478
 20
1536.445583004114
 30
0.0
 11
2220.2148201555492
 21
1536.445583004114
 31
0.0
  0
LINE
  5
1420B
  8
0
 10
2184.2148201555492
 20
1561.445583004114
 30
0.0
 11
2202.2148201555478
 21
1561.445583004114
 31
0.0
  0
LINE
  5
1420C
  8
0
 10
2202.2148201555478
 20
1712.445583004114
 30
0.0
 11
2220.2148201555492
 21
1712.445583004114
 31
0.0
  0
LINE
  5
1420D
  8
0
 10
2184.2148201555492
 20
1687.445583004114
 30
0.0
 11
2202.2148201555478
 21
1687.445583004114
 31
0.0
  0
LINE
  5
1420E
  8
0
 10
2263.2148201555478
 20
1564.445583004114
 30
0.0
 11
2220.2148201555492
 21
1564.445583004114
 31
0.0
  0
LINE
  5
1420F
  8
0
 10
2263.2148201555478
 20
1684.445583004114
 30
0.0
 11
2220.2148201555492
 21
1684.445583004114
 31
0.0
  0
LINE
  5
14210
  8
0
 10
2263.2148201555478
 20
1684.445583004114
 30
0.0
 11
2263.2148201555478
 21
1564.445583004114
 31
0.0
  0
LINE
  5
14211
  8
0
 10
2220.2148201555492
 20
1712.445583004114
 30
0.0
 11
2220.2148201555492
 21
1536.445583004114
 31
0.0
  0
LINE
  5
14212
  8
0
 10
2202.2148201555478
 20
1712.445583004114
 30
0.0
 11
2202.2148201555478
 21
1536.445583004114
 31
0.0
  0
LINE
  5
14213
  8
0
 10
2184.2148201555492
 20
1687.445583004114
 30
0.0
 11
2184.2148201555492
 21
1561.445583004114
 31
0.0
  0
LINE
  5
14214
  8
CENTER
 10
2169.2961108701779
 20
1624.445583004114
 30
0.0
 11
2270.939897648002
 21
1624.445583004114
 31
0.0
  0
LINE
  5
14215
  8
HIDE
 10
2195.2148201555492
 20
1648.445583004114
 30
0.0
 11
2211.2148201555478
 21
1648.445583004114
 31
0.0
  0
LINE
  5
14216
  8
HIDE
 10
2247.2148201555492
 20
1648.445583004114
 30
0.0
 11
2263.2148201555478
 21
1648.445583004114
 31
0.0
  0
LINE
  5
14217
  8
HIDE
 10
2195.2148201555492
 20
1600.445583004114
 30
0.0
 11
2211.2148201555478
 21
1600.445583004114
 31
0.0
  0
LINE
  5
14218
  8
HIDE
 10
2247.2148201555492
 20
1600.445583004114
 30
0.0
 11
2263.2148201555478
 21
1600.445583004114
 31
0.0
  0
LINE
  5
14219
  8
HIDE
 10
2195.2148201555492
 20
1644.445583004114
 30
0.0
 11
2211.2148201555478
 21
1644.445583004114
 31
0.0
  0
LINE
  5
1421A
  8
HIDE
 10
2247.2148201555492
 20
1644.445583004114
 30
0.0
 11
2263.2148201555478
 21
1644.445583004114
 31
0.0
  0
LINE
  5
1421B
  8
HIDE
 10
2195.2148201555492
 20
1604.445583004114
 30
0.0
 11
2211.2148201555478
 21
1604.445583004115
 31
0.0
  0
LINE
  5
1421C
  8
HIDE
 10
2247.2148201555492
 20
1604.445583004114
 30
0.0
 11
2263.2148201555478
 21
1604.445583004114
 31
0.0
  0
CIRCLE
  5
1421D
  8
HIDE
 10
2238.2148201555478
 20
1594.445583004114
 30
0.0
 40
6.0
  0
CIRCLE
  5
1421E
  8
HIDE
 10
2238.2148201555478
 20
1654.445583004114
 30
0.0
 40
6.0
  0
CIRCLE
  5
1421F
  8
HIDE
 10
2220.2148201555492
 20
1594.445583004114
 30
0.0
 40
6.0
  0
CIRCLE
  5
14220
  8
HIDE
 10
2220.2148201555492
 20
1654.445583004114
 30
0.0
 40
6.0
  0
ARC
  5
14221
  8
HIDE
 10
2228.6148201555479
 20
1663.8455830041139
 30
0.0
 40
0.6000000000000015
 50
0.0
 51
90.0
  0
ARC
  5
14222
  8
HIDE
 10
2212.3148201555482
 20
1663.345583004113
 30
0.0
 40
1.1000000000000001
 50
90.0
 51
180.0
  0
ARC
  5
14223
  8
HIDE
 10
2228.1148201555479
 20
1645.545583004114
 30
0.0
 40
1.1000000000000001
 50
270.0
 51
0.0
  0
ARC
  5
14224
  8
HIDE
 10
2228.1148201555479
 20
1603.3455830041139
 30
0.0
 40
1.1000000000000001
 50
0.0
 51
90.0
  0
ARC
  5
14225
  8
HIDE
 10
2211.8148201555482
 20
1645.045583004114
 30
0.0
 40
0.6000000000000015
 50
180.0
 51
270.0
  0
ARC
  5
14226
  8
HIDE
 10
2211.8148201555482
 20
1603.8455830041139
 30
0.0
 40
0.6000000000000015
 50
90.0
 51
180.0
  0
ARC
  5
14227
  8
HIDE
 10
2228.6148201555479
 20
1585.045583004114
 30
0.0
 40
0.6000000000000015
 50
270.0
 51
0.0
  0
ARC
  5
14228
  8
HIDE
 10
2212.3148201555482
 20
1585.545583004114
 30
0.0
 40
1.1000000000000001
 50
180.0
 51
270.0
  0
LINE
  5
14229
  8
HIDE
 10
2211.2148201555478
 20
1656.995583004114
 30
0.0
 11
2214.7836600584792
 21
1656.995583004114
 31
0.0
  0
LINE
  5
1422A
  8
HIDE
 10
2212.3148201555482
 20
1664.445583004114
 30
0.0
 11
2228.6148201555479
 21
1664.445583004114
 31
0.0
  0
LINE
  5
1422B
  8
HIDE
 10
2229.2148201555492
 20
1651.8955830041141
 30
0.0
 11
2225.6459802526169
 21
1651.8955830041141
 31
0.0
  0
LINE
  5
1422C
  8
HIDE
 10
2222.361695799751
 20
1660.0483434816219
 30
0.0
 11
2229.2148201555492
 21
1660.695583004114
 31
0.0
  0
LINE
  5
1422D
  8
HIDE
 10
2211.2148201555478
 20
1651.8955830041141
 30
0.0
 11
2214.7836600584792
 21
1651.8955830041141
 31
0.0
  0
LINE
  5
1422E
  8
HIDE
 10
2211.2148201555478
 20
1596.995583004114
 30
0.0
 11
2214.7836600584792
 21
1596.995583004114
 31
0.0
  0
LINE
  5
1422F
  8
HIDE
 10
2211.8148201555482
 20
1644.445583004114
 30
0.0
 11
2228.1148201555479
 21
1644.445583004114
 31
0.0
  0
LINE
  5
14230
  8
HIDE
 10
2211.8148201555482
 20
1604.445583004114
 30
0.0
 11
2228.1148201555479
 21
1604.445583004114
 31
0.0
  0
LINE
  5
14231
  8
HIDE
 10
2229.2148201555492
 20
1596.995583004114
 30
0.0
 11
2225.6459802526169
 21
1596.995583004114
 31
0.0
  0
LINE
  5
14232
  8
HIDE
 10
2211.2148201555478
 20
1591.8955830041141
 30
0.0
 11
2214.7836600584792
 21
1591.8955830041141
 31
0.0
  0
LINE
  5
14233
  8
HIDE
 10
2228.6148201555479
 20
1584.445583004114
 30
0.0
 11
2212.3148201555482
 21
1584.445583004114
 31
0.0
  0
LINE
  5
14234
  8
HIDE
 10
2222.361695799751
 20
1588.8428225266059
 30
0.0
 11
2229.2148201555492
 21
1588.195583004114
 31
0.0
  0
LINE
  5
14235
  8
HIDE
 10
2211.2148201555478
 20
1585.545583004114
 30
0.0
 11
2211.2148201555478
 21
1663.345583004113
 31
0.0
  0
LINE
  5
14236
  8
HIDE
 10
2229.2148201555492
 20
1663.8455830041139
 30
0.0
 11
2229.2148201555492
 21
1585.045583004114
 31
0.0
  0
LINE
  5
14237
  8
HIDE
 10
2229.0850298103551
 20
1660.6833250270679
 30
0.0
 11
2229.2148201555492
 21
1660.8131153722611
 31
0.0
  0
ARC
  5
14238
  8
HIDE
 10
2229.8148201555482
 20
1585.045583004114
 30
0.0
 40
0.6000000000000015
 50
180.0
 51
270.0
  0
ARC
  5
14239
  8
HIDE
 10
2246.1148201555479
 20
1585.545583004114
 30
0.0
 40
1.1000000000000001
 50
270.0
 51
0.0
  0
ARC
  5
1423A
  8
HIDE
 10
2230.3148201555482
 20
1603.3455830041139
 30
0.0
 40
1.1000000000000001
 50
90.0
 51
180.0
  0
ARC
  5
1423B
  8
HIDE
 10
2230.3148201555491
 20
1645.545583004114
 30
0.0
 40
1.1000000000000001
 50
180.0
 51
270.0
  0
ARC
  5
1423C
  8
HIDE
 10
2246.6148201555479
 20
1603.8455830041139
 30
0.0
 40
0.6
 50
0.0
 51
90.0
  0
ARC
  5
1423D
  8
HIDE
 10
2246.6148201555479
 20
1645.045583004114
 30
0.0
 40
0.6000000000000015
 50
270.0
 51
0.0
  0
ARC
  5
1423E
  8
HIDE
 10
2229.8148201555491
 20
1663.8455830041139
 30
0.0
 40
0.6000000000000015
 50
90.0
 51
180.0
  0
ARC
  5
1423F
  8
HIDE
 10
2246.1148201555479
 20
1663.345583004113
 30
0.0
 40
1.1000000000000001
 50
0.0
 51
90.0
  0
LINE
  5
14240
  8
HIDE
 10
2247.2148201555478
 20
1591.8955830041141
 30
0.0
 11
2243.6459802526169
 21
1591.8955830041141
 31
0.0
  0
LINE
  5
14241
  8
HIDE
 10
2246.1148201555479
 20
1584.445583004114
 30
0.0
 11
2229.8148201555482
 21
1584.445583004114
 31
0.0
  0
LINE
  5
14242
  8
HIDE
 10
2229.2148201555469
 20
1596.995583004114
 30
0.0
 11
2232.7836600584792
 21
1596.995583004114
 31
0.0
  0
LINE
  5
14243
  8
HIDE
 10
2236.0679445113451
 20
1588.8428225266059
 30
0.0
 11
2229.2148201555469
 21
1588.195583004114
 31
0.0
  0
LINE
  5
14244
  8
HIDE
 10
2247.2148201555478
 20
1596.995583004114
 30
0.0
 11
2243.6459802526169
 21
1596.995583004114
 31
0.0
  0
LINE
  5
14245
  8
HIDE
 10
2247.2148201555478
 20
1651.8955830041141
 30
0.0
 11
2243.6459802526169
 21
1651.8955830041141
 31
0.0
  0
LINE
  5
14246
  8
HIDE
 10
2246.6148201555479
 20
1604.445583004114
 30
0.0
 11
2230.3148201555482
 21
1604.445583004114
 31
0.0
  0
LINE
  5
14247
  8
HIDE
 10
2246.6148201555479
 20
1644.445583004114
 30
0.0
 11
2230.3148201555491
 21
1644.445583004114
 31
0.0
  0
LINE
  5
14248
  8
HIDE
 10
2229.2148201555492
 20
1651.8955830041141
 30
0.0
 11
2232.7836600584792
 21
1651.8955830041141
 31
0.0
  0
LINE
  5
14249
  8
HIDE
 10
2247.2148201555478
 20
1656.995583004114
 30
0.0
 11
2243.6459802526169
 21
1656.995583004114
 31
0.0
  0
LINE
  5
1424A
  8
HIDE
 10
2229.8148201555491
 20
1664.445583004114
 30
0.0
 11
2246.1148201555488
 21
1664.445583004114
 31
0.0
  0
LINE
  5
1424B
  8
HIDE
 10
2236.0679445113451
 20
1660.0483434816219
 30
0.0
 11
2229.2148201555492
 21
1660.695583004114
 31
0.0
  0
LINE
  5
1424C
  8
HIDE
 10
2247.2148201555478
 20
1663.345583004113
 30
0.0
 11
2247.2148201555478
 21
1585.545583004114
 31
0.0
  0
LINE
  5
1424D
  8
HIDE
 10
2229.2148201555492
 20
1660.8131153722611
 30
0.0
 11
2229.344610500742
 21
1660.6833250270679
 31
0.0
  0
LINE
  5
144A8
  8
CENTER
 10
2171.2148201555492
 20
1624.445583004114
 30
0.0
 11
2198.2148201555492
 21
1624.445583004114
 31
0.0
  0
LINE
  5
144A9
  8
0
 10
2172.2148201555492
 20
1592.945583004114
 30
0.0
 11
2172.2148201555419
 21
1655.945583004114
 31
0.0
  0
LINE
  5
144AA
  8
0
 10
2195.2148201555492
 20
1599.945583004119
 30
0.0
 11
2195.2148201555492
 21
1648.9455830041099
 31
0.0
  0
LINE
  5
144AB
  8
0
 10
2194.7148201555492
 20
1592.945583004114
 30
0.0
 11
2194.7148201555492
 21
1655.945583004114
 31
0.0
  0
LINE
  5
144AC
  8
0
 10
2194.714820155541
 20
1649.4455830041261
 30
0.0
 11
2195.214820155541
 21
1648.945583004114
 31
0.0
  0
LINE
  5
144AD
  8
HIDE
 10
2195.2148201555492
 20
1644.445583004114
 30
0.0
 11
2172.214820155556
 21
1644.445583004114
 31
0.0
  0
LINE
  5
144AE
  8
HIDE
 10
2195.2148201555492
 20
1643.695583004112
 30
0.0
 11
2172.214820155556
 21
1643.6955830041161
 31
0.0
  0
LINE
  5
144AF
  8
CENTER
 10
2179.2148201555492
 20
1656.8979293840989
 30
0.0
 11
2179.2148201555492
 21
1644.445583004114
 31
0.0
  0
LINE
  5
144B0
  8
HIDE
 10
2183.214820155556
 20
1655.945583004114
 30
0.0
 11
2183.214820155571
 21
1644.445583004112
 31
0.0
  0
LINE
  5
144B1
  8
HIDE
 10
2175.214820155556
 20
1655.945583004114
 30
0.0
 11
2175.214820155556
 21
1644.445583004114
 31
0.0
  0
LINE
  5
144B2
  8
HIDE
 10
2182.6148201555502
 20
1655.945583004114
 30
0.0
 11
2182.6148201555652
 21
1644.445583004114
 31
0.0
  0
LINE
  5
144B3
  8
HIDE
 10
2175.8148201555541
 20
1655.945583004114
 30
0.0
 11
2175.8148201555468
 21
1644.445583004114
 31
0.0
  0
LINE
  5
144B4
  8
HIDE
 10
2182.6148201555502
 20
1645.445583004114
 30
0.0
 11
2175.8148201555468
 21
1645.445583004114
 31
0.0
  0
LINE
  5
144B5
  8
HIDE
 10
2182.6148201555502
 20
1645.445583004114
 30
0.0
 11
2183.214820155556
 21
1646.4848134886511
 31
0.0
  0
LINE
  5
144B6
  8
HIDE
 10
2175.8148201555468
 20
1645.445583004114
 30
0.0
 11
2175.214820155556
 21
1646.4848134886511
 31
0.0
  0
LINE
  5
144B7
  8
HIDE
 10
2183.214820155556
 20
1646.4848134886511
 30
0.0
 11
2175.214820155556
 21
1646.4848134886511
 31
0.0
  0
LINE
  5
144B8
  8
HIDE
 10
2183.214820155556
 20
1654.4848134886511
 30
0.0
 11
2175.214820155556
 21
1654.4848134886511
 31
0.0
  0
LINE
  5
144B9
  8
0
 10
2194.7148201555492
 20
1655.945583004114
 30
0.0
 11
2172.2148201555419
 21
1655.945583004114
 31
0.0
  0
LINE
  5
144BA
  8
0
 10
2194.714820155541
 20
1599.4455830041011
 30
0.0
 11
2195.214820155541
 21
1599.945583004114
 31
0.0
  0
LINE
  5
144BB
  8
0
 10
2194.7148201555492
 20
1592.945583004114
 30
0.0
 11
2172.2148201555419
 21
1592.945583004114
 31
0.0
  0
LINE
  5
144BC
  8
HIDE
 10
2195.2148201555492
 20
1604.445583004114
 30
0.0
 11
2172.214820155556
 21
1604.4455830041099
 31
0.0
  0
LINE
  5
144BD
  8
HIDE
 10
2195.2148201555492
 20
1605.1955830041161
 30
0.0
 11
2172.214820155556
 21
1605.195583004109
 31
0.0
  0
LINE
  5
144BE
  8
CENTER
 10
2179.2148201555492
 20
1591.9932366241269
 30
0.0
 11
2179.2148201555492
 21
1604.445583004112
 31
0.0
  0
LINE
  5
144BF
  8
HIDE
 10
2183.214820155556
 20
1592.945583004112
 30
0.0
 11
2183.214820155571
 21
1604.445583004114
 31
0.0
  0
LINE
  5
144C0
  8
HIDE
 10
2175.214820155556
 20
1592.9455830041099
 30
0.0
 11
2175.214820155556
 21
1604.4455830041099
 31
0.0
  0
LINE
  5
144C1
  8
HIDE
 10
2182.6148201555502
 20
1592.945583004112
 30
0.0
 11
2182.6148201555652
 21
1604.445583004112
 31
0.0
  0
LINE
  5
144C2
  8
HIDE
 10
2175.8148201555541
 20
1592.9455830041099
 30
0.0
 11
2175.8148201555468
 21
1604.4455830041099
 31
0.0
  0
LINE
  5
144C3
  8
HIDE
 10
2182.6148201555502
 20
1603.445583004112
 30
0.0
 11
2175.8148201555468
 21
1603.4455830041099
 31
0.0
  0
LINE
  5
144C4
  8
HIDE
 10
2182.6148201555502
 20
1603.445583004112
 30
0.0
 11
2183.214820155556
 21
1602.406352519575
 31
0.0
  0
LINE
  5
144C5
  8
HIDE
 10
2175.8148201555468
 20
1603.4455830041099
 30
0.0
 11
2175.214820155556
 21
1602.4063525195729
 31
0.0
  0
LINE
  5
144C6
  8
HIDE
 10
2183.214820155556
 20
1602.406352519575
 30
0.0
 11
2175.214820155556
 21
1602.4063525195729
 31
0.0
  0
LINE
  5
144C7
  8
HIDE
 10
2183.214820155556
 20
1594.406352519575
 30
0.0
 11
2175.214820155556
 21
1594.4063525195729
 31
0.0
  0
LINE
  5
14592
  8
CENTER
 10
2021.2882115081529
 20
1624.445583004114
 30
0.0
 11
2089.9679970314842
 21
1624.445583004114
 31
0.0
  0
LINE
  5
14593
  8
0
 10
2059.7549435666228
 20
1593.217083241582
 30
0.0
 11
2086.8566040323649
 21
1620.3187437073291
 31
0.0
  0
LINE
  5
14594
  8
0
 10
2024.3996045073011
 20
1628.572422300917
 30
0.0
 11
2051.5012649730061
 21
1655.6740827666399
 31
0.0
  0
LINE
  5
14595
  8
CENTER
 10
2055.6281042698188
 20
1590.1056902424491
 30
0.0
 11
2055.6281042698188
 21
1658.785475765779
 31
0.0
  0
LINE
  5
14596
  8
0
 10
2051.5012649730279
 20
1593.2170832415841
 30
0.0
 11
2024.3996045073011
 21
1620.318743707327
 31
0.0
  0
LINE
  5
14597
  8
0
 10
2086.8566040323649
 20
1628.5724223009131
 30
0.0
 11
2059.7549435666301
 21
1655.6740827666461
 31
0.0
  0
LINE
  5
14599
  8
HIDE
 10
2051.628104269811
 20
1655.6905826040461
 30
0.0
 11
2051.6281042698042
 21
1644.0415009463729
 31
0.0
  0
LINE
  5
1459A
  8
HIDE
 10
2059.628104269811
 20
1655.6905826040511
 30
0.0
 11
2059.628104269811
 21
1644.0415009463841
 31
0.0
  0
LINE
  5
1459B
  8
HIDE
 10
2052.2281042698169
 20
1655.761553370683
 30
0.0
 11
2052.22810426981
 21
1644.1544642508979
 31
0.0
  0
LINE
  5
1459C
  8
HIDE
 10
2059.028104269798
 20
1655.7615533706889
 30
0.0
 11
2059.0281042698198
 21
1644.1544642509041
 31
0.0
  0
LINE
  5
1459D
  8
HIDE
 10
2052.2281042698169
 20
1645.445583004114
 30
0.0
 11
2059.0281042698198
 21
1645.445583004114
 31
0.0
  0
LINE
  5
1459E
  8
HIDE
 10
2052.2281042698169
 20
1645.445583004114
 30
0.0
 11
2051.628104269811
 21
1646.4848134886511
 31
0.0
  0
LINE
  5
1459F
  8
HIDE
 10
2059.0281042698198
 20
1645.445583004114
 30
0.0
 11
2059.628104269811
 21
1646.4848134886511
 31
0.0
  0
LINE
  5
145A0
  8
HIDE
 10
2051.628104269811
 20
1646.4848134886511
 30
0.0
 11
2059.628104269811
 21
1646.4848134886511
 31
0.0
  0
LINE
  5
145A1
  8
HIDE
 10
2051.628104269811
 20
1654.4848134886511
 30
0.0
 11
2059.628104269811
 21
1654.4848134886511
 31
0.0
  0
ARC
  5
145A2
  8
0
 10
2055.6281042698329
 20
1624.445583004114
 30
0.0
 40
31.5
 50
82.471995182697356
 51
97.52800481730263
  0
ARC
  5
145A3
  8
0
 10
2055.6281042698329
 20
1624.445583004114
 30
0.0
 40
31.5
 50
172.4719951827889
 51
187.5280048172111
  0
ARC
  5
145A4
  8
0
 10
2055.6281042698329
 20
1624.445583004114
 30
0.0
 40
31.5
 50
262.4719951826973
 51
277.52800481730259
  0
ARC
  5
145A5
  8
0
 10
2055.6281042698329
 20
1624.445583004114
 30
0.0
 40
31.5
 50
352.47199518278887
 51
7.5280048172111238
  0
CIRCLE
  5
145A6
  8
0
 10
2055.6281042698329
 20
1624.445583004114
 30
0.0
 40
24.5
  0
LINE
  5
145AD
  8
HIDE
 10
2051.6281042697819
 20
1593.2005834042029
 30
0.0
 11
2051.6281042697901
 21
1608.180205664527
 31
0.0
  0
LINE
  5
145AE
  8
HIDE
 10
2059.6281042697819
 20
1593.200583404189
 30
0.0
 11
2059.628104269796
 21
1608.180205664511
 31
0.0
  0
LINE
  5
145AF
  8
HIDE
 10
2052.2281042697882
 20
1593.1296126375639
 30
0.0
 11
2052.228104269795
 21
1608.04428732361
 31
0.0
  0
LINE
  5
145B0
  8
HIDE
 10
2059.0281042697688
 20
1593.129612637551
 30
0.0
 11
2059.028104269813
 21
1608.0442873236029
 31
0.0
  0
LINE
  5
145B1
  8
HIDE
 10
2052.228104269795
 20
1603.4455830041341
 30
0.0
 11
2059.028104269798
 21
1603.4455830041261
 31
0.0
  0
LINE
  5
145B2
  8
HIDE
 10
2052.228104269795
 20
1603.4455830041341
 30
0.0
 11
2051.6281042697901
 21
1602.4063525195991
 31
0.0
  0
LINE
  5
145B3
  8
HIDE
 10
2059.028104269798
 20
1603.4455830041261
 30
0.0
 11
2059.6281042697892
 21
1602.4063525195891
 31
0.0
  0
LINE
  5
145B4
  8
HIDE
 10
2051.6281042697901
 20
1602.4063525195991
 30
0.0
 11
2059.6281042697892
 21
1602.4063525195891
 31
0.0
  0
LINE
  5
145B5
  8
HIDE
 10
2051.6281042697819
 20
1594.4063525195979
 30
0.0
 11
2059.6281042697819
 21
1594.4063525195891
 31
0.0
  0
ARC
  5
145B6
  8
HIDE
 10
2055.6281042698329
 20
1624.445583004114
 30
0.0
 40
20.0
 50
270.0
 51
180.0
  0
CIRCLE
  5
145B7
  8
0
 10
2055.6281042698329
 20
1624.445583004115
 30
0.0
 40
19.25
  0
ENDSEC
  0
EOF
