  0
SECTION
  2
HEADER
  9
$ACADVER
  1
AC1009
  9
$INSBASE
 10
0.0
 20
0.0
 30
0.0
  9
$EXTMIN
 10
1788.5473483518281
 20
1467.947885561749
 30
0.0
  9
$EXTMAX
 10
2275.3541152010871
 20
1703.881434190745
 30
0.0
  9
$LIMMIN
 10
0.0
 20
0.0
  9
$LIMMAX
 10
12.0
 20
9.0
  9
$ORTHOMODE
 70
     0
  9
$REGENMODE
 70
     1
  9
$FILLMODE
 70
     1
  9
$QTEXTMODE
 70
     0
  9
$MIRRTEXT
 70
     0
  9
$DRAGMODE
 70
     2
  9
$LTSCALE
 40
5.0
  9
$OSMODE
 70
  2495
  9
$ATTMODE
 70
     1
  9
$TEXTSIZE
 40
2.5
  9
$TRACEWID
 40
0.05
  9
$TEXTSTYLE
  7
BIG
  9
$CLAYER
  8
0
  9
$CELTYPE
  6
BYLAYER
  9
$CECOLOR
 62
   256
  9
$DIMSCALE
 40
1.0
  9
$DIMASZ
 40
3.0
  9
$DIMEXO
 40
1.0
  9
$DIMDLI
 40
0.0
  9
$DIMRND
 40
0.0
  9
$DIMDLE
 40
0.0
  9
$DIMEXE
 40
1.0
  9
$DIMTP
 40
0.0
  9
$DIMTM
 40
0.0
  9
$DIMTXT
 40
3.0
  9
$DIMCEN
 40
0.0
  9
$DIMTSZ
 40
0.0
  9
$DIMTOL
 70
     0
  9
$DIMLIM
 70
     0
  9
$DIMTIH
 70
     0
  9
$DIMTOH
 70
     0
  9
$DIMSE1
 70
     0
  9
$DIMSE2
 70
     0
  9
$DIMTAD
 70
     1
  9
$DIMZIN
 70
     8
  9
$DIMBLK
  1

  9
$DIMASO
 70
     1
  9
$DIMSHO
 70
     1
  9
$DIMPOST
  1

  9
$DIMAPOST
  1

  9
$DIMALT
 70
     0
  9
$DIMALTD
 70
     2
  9
$DIMALTF
 40
25.399999999999999
  9
$DIMLFAC
 40
1.0
  9
$DIMTOFL
 70
     1
  9
$DIMTVP
 40
0.0
  9
$DIMTIX
 70
     1
  9
$DIMSOXD
 70
     0
  9
$DIMSAH
 70
     0
  9
$DIMBLK1
  1

  9
$DIMBLK2
  1

  9
$DIMSTYLE
  2
DUKITEC
  9
$DIMCLRD
 70
     5
  9
$DIMCLRE
 70
     5
  9
$DIMCLRT
 70
     0
  9
$DIMTFAC
 40
1.0
  9
$DIMGAP
 40
1.0
  9
$LUNITS
 70
     2
  9
$LUPREC
 70
     4
  9
$SKETCHINC
 40
0.1
  9
$FILLETRAD
 40
0.2
  9
$AUNITS
 70
     0
  9
$AUPREC
 70
     0
  9
$MENU
  1
.
  9
$ELEVATION
 40
0.0
  9
$PELEVATION
 40
0.0
  9
$THICKNESS
 40
0.0
  9
$LIMCHECK
 70
     0
  9
$BLIPMODE
 70
     0
  9
$CHAMFERA
 40
0.5
  9
$CHAMFERB
 40
0.5
  9
$SKPOLY
 70
     0
  9
$TDCREATE
 40
2454396.7531148731
  9
$TDUPDATE
 40
2457375.4978057989
  9
$TDINDWG
 40
0.0019179398
  9
$TDUSRTIMER
 40
0.0019178472
  9
$USRTIMER
 70
     1
  9
$ANGBASE
 50
0.0
  9
$ANGDIR
 70
     0
  9
$PDMODE
 70
     0
  9
$PDSIZE
 40
0.0
  9
$PLINEWID
 40
0.0
  9
$COORDS
 70
     1
  9
$SPLFRAME
 70
     0
  9
$SPLINETYPE
 70
     6
  9
$SPLINESEGS
 70
     8
  9
$ATTDIA
 70
     0
  9
$ATTREQ
 70
     1
  9
$HANDLING
 70
     1
  9
$HANDSEED
  5
14636
  9
$SURFTAB1
 70
     6
  9
$SURFTAB2
 70
     6
  9
$SURFTYPE
 70
     6
  9
$SURFU
 70
     6
  9
$SURFV
 70
     6
  9
$UCSNAME
  2

  9
$UCSORG
 10
0.0
 20
0.0
 30
0.0
  9
$UCSXDIR
 10
1.0
 20
0.0
 30
0.0
  9
$UCSYDIR
 10
0.0
 20
1.0
 30
0.0
  9
$PUCSNAME
  2

  9
$PUCSORG
 10
0.0
 20
0.0
 30
0.0
  9
$PUCSXDIR
 10
1.0
 20
0.0
 30
0.0
  9
$PUCSYDIR
 10
0.0
 20
1.0
 30
0.0
  9
$USERI1
 70
     0
  9
$USERI2
 70
     0
  9
$USERI3
 70
     0
  9
$USERI4
 70
     0
  9
$USERI5
 70
     0
  9
$USERR1
 40
0.0
  9
$USERR2
 40
0.0
  9
$USERR3
 40
0.0
  9
$USERR4
 40
0.0
  9
$USERR5
 40
0.0
  9
$WORLDVIEW
 70
     1
  9
$SHADEDGE
 70
     3
  9
$SHADEDIF
 70
    70
  9
$TILEMODE
 70
     1
  9
$MAXACTVP
 70
    64
  9
$PLIMCHECK
 70
     0
  9
$PEXTMIN
 10
0.0
 20
0.0
 30
0.0
  9
$PEXTMAX
 10
0.0
 20
0.0
 30
0.0
  9
$PLIMMIN
 10
0.0
 20
0.0
  9
$PLIMMAX
 10
12.0
 20
9.0
  9
$UNITMODE
 70
     0
  9
$VISRETAIN
 70
     1
  9
$PLINEGEN
 70
     0
  9
$PSLTSCALE
 70
     1
  0
ENDSEC
  0
SECTION
  2
TABLES
  0
TABLE
  2
VPORT
 70
     1
  0
VPORT
  2
*ACTIVE
 70
     0
 10
0.0
 20
0.0
 11
1.0
 21
1.0
 12
2019.1819693402449
 22
1610.7841805953819
 13
0.0
 23
0.0
 14
0.5
 24
0.5
 15
0.5
 25
0.5
 16
0.0
 26
0.0
 36
1.0
 17
0.0
 27
0.0
 37
0.0
 40
248.8602318560331
 41
2.2949367088607588
 42
50.0
 43
0.0
 44
0.0
 50
0.0
 51
0.0
 71
     0
 72
  2000
 73
     1
 74
     3
 75
     0
 76
     0
 77
     0
 78
     0
  0
ENDTAB
  0
TABLE
  2
LTYPE
 70
     4
  0
LTYPE
  2
CONTINUOUS
 70
     0
  3
Solid line
 72
    65
 73
     0
 40
0.0
  0
LTYPE
  2
PHANTOM2
 70
     0
  3
Phantom (.5x) ___ _ _ ___ _ _ ___ _ _ ___ _ _
 72
    65
 73
     6
 40
1.25
 49
0.625
 49
-0.125
 49
0.125
 49
-0.125
 49
0.125
 49
-0.125
  0
LTYPE
  2
CENTER
 70
     0
  3
___ _ ___ _ ___ _ ___ _ ___ _ ___ _ ___ _ ___ _
 72
    65
 73
     4
 40
0.95
 49
0.625
 49
-0.125
 49
0.075
 49
-0.125
  0
LTYPE
  2
DASHED2
 70
     0
  3
Dashed (.5x) _ _ _ _ _ _ _ _ _ _ _ _ _ _ _ _ _
 72
    65
 73
     2
 40
0.375
 49
0.25
 49
-0.125
  0
ENDTAB
  0
TABLE
  2
LAYER
 70
     4
  0
LAYER
  2
0
 70
     0
 62
     7
  6
CONTINUOUS
  0
LAYER
  2
HIDE
 70
     0
 62
     1
  6
DASHED2
  0
LAYER
  2
CENTER
 70
     0
 62
     3
  6
CENTER
  0
LAYER
  2
DEFPOINTS
 70
     0
 62
     7
  6
CONTINUOUS
  0
ENDTAB
  0
TABLE
  2
STYLE
 70
    10
  0
STYLE
  2
STANDARD
 70
     0
 40
5.0
 41
1.0
 50
0.0
 71
     0
 42
5.0
  3
txt.shx
  4
whgtxt.shx
  0
STYLE
  2
BIG
 70
     0
 40
20.0
 41
1.0
 50
0.0
 71
     0
 42
2.5
  3
txt
  4

  0
STYLE
  2
DUKI2-1
 70
     0
 40
4.0
 41
1.0
 50
0.0
 71
     0
 42
4.0
  3
txt
  4

  0
STYLE
  2
DUKI_1
 70
     0
 40
2.0
 41
1.0
 50
0.0
 71
     0
 42
2.0
  3
txt
  4

  0
STYLE
  2
DUKI_2
 70
     0
 40
3.0
 41
1.0
 50
0.0
 71
     0
 42
3.0
  3
txt
  4

  0
STYLE
  2
DUKI_3
 70
     0
 40
6.0
 41
1.0
 50
0.0
 71
     0
 42
6.0
  3
txt
  4

  0
STYLE
  2
DUKI2-5
 70
     0
 40
5.0
 41
1.0
 50
0.0
 71
     0
 42
5.0
  3
txt
  4

  0
STYLE
  2
DUKI5
 70
     0
 40
11.0
 41
1.0
 50
0.0
 71
     0
 42
11.0
  3
txt
  4

  0
STYLE
  2
DUKI7
 70
     0
 40
20.0
 41
1.0
 50
0.0
 71
     0
 42
20.0
  3
txt
  4

  0
STYLE
  2
DUKI1-5
 70
     0
 40
2.5
 41
1.0
 50
0.0
 71
     0
 42
2.5
  3
txt
  4

  0
ENDTAB
  0
TABLE
  2
VIEW
 70
     0
  0
ENDTAB
  0
TABLE
  2
UCS
 70
     0
  0
ENDTAB
  0
TABLE
  2
APPID
 70
    16
  0
APPID
  2
ACAD
 70
     0
  0
APPID
  2
ACADANNOTATIVE
 70
     0
  0
APPID
  2
ACAD_EXEMPT_FROM_CAD_STANDARDS
 70
     0
  0
APPID
  2
ACAD_DSTYLE_DIMJOGGED_JOGA
 70
     0
  0
APPID
  2
ACAD_PSEXT
 70
     0
  0
APPID
  2
ACAECLAYERSTANDARD
 70
     0
  0
APPID
  2
DCO15
 70
     0
  0
APPID
  2
CONTENTBLOCKICON
 70
     0
  0
APPID
  2
ACAD_NAV_VCDISPLAY
 70
     0
  0
APPID
  2
ACAD_MLEADERVER
 70
     0
  0
APPID
  2
ACAD_DSTYLE_DIMJAG
 70
     0
  0
APPID
  2
ACAD_DSTYLE_DIMBREAK
 70
     0
  0
APPID
  2
ACAD_DSTYLE_DIMTALN
 70
     0
  0
APPID
  2
ACAD_DSTYLE_DIMTEXT_FILL
 70
     0
  0
APPID
  2
ACAD_DSTYLE_DIMRADIAL_EXTENSION
 70
     0
  0
APPID
  2
ACDBDYNAMICBLOCKTRUENAME2
 70
     0
  0
ENDTAB
  0
TABLE
  2
DIMSTYLE
 70
     7
  0
DIMSTYLE
  2
DUKITEC
 70
     0
  3

  4

  5

  6

  7

 40
1.0
 41
3.0
 42
1.0
 43
0.0
 44
1.0
 45
0.0
 46
0.0
 47
0.0
 48
0.0
140
3.0
141
0.0
142
0.0
143
25.399999999999999
144
1.0
145
0.0
146
1.0
147
1.0
 71
     0
 72
     0
 73
     0
 74
     0
 75
     0
 76
     0
 77
     1
 78
     8
170
     0
171
     2
172
     1
173
     0
174
     1
175
     0
176
     5
177
     5
178
     0
  0
DIMSTYLE
  2
DUKI2
 70
     0
  3

  4

  5

  6

  7

 40
1.0
 41
2.0
 42
0.8
 43
1.0
 44
0.6
 45
0.0
 46
0.0
 47
0.0
 48
0.000000001
140
3.0
141
1.0
142
0.0
143
25.399999999999999
144
1.0
145
0.0
146
0.5
147
1.0
 71
     0
 72
     0
 73
     0
 74
     0
 75
     0
 76
     0
 77
     1
 78
     8
170
     0
171
     2
172
     1
173
     0
174
     0
175
     0
176
     5
177
     5
178
     2
  0
DIMSTYLE
  2
DUKI3
 70
     0
  3

  4

  5

  6

  7

 40
1.0
 41
4.0
 42
1.0
 43
1.0
 44
1.0
 45
0.0
 46
0.0
 47
0.0
 48
0.000000001
140
6.0
141
1.0
142
0.0
143
25.399999999999999
144
1.0
145
0.0
146
0.5
147
2.2000000000000002
 71
     0
 72
     0
 73
     0
 74
     0
 75
     0
 76
     0
 77
     1
 78
     8
170
     0
171
     2
172
     1
173
     0
174
     0
175
     0
176
     5
177
     5
178
     2
  0
DIMSTYLE
  2
DUKI2-5
 70
     0
  3

  4

  5

  6

  7

 40
1.0
 41
3.0
 42
1.0
 43
1.0
 44
1.0
 45
0.0
 46
0.0
 47
0.0
 48
0.000000001
140
5.0
141
1.0
142
0.0
143
25.399999999999999
144
1.0
145
0.0
146
0.5
147
1.6000000000000001
 71
     0
 72
     0
 73
     0
 74
     0
 75
     0
 76
     0
 77
     1
 78
     8
170
     0
171
     2
172
     1
173
     0
174
     0
175
     0
176
     5
177
     5
178
     2
  0
DIMSTYLE
  2
DUKI5
 70
     0
  3

  4

  5

  6

  7

 40
1.0
 41
6.0
 42
2.0
 43
1.0
 44
1.0
 45
0.0
 46
0.0
 47
0.0
 48
0.000000001
140
11.0
141
1.0
142
0.0
143
25.399999999999999
144
1.0
145
0.0
146
0.5
147
3.399999999999999
 71
     0
 72
     0
 73
     0
 74
     0
 75
     0
 76
     0
 77
     1
 78
     8
170
     0
171
     2
172
     1
173
     0
174
     0
175
     0
176
     5
177
     5
178
     2
  0
DIMSTYLE
  2
DUKI7
 70
     0
  3

  4

  5

  6

  7

 40
1.0
 41
14.0
 42
9.0
 43
1.0
 44
4.0
 45
0.0
 46
0.0
 47
0.0
 48
0.000000001
140
20.0
141
1.0
142
0.0
143
25.399999999999999
144
1.0
145
0.0
146
0.5
147
7.0
 71
     0
 72
     0
 73
     0
 74
     0
 75
     0
 76
     0
 77
     1
 78
     8
170
     0
171
     2
172
     1
173
     0
174
     0
175
     0
176
     5
177
     5
178
     2
  0
DIMSTYLE
  2
DUKI1-5
 70
     0
  3

  4

  5

  6

  7

 40
1.0
 41
1.8
 42
0.5
 43
1.0
 44
0.5
 45
0.0
 46
0.0
 47
0.0
 48
0.000000001
140
2.5
141
1.0
142
0.0
143
25.399999999999999
144
1.0
145
0.0
146
0.5
147
0.8
 71
     0
 72
     0
 73
     0
 74
     0
 75
     0
 76
     0
 77
     1
 78
     8
170
     0
171
     2
172
     1
173
     0
174
     0
175
     0
176
     5
177
     5
178
     2
  0
ENDTAB
  0
ENDSEC
  0
SECTION
  2
BLOCKS
  0
BLOCK
  8
0
  2
$MODEL_SPACE
 70
     0
 10
0.0
 20
0.0
 30
0.0
  3
$MODEL_SPACE
  1

  0
ENDBLK
  5
143AD
  8
0
  0
BLOCK
 67
     1
  8
0
  2
$PAPER_SPACE
 70
     0
 10
0.0
 20
0.0
 30
0.0
  3
$PAPER_SPACE
  1

  0
ENDBLK
  5
143A9
 67
     1
  8
0
  0
BLOCK
  8
0
  2
*D0
 70
     1
 10
0.0
 20
0.0
 30
0.0
  3
*D0
  1

  0
LINE
  5
144C8
  8
0
 62
     5
 10
-43917.783719477913
 20
11423.91787164792
 30
0.0
 11
-43936.291837575758
 21
11405.40975355007
 31
0.0
  0
LINE
  5
144C9
  8
0
 62
     5
 10
-43882.428380418583
 20
11388.562532588579
 30
0.0
 11
-43900.936498516428
 21
11370.05441449074
 31
0.0
  0
LINE
  5
144CA
  8
0
 62
     5
 10
-43933.463410451011
 20
11403.995539987691
 30
0.0
 11
-43902.350712078813
 21
11372.88284161549
 31
0.0
  0
SOLID
  5
144CB
  8
0
 62
     5
 10
-43933.109857060423
 20
11404.34909337829
 30
0.0
 11
-43933.8169638416
 21
11403.6419865971
 31
0.0
 12
-43935.584730794573
 22
11406.11686033126
 32
0.0
 13
-43935.584730794573
 23
11406.11686033126
 33
0.0
  0
SOLID
  5
144CC
  8
0
 62
     5
 10
-43901.997158688209
 20
11373.236395006081
 30
0.0
 11
-43902.704265469401
 21
11372.52928822489
 31
0.0
 12
-43900.229391735251
 22
11370.761521271919
 32
0.0
 13
-43900.229391735251
 23
11370.761521271919
 33
0.0
  0
INSERT
  5
144CD
  8
0
  2
*U7
 10
0.0
 20
0.0
 30
0.0
  0
POINT
  5
144CE
  8
DEFPOINTS
 62
     0
 10
-43917.076612696721
 20
11424.624978429099
 30
0.0
  0
POINT
  5
144CF
  8
DEFPOINTS
 62
     0
 10
-43881.721273637391
 20
11389.26963936977
 30
0.0
  0
POINT
  5
144D0
  8
DEFPOINTS
 62
     0
 10
-43900.229391735251
 20
11370.761521271919
 30
0.0
  0
ENDBLK
  5
144D1
  8
0
  0
BLOCK
  8
0
  2
*D1
 70
     1
 10
0.0
 20
0.0
 30
0.0
  3
*D1
  1

  0
LINE
  5
144D4
  8
0
 62
     5
 10
-43846.642054357428
 20
11435.90948428887
 30
0.0
 11
-43862.319097292711
 21
11429.32391153479
 31
0.0
  0
LINE
  5
144D5
  8
0
 62
     5
 10
-43913.026710242259
 20
11408.0227850632
 30
0.0
 11
-43915.792580039502
 21
11406.86090543747
 31
0.0
  0
INSERT
  5
144D6
  8
0
  2
*U8
 10
0.0
 20
0.0
 30
0.0
  0
LINE
  5
144D8
  8
0
 62
     5
 10
-43910.260840445007
 20
11409.184664688921
 30
0.0
 11
-43865.084967089948
 21
11428.162031909071
 31
0.0
  0
SOLID
  5
144D9
  8
0
 62
     5
 10
-43913.220356846541
 20
11408.483763362739
 30
0.0
 11
-43912.833063637969
 21
11407.561806763661
 31
0.0
 12
-43910.260840445007
 22
11409.184664688921
 32
0.0
 13
-43910.260840445007
 23
11409.184664688921
 33
0.0
  0
SOLID
  5
144DA
  8
0
 62
     5
 10
-43862.512743896987
 20
11429.78488983434
 30
0.0
 11
-43862.125450688422
 21
11428.86293323525
 31
0.0
 12
-43865.084967089948
 22
11428.162031909071
 32
0.0
 13
-43865.084967089948
 23
11428.162031909071
 33
0.0
  0
POINT
  5
144DB
  8
DEFPOINTS
 62
     0
 10
-43865.084967089948
 20
11428.162031909071
 30
0.0
  0
POINT
  5
144DC
  8
DEFPOINTS
 62
     0
 10
-43910.260840445007
 20
11409.184664688921
 30
0.0
  0
ENDBLK
  5
144DD
  8
0
  0
BLOCK
  8
0
  2
*D2
 70
     1
 10
0.0
 20
0.0
 30
0.0
  3
*D2
  1

  0
LINE
  5
144E0
  8
0
 62
     5
 10
-43837.020854517032
 20
11427.11849658543
 30
0.0
 11
-43853.642655561118
 21
11424.34716597429
 31
0.0
  0
LINE
  5
144E1
  8
0
 62
     5
 10
-43921.703151973859
 20
11412.9995306237
 30
0.0
 11
-43924.662303991812
 21
11412.506155173671
 31
0.0
  0
INSERT
  5
144E2
  8
0
  2
*U9
 10
0.0
 20
0.0
 30
0.0
  0
LINE
  5
144E4
  8
0
 62
     5
 10
-43918.743999955921
 20
11413.492906073719
 30
0.0
 11
-43856.601807579063
 21
11423.853790524259
 31
0.0
  0
SOLID
  5
144E5
  8
0
 62
     5
 10
-43921.78538121553
 20
11413.49272262669
 30
0.0
 11
-43921.620922732203
 21
11412.5063386207
 31
0.0
 12
-43918.743999955921
 22
11413.492906073719
 32
0.0
 13
-43918.743999955921
 23
11413.492906073719
 33
0.0
  0
SOLID
  5
144E6
  8
0
 62
     5
 10
-43853.724884802781
 20
11424.84035797728
 30
0.0
 11
-43853.56042631944
 21
11423.8539739713
 31
0.0
 12
-43856.601807579063
 22
11423.853790524259
 32
0.0
 13
-43856.601807579063
 23
11423.853790524259
 33
0.0
  0
ARC
  5
144E7
  8
0
 62
     5
 10
-43887.672903767481
 20
11418.673348298989
 30
0.0
 40
31.5
 50
9.3469184525219458
 51
11.284691753673251
  0
POINT
  5
144E8
  8
DEFPOINTS
 62
     0
 10
-43856.601807579063
 20
11423.853790524259
 30
0.0
  0
POINT
  5
144E9
  8
DEFPOINTS
 62
     0
 10
-43918.743999955921
 20
11413.492906073719
 30
0.0
  0
ENDBLK
  5
144EA
  8
0
  0
BLOCK
  8
0
  2
*D4
 70
     1
 10
0.0
 20
0.0
 30
0.0
  3
*D4
  1

  0
LINE
  5
14563
  8
0
 62
     5
 10
1807.0554664496799
 20
1607.026829257223
 30
0.0
 11
1788.5473483518281
 21
1588.518711159375
 31
0.0
  0
LINE
  5
14564
  8
0
 62
     5
 10
1842.4108055090021
 20
1571.671490197893
 30
0.0
 11
1823.902687411151
 21
1553.1633721000451
 31
0.0
  0
LINE
  5
14565
  8
0
 62
     5
 10
1791.375775476575
 20
1587.104497597001
 30
0.0
 11
1822.4884738487781
 21
1555.9917992247911
 31
0.0
  0
SOLID
  5
14566
  8
0
 62
     5
 10
1791.7293288671669
 20
1587.458050987595
 30
0.0
 11
1791.022222085981
 21
1586.7509442064079
 31
0.0
 12
1789.254455133015
 22
1589.225817940561
 32
0.0
 13
1789.254455133015
 23
1589.225817940561
 33
0.0
  0
SOLID
  5
14567
  8
0
 62
     5
 10
1822.842027239371
 20
1556.3453526153851
 30
0.0
 11
1822.134920458185
 21
1555.638245834198
 31
0.0
 12
1824.6097941923369
 22
1553.8704788812311
 32
0.0
 13
1824.6097941923369
 23
1553.8704788812311
 33
0.0
  0
INSERT
  5
14568
  8
0
  2
*U10
 10
0.0
 20
0.0
 30
0.0
  0
POINT
  5
14569
  8
DEFPOINTS
 62
     0
 10
1807.762573230867
 20
1607.7339360384101
 30
0.0
  0
POINT
  5
1456A
  8
DEFPOINTS
 62
     0
 10
1843.117912290189
 20
1572.3785969790799
 30
0.0
  0
POINT
  5
1456B
  8
DEFPOINTS
 62
     0
 10
1824.6097941923369
 20
1553.8704788812311
 30
0.0
  0
ENDBLK
  5
14559
  8
0
  0
BLOCK
  8
0
  2
*D5
 70
     1
 10
0.0
 20
0.0
 30
0.0
  3
*D5
  1

  0
LINE
  5
1458C
  8
0
 62
     5
 10
1878.1971315701619
 20
1619.0184418981819
 30
0.0
 11
1862.5200886348809
 21
1612.4328691441001
 31
0.0
  0
LINE
  5
1458D
  8
0
 62
     5
 10
1811.8124756853319
 20
1591.1317426725061
 30
0.0
 11
1809.0466058880841
 21
1589.9698630467819
 31
0.0
  0
INSERT
  5
1458E
  8
0
  2
*U12
 10
0.0
 20
0.0
 30
0.0
  0
LINE
  5
1458F
  8
0
 62
     5
 10
1814.578345482581
 20
1592.2936222982289
 30
0.0
 11
1859.7542188376331
 21
1611.2709895183771
 31
0.0
  0
SOLID
  5
14590
  8
0
 62
     5
 10
1811.6188290810451
 20
1591.5927209720469
 30
0.0
 11
1812.006122289619
 21
1590.670764372964
 31
0.0
 12
1814.578345482581
 22
1592.2936222982289
 32
0.0
 13
1814.578345482581
 23
1592.2936222982289
 33
0.0
  0
SOLID
  5
14591
  8
0
 62
     5
 10
1862.3264420305941
 20
1612.893847443642
 30
0.0
 11
1862.713735239168
 21
1611.9718908445591
 31
0.0
 12
1859.7542188376331
 22
1611.2709895183771
 32
0.0
 13
1859.7542188376331
 23
1611.2709895183771
 33
0.0
  0
POINT
  5
14592
  8
DEFPOINTS
 62
     0
 10
1859.7542188376331
 20
1611.2709895183771
 30
0.0
  0
POINT
  5
14593
  8
DEFPOINTS
 62
     0
 10
1814.578345482581
 20
1592.2936222982289
 30
0.0
  0
ENDBLK
  5
1456E
  8
0
  0
BLOCK
  8
0
  2
*D6
 70
     1
 10
0.0
 20
0.0
 30
0.0
  3
*D6
  1

  0
LINE
  5
14583
  8
0
 62
     5
 10
1887.818331410565
 20
1610.227454194745
 30
0.0
 11
1871.196530366482
 21
1607.4561235836011
 31
0.0
  0
LINE
  5
14584
  8
0
 62
     5
 10
1803.1360339537341
 20
1596.1084882330069
 30
0.0
 11
1800.1768819357881
 21
1595.615112782981
 31
0.0
  0
INSERT
  5
14585
  8
0
  2
*U11
 10
0.0
 20
0.0
 30
0.0
  0
LINE
  5
14586
  8
0
 62
     5
 10
1806.095185971679
 20
1596.6018636830329
 30
0.0
 11
1868.237378348537
 21
1606.9627481335749
 31
0.0
  0
SOLID
  5
14587
  8
0
 62
     5
 10
1803.0538047120631
 20
1596.6016802359979
 30
0.0
 11
1803.2182631954049
 21
1595.6152962300159
 31
0.0
 12
1806.095185971679
 22
1596.6018636830329
 32
0.0
 13
1806.095185971679
 23
1596.6018636830329
 33
0.0
  0
SOLID
  5
14588
  8
0
 62
     5
 10
1871.1143011248109
 20
1607.949315586591
 30
0.0
 11
1871.2787596081539
 21
1606.9629315806101
 31
0.0
 12
1868.237378348537
 22
1606.9627481335749
 32
0.0
 13
1868.237378348537
 23
1606.9627481335749
 33
0.0
  0
ARC
  5
14589
  8
0
 62
     5
 10
1837.166282160108
 20
1601.7823059083039
 30
0.0
 40
31.499999999999321
 50
9.3469184525470848
 51
11.28469175367071
  0
POINT
  5
1458A
  8
DEFPOINTS
 62
     0
 10
1868.237378348537
 20
1606.9627481335749
 30
0.0
  0
POINT
  5
1458B
  8
DEFPOINTS
 62
     0
 10
1806.095185971679
 20
1596.6018636830329
 30
0.0
  0
ENDBLK
  5
14579
  8
0
  0
BLOCK
  8
0
  2
*U7
 70
     1
 10
0.0
 20
0.0
 30
0.0
  3
*U7
  1

  0
TEXT
  5
1461A
  8
0
 62
     2
 10
-43919.522214206743
 20
11392.437178306869
 30
0.0
 40
5.0
  1
50
 50
314.99999999999409
  7
DUKI2-5
  0
ENDBLK
  5
1461C
  8
0
  0
BLOCK
  8
0
  2
*U8
 70
     1
 10
0.0
 20
0.0
 30
0.0
  3
*U8
  1

  0
TEXT
  5
1461E
  8
0
 62
     2
 10
-43858.861614164751
 20
11432.60386876433
 30
0.0
 40
5.0
  1
\U+2205
 50
22.786179436704241
  7
DUKI2-5
  0
TEXT
  5
1461F
  8
0
 62
     2
 10
-43855.509044713537
 20
11434.0122077046
 30
0.0
 40
5.0
  1
49
 50
22.786179436704241
  7
DUKI2-5
  0
ENDBLK
  5
14621
  8
0
  0
BLOCK
  8
0
  2
*U9
 70
     1
 10
0.0
 20
0.0
 30
0.0
  3
*U9
  1

  0
TEXT
  5
14623
  8
0
 62
     2
 10
-43849.522499635561
 20
11426.74229105598
 30
0.0
 40
5.0
  1
\U+2205
 50
9.4657781183351766
  7
DUKI2-5
  0
TEXT
  5
14624
  8
0
 62
     2
 10
-43845.935648704719
 20
11427.340321904499
 30
0.0
 40
5.0
  1
63
 50
9.4657781183351766
  7
DUKI2-5
  0
ENDBLK
  5
14626
  8
0
  0
BLOCK
  8
0
  2
*U10
 70
     1
 10
0.0
 20
0.0
 30
0.0
  3
*U10
  1

  0
TEXT
  5
14629
  8
0
 62
     2
 10
1805.3169717208391
 20
1575.5461359161829
 30
0.0
 40
5.0
  1
50
 50
314.99999999999409
  7
DUKI2-5
  0
ENDBLK
  5
1462B
  8
0
  0
BLOCK
  8
0
  2
*U11
 70
     1
 10
0.0
 20
0.0
 30
0.0
  3
*U11
  1

  0
TEXT
  5
1462D
  8
0
 62
     2
 10
1875.316686292023
 20
1609.851248665293
 30
0.0
 40
5.0
  1
\U+2205
 50
9.4657781183346685
  7
DUKI2-5
  0
TEXT
  5
1462E
  8
0
 62
     2
 10
1878.903537222867
 20
1610.449279513809
 30
0.0
 40
5.0
  1
63
 50
9.4657781183346685
  7
DUKI2-5
  0
ENDBLK
  5
14630
  8
0
  0
BLOCK
  8
0
  2
*U12
 70
     1
 10
0.0
 20
0.0
 30
0.0
  3
*U12
  1

  0
TEXT
  5
14632
  8
0
 62
     2
 10
1865.9775717628411
 20
1615.7128263736381
 30
0.0
 40
5.0
  1
\U+2205
 50
22.786179436704241
  7
DUKI2-5
  0
TEXT
  5
14633
  8
0
 62
     2
 10
1869.3301412140511
 20
1617.1211653139089
 30
0.0
 40
5.0
  1
49
 50
22.786179436704241
  7
DUKI2-5
  0
ENDBLK
  5
14635
  8
0
  0
ENDSEC
  0
SECTION
  2
ENTITIES
  0
TEXT
  5
1406A
  8
0
 10
2051.7971842596039
 20
1467.947885561749
 30
0.0
 40
20.0
  1
FK 40DFF
  7
BIG
  0
LINE
  5
141AD
  8
HIDE
 10
2185.5609560913708
 20
1694.0506551907449
 30
0.0
 11
2185.5609560913708
 21
1674.0506551907449
 31
0.0
  0
LINE
  5
141AE
  8
HIDE
 10
2172.5609560913708
 20
1674.0506551907449
 30
0.0
 11
2185.5609560913708
 21
1674.0506551907449
 31
0.0
  0
LINE
  5
141AF
  8
HIDE
 10
2185.5609560913708
 20
1677.0506551907449
 30
0.0
 11
2190.5609560913708
 21
1677.0506551907449
 31
0.0
  0
LINE
  5
141B0
  8
HIDE
 10
2185.5609560913708
 20
1691.050655190744
 30
0.0
 11
2190.5609560913708
 21
1691.050655190744
 31
0.0
  0
LINE
  5
141B1
  8
HIDE
 10
2172.5609560913708
 20
1694.0506551907449
 30
0.0
 11
2185.5609560913708
 21
1694.0506551907449
 31
0.0
  0
LINE
  5
141B2
  8
CENTER
 10
2167.5621731642309
 20
1684.050655190744
 30
0.0
 11
2195.618969404758
 21
1684.050655190744
 31
0.0
  0
LINE
  5
141B3
  8
0
 10
2172.5609560913708
 20
1699.606218190745
 30
0.0
 11
2190.5609560913708
 21
1699.606218190745
 31
0.0
  0
LINE
  5
141B4
  8
0
 10
2154.5609560913708
 20
1674.606218190745
 30
0.0
 11
2172.5609560913708
 21
1674.606218190745
 31
0.0
  0
LINE
  5
141B5
  8
0
 10
2269.5609560913708
 20
1671.606218190745
 30
0.0
 11
2190.5609560913708
 21
1671.606218190745
 31
0.0
  0
LINE
  5
141B6
  8
0
 10
2190.5609560913708
 20
1699.606218190745
 30
0.0
 11
2190.5609560913708
 21
1671.606218190745
 31
0.0
  0
LINE
  5
141B7
  8
0
 10
2172.5609560913708
 20
1699.606218190745
 30
0.0
 11
2172.5609560913708
 21
1523.606218190745
 31
0.0
  0
LINE
  5
141B8
  8
0
 10
2154.5609560913708
 20
1674.606218190745
 30
0.0
 11
2154.5609560913772
 21
1548.606218190745
 31
0.0
  0
LINE
  5
141B9
  8
CENTER
 10
2138.5384051176861
 20
1611.606218190745
 30
0.0
 11
2275.3541152010871
 21
1611.606218190745
 31
0.0
  0
LINE
  5
141BA
  8
CENTER
 10
2167.5621731642309
 20
1539.1617811907449
 30
0.0
 11
2195.618969404758
 21
1539.1617811907449
 31
0.0
  0
LINE
  5
141BB
  8
HIDE
 10
2172.5609560913708
 20
1529.1617811907449
 30
0.0
 11
2185.5609560913708
 21
1529.1617811907449
 31
0.0
  0
LINE
  5
141BC
  8
HIDE
 10
2185.5609560913708
 20
1532.1617811907449
 30
0.0
 11
2190.5609560913708
 21
1532.1617811907449
 31
0.0
  0
LINE
  5
141BD
  8
HIDE
 10
2185.5609560913708
 20
1546.161781190744
 30
0.0
 11
2190.5609560913708
 21
1546.161781190744
 31
0.0
  0
LINE
  5
141BE
  8
HIDE
 10
2172.5609560913708
 20
1549.161781190744
 30
0.0
 11
2185.5609560913708
 21
1549.161781190744
 31
0.0
  0
LINE
  5
141BF
  8
HIDE
 10
2185.5609560913708
 20
1529.1617811907449
 30
0.0
 11
2185.5609560913708
 21
1549.161781190744
 31
0.0
  0
LINE
  5
141C0
  8
0
 10
2172.5609560913708
 20
1523.606218190745
 30
0.0
 11
2190.5609560913708
 21
1523.606218190745
 31
0.0
  0
LINE
  5
141C1
  8
0
 10
2154.5609560913708
 20
1548.606218190745
 30
0.0
 11
2172.5609560913708
 21
1548.606218190745
 31
0.0
  0
LINE
  5
141C2
  8
0
 10
2269.5609560913708
 20
1551.606218190745
 30
0.0
 11
2190.5609560913708
 21
1551.606218190745
 31
0.0
  0
LINE
  5
141C3
  8
0
 10
2269.5609560913708
 20
1671.606218190745
 30
0.0
 11
2269.5609560913708
 21
1551.606218190745
 31
0.0
  0
CIRCLE
  5
141C4
  8
HIDE
 10
2226.5609560913731
 20
1581.606218190745
 30
0.0
 40
6.0
  0
CIRCLE
  5
141C5
  8
HIDE
 10
2226.5609560913731
 20
1641.606218190745
 30
0.0
 40
6.0
  0
CIRCLE
  5
141C6
  8
HIDE
 10
2208.5609560913731
 20
1581.606218190745
 30
0.0
 40
6.0
  0
CIRCLE
  5
141C7
  8
HIDE
 10
2208.5609560913731
 20
1641.606218190745
 30
0.0
 40
6.0
  0
ARC
  5
141C8
  8
HIDE
 10
2216.9609560913732
 20
1651.0062181907449
 30
0.0
 40
0.6000000000000015
 50
0.0
 51
90.0
  0
ARC
  5
141C9
  8
HIDE
 10
2200.660956091373
 20
1650.5062181907449
 30
0.0
 40
1.1000000000000001
 50
90.0
 51
180.0
  0
ARC
  5
141CA
  8
HIDE
 10
2216.4609560913718
 20
1632.7062181907449
 30
0.0
 40
1.1000000000000001
 50
270.0
 51
0.0
  0
ARC
  5
141CB
  8
HIDE
 10
2216.4609560913718
 20
1590.5062181907449
 30
0.0
 40
1.1000000000000001
 50
0.0
 51
90.0
  0
ARC
  5
141CC
  8
HIDE
 10
2200.160956091373
 20
1632.2062181907449
 30
0.0
 40
0.6000000000000015
 50
180.0
 51
270.0
  0
ARC
  5
141CD
  8
HIDE
 10
2200.160956091373
 20
1591.006218190744
 30
0.0
 40
0.6000000000000015
 50
90.0
 51
180.0
  0
ARC
  5
141CE
  8
HIDE
 10
2216.9609560913732
 20
1572.2062181907449
 30
0.0
 40
0.6000000000000015
 50
270.0
 51
0.0
  0
ARC
  5
141CF
  8
HIDE
 10
2200.660956091373
 20
1572.706218190744
 30
0.0
 40
1.1000000000000001
 50
180.0
 51
270.0
  0
LINE
  5
141D0
  8
HIDE
 10
2199.5609560913731
 20
1644.156218190745
 30
0.0
 11
2203.1297959943022
 21
1644.156218190745
 31
0.0
  0
LINE
  5
141D1
  8
HIDE
 10
2200.660956091373
 20
1651.606218190745
 30
0.0
 11
2216.9609560913732
 21
1651.606218190745
 31
0.0
  0
LINE
  5
141D2
  8
HIDE
 10
2217.5609560913731
 20
1639.0562181907451
 30
0.0
 11
2213.9921161884431
 21
1639.0562181907451
 31
0.0
  0
LINE
  5
141D3
  8
HIDE
 10
2210.7078317355749
 20
1647.2089786682529
 30
0.0
 11
2217.5609560913731
 21
1647.856218190745
 31
0.0
  0
LINE
  5
141D4
  8
HIDE
 10
2199.5609560913731
 20
1639.0562181907451
 30
0.0
 11
2203.1297959943022
 21
1639.0562181907451
 31
0.0
  0
LINE
  5
141D5
  8
HIDE
 10
2199.5609560913731
 20
1584.156218190745
 30
0.0
 11
2203.1297959943022
 21
1584.156218190745
 31
0.0
  0
LINE
  5
141D6
  8
HIDE
 10
2200.160956091373
 20
1631.606218190745
 30
0.0
 11
2216.4609560913718
 21
1631.606218190745
 31
0.0
  0
LINE
  5
141D7
  8
HIDE
 10
2200.160956091373
 20
1591.606218190745
 30
0.0
 11
2216.4609560913718
 21
1591.606218190745
 31
0.0
  0
LINE
  5
141D8
  8
HIDE
 10
2217.5609560913731
 20
1584.156218190745
 30
0.0
 11
2213.9921161884431
 21
1584.156218190745
 31
0.0
  0
LINE
  5
141D9
  8
HIDE
 10
2199.5609560913731
 20
1579.0562181907451
 30
0.0
 11
2203.1297959943022
 21
1579.0562181907451
 31
0.0
  0
LINE
  5
141DA
  8
HIDE
 10
2216.9609560913732
 20
1571.606218190745
 30
0.0
 11
2200.660956091373
 21
1571.606218190745
 31
0.0
  0
LINE
  5
141DB
  8
HIDE
 10
2210.7078317355749
 20
1576.0034577132369
 30
0.0
 11
2217.5609560913731
 21
1575.356218190745
 31
0.0
  0
LINE
  5
141DC
  8
HIDE
 10
2199.5609560913731
 20
1572.706218190744
 30
0.0
 11
2199.5609560913731
 21
1650.5062181907449
 31
0.0
  0
LINE
  5
141DD
  8
HIDE
 10
2217.5609560913731
 20
1651.0062181907449
 30
0.0
 11
2217.5609560913731
 21
1572.2062181907449
 31
0.0
  0
LINE
  5
141DE
  8
HIDE
 10
2217.4311657461781
 20
1647.843960213698
 30
0.0
 11
2217.5609560913731
 21
1647.9737505588921
 31
0.0
  0
ARC
  5
141DF
  8
HIDE
 10
2218.160956091373
 20
1572.2062181907449
 30
0.0
 40
0.6000000000000015
 50
180.0
 51
270.0
  0
ARC
  5
141E0
  8
HIDE
 10
2234.4609560913732
 20
1572.706218190744
 30
0.0
 40
1.1000000000000001
 50
270.0
 51
0.0
  0
ARC
  5
141E1
  8
HIDE
 10
2218.660956091373
 20
1590.5062181907449
 30
0.0
 40
1.1000000000000001
 50
90.0
 51
180.0
  0
ARC
  5
141E2
  8
HIDE
 10
2218.660956091373
 20
1632.7062181907449
 30
0.0
 40
1.1000000000000001
 50
180.0
 51
270.0
  0
ARC
  5
141E3
  8
HIDE
 10
2234.9609560913718
 20
1591.006218190744
 30
0.0
 40
0.6
 50
0.0
 51
90.0
  0
ARC
  5
141E4
  8
HIDE
 10
2234.9609560913718
 20
1632.2062181907449
 30
0.0
 40
0.6000000000000015
 50
270.0
 51
0.0
  0
ARC
  5
141E5
  8
HIDE
 10
2218.160956091373
 20
1651.006218190746
 30
0.0
 40
0.6000000000000015
 50
90.0
 51
180.0
  0
ARC
  5
141E6
  8
HIDE
 10
2234.4609560913732
 20
1650.5062181907449
 30
0.0
 40
1.1000000000000001
 50
0.0
 51
90.0
  0
LINE
  5
141E7
  8
HIDE
 10
2235.5609560913731
 20
1579.0562181907451
 30
0.0
 11
2231.9921161884431
 21
1579.0562181907451
 31
0.0
  0
LINE
  5
141E8
  8
HIDE
 10
2234.4609560913732
 20
1571.606218190745
 30
0.0
 11
2218.160956091373
 21
1571.606218190745
 31
0.0
  0
LINE
  5
141E9
  8
HIDE
 10
2217.5609560913708
 20
1584.156218190745
 30
0.0
 11
2221.1297959943022
 21
1584.156218190745
 31
0.0
  0
LINE
  5
141EA
  8
HIDE
 10
2224.4140804471699
 20
1576.0034577132369
 30
0.0
 11
2217.5609560913708
 21
1575.356218190745
 31
0.0
  0
LINE
  5
141EB
  8
HIDE
 10
2235.5609560913731
 20
1584.156218190745
 30
0.0
 11
2231.9921161884431
 21
1584.156218190745
 31
0.0
  0
LINE
  5
141EC
  8
HIDE
 10
2235.5609560913731
 20
1639.0562181907451
 30
0.0
 11
2231.9921161884408
 21
1639.0562181907451
 31
0.0
  0
LINE
  5
141ED
  8
HIDE
 10
2234.9609560913718
 20
1591.606218190745
 30
0.0
 11
2218.660956091373
 21
1591.606218190745
 31
0.0
  0
LINE
  5
141EE
  8
HIDE
 10
2234.9609560913718
 20
1631.606218190745
 30
0.0
 11
2218.660956091373
 21
1631.606218190745
 31
0.0
  0
LINE
  5
141EF
  8
HIDE
 10
2217.5609560913731
 20
1639.0562181907451
 30
0.0
 11
2221.1297959943022
 21
1639.0562181907451
 31
0.0
  0
LINE
  5
141F0
  8
HIDE
 10
2235.5609560913731
 20
1644.156218190745
 30
0.0
 11
2231.9921161884408
 21
1644.156218190745
 31
0.0
  0
LINE
  5
141F1
  8
HIDE
 10
2218.160956091373
 20
1651.606218190745
 30
0.0
 11
2234.4609560913732
 21
1651.606218190745
 31
0.0
  0
LINE
  5
141F2
  8
HIDE
 10
2224.4140804471699
 20
1647.2089786682529
 30
0.0
 11
2217.5609560913731
 21
1647.856218190745
 31
0.0
  0
LINE
  5
141F3
  8
HIDE
 10
2235.5609560913731
 20
1650.5062181907449
 30
0.0
 11
2235.5609560913731
 21
1572.706218190744
 31
0.0
  0
LINE
  5
141F4
  8
HIDE
 10
2217.5609560913731
 20
1647.9737505588921
 30
0.0
 11
2217.6907464365672
 21
1647.843960213698
 31
0.0
  0
CIRCLE
  5
141F5
  8
HIDE
 10
2244.5609560913708
 20
1581.606218190745
 30
0.0
 40
6.0
  0
CIRCLE
  5
141F6
  8
HIDE
 10
2244.5609560913708
 20
1641.606218190745
 30
0.0
 40
6.0
  0
LINE
  5
141F7
  8
HIDE
 10
2235.431165746179
 20
1647.843960213698
 30
0.0
 11
2235.5609560913708
 21
1647.9737505588921
 31
0.0
  0
ARC
  5
141F8
  8
HIDE
 10
2236.1609560913712
 20
1572.2062181907449
 30
0.0
 40
0.6000000000000015
 50
180.0
 51
270.0
  0
ARC
  5
141F9
  8
HIDE
 10
2252.4609560913718
 20
1572.706218190744
 30
0.0
 40
1.1000000000000001
 50
270.0
 51
0.0
  0
ARC
  5
141FA
  8
HIDE
 10
2236.6609560913712
 20
1590.5062181907449
 30
0.0
 40
1.1000000000000001
 50
90.0
 51
180.0
  0
ARC
  5
141FB
  8
HIDE
 10
2236.660956091373
 20
1632.7062181907449
 30
0.0
 40
1.1000000000000001
 50
180.0
 51
270.0
  0
ARC
  5
141FC
  8
HIDE
 10
2252.9609560913732
 20
1591.006218190744
 30
0.0
 40
0.6
 50
0.0
 51
90.0
  0
ARC
  5
141FD
  8
HIDE
 10
2252.9609560913732
 20
1632.2062181907449
 30
0.0
 40
0.6000000000000015
 50
270.0
 51
0.0
  0
ARC
  5
141FE
  8
HIDE
 10
2236.160956091373
 20
1651.006218190746
 30
0.0
 40
0.6000000000000015
 50
90.0
 51
180.0
  0
ARC
  5
141FF
  8
HIDE
 10
2252.4609560913718
 20
1650.5062181907449
 30
0.0
 40
1.1000000000000001
 50
0.0
 51
90.0
  0
LINE
  5
14200
  8
HIDE
 10
2253.5609560913708
 20
1579.0562181907451
 30
0.0
 11
2249.9921161884408
 21
1579.0562181907451
 31
0.0
  0
LINE
  5
14201
  8
HIDE
 10
2252.4609560913718
 20
1571.606218190745
 30
0.0
 11
2236.1609560913712
 21
1571.606218190745
 31
0.0
  0
LINE
  5
14202
  8
HIDE
 10
2235.5609560913708
 20
1584.156218190745
 30
0.0
 11
2239.1297959943022
 21
1584.156218190745
 31
0.0
  0
LINE
  5
14203
  8
HIDE
 10
2242.4140804471681
 20
1576.0034577132369
 30
0.0
 11
2235.5609560913708
 21
1575.356218190745
 31
0.0
  0
LINE
  5
14204
  8
HIDE
 10
2253.5609560913708
 20
1584.156218190745
 30
0.0
 11
2249.9921161884408
 21
1584.156218190745
 31
0.0
  0
LINE
  5
14205
  8
HIDE
 10
2253.5609560913708
 20
1639.0562181907451
 30
0.0
 11
2249.992116188439
 21
1639.0562181907451
 31
0.0
  0
LINE
  5
14206
  8
HIDE
 10
2252.9609560913732
 20
1591.606218190745
 30
0.0
 11
2236.6609560913712
 21
1591.606218190745
 31
0.0
  0
LINE
  5
14207
  8
HIDE
 10
2252.9609560913732
 20
1631.606218190745
 30
0.0
 11
2236.660956091373
 21
1631.606218190745
 31
0.0
  0
LINE
  5
14208
  8
HIDE
 10
2235.5609560913708
 20
1639.0562181907451
 30
0.0
 11
2239.1297959943022
 21
1639.0562181907451
 31
0.0
  0
LINE
  5
14209
  8
HIDE
 10
2253.5609560913708
 20
1644.156218190745
 30
0.0
 11
2249.992116188439
 21
1644.156218190745
 31
0.0
  0
LINE
  5
1420A
  8
HIDE
 10
2236.160956091373
 20
1651.606218190745
 30
0.0
 11
2252.4609560913718
 21
1651.606218190745
 31
0.0
  0
LINE
  5
1420B
  8
HIDE
 10
2242.4140804471681
 20
1647.2089786682529
 30
0.0
 11
2235.5609560913708
 21
1647.856218190745
 31
0.0
  0
LINE
  5
1420C
  8
HIDE
 10
2253.5609560913708
 20
1650.5062181907449
 30
0.0
 11
2253.5609560913708
 21
1572.706218190744
 31
0.0
  0
LINE
  5
1420D
  8
HIDE
 10
2235.5609560913708
 20
1647.9737505588921
 30
0.0
 11
2235.690746436565
 21
1647.843960213698
 31
0.0
  0
LINE
  5
1420E
  8
HIDE
 10
2253.5609560913708
 20
1631.606218190745
 30
0.0
 11
2269.5609560913708
 21
1631.606218190745
 31
0.0
  0
LINE
  5
1420F
  8
HIDE
 10
2253.5609560913708
 20
1635.606218190745
 30
0.0
 11
2269.5609560913708
 21
1635.606218190745
 31
0.0
  0
LINE
  5
14210
  8
HIDE
 10
2253.5609560913708
 20
1591.606218190745
 30
0.0
 11
2269.5609560913708
 21
1591.606218190745
 31
0.0
  0
LINE
  5
14211
  8
HIDE
 10
2253.5609560913708
 20
1587.606218190745
 30
0.0
 11
2269.5609560913708
 21
1587.606218190745
 31
0.0
  0
LINE
  5
14212
  8
HIDE
 10
2165.5609560913731
 20
1631.606218190745
 30
0.0
 11
2181.5609560913749
 21
1631.606218190745
 31
0.0
  0
LINE
  5
14213
  8
HIDE
 10
2165.5609560913731
 20
1635.606218190745
 30
0.0
 11
2181.5609560913749
 21
1635.606218190745
 31
0.0
  0
LINE
  5
14214
  8
HIDE
 10
2165.5609560913731
 20
1591.606218190745
 30
0.0
 11
2181.5609560913749
 21
1591.606218190745
 31
0.0
  0
LINE
  5
14215
  8
HIDE
 10
2165.5609560913731
 20
1587.606218190745
 30
0.0
 11
2181.5609560913749
 21
1587.606218190745
 31
0.0
  0
CIRCLE
  5
14216
  8
HIDE
 10
2190.5609560913731
 20
1581.606218190745
 30
0.0
 40
6.0
  0
CIRCLE
  5
14217
  8
HIDE
 10
2190.5609560913731
 20
1641.606218190745
 30
0.0
 40
6.0
  0
ARC
  5
14218
  8
HIDE
 10
2198.9609560913718
 20
1651.0062181907449
 30
0.0
 40
0.6000000000000015
 50
0.0
 51
90.0
  0
ARC
  5
14219
  8
HIDE
 10
2182.660956091373
 20
1650.5062181907449
 30
0.0
 40
1.1000000000000001
 50
90.0
 51
180.0
  0
ARC
  5
1421A
  8
HIDE
 10
2198.4609560913718
 20
1632.7062181907449
 30
0.0
 40
1.1000000000000001
 50
270.0
 51
0.0
  0
ARC
  5
1421B
  8
HIDE
 10
2198.4609560913718
 20
1590.5062181907449
 30
0.0
 40
1.1000000000000001
 50
0.0
 51
90.0
  0
ARC
  5
1421C
  8
HIDE
 10
2182.160956091373
 20
1632.2062181907449
 30
0.0
 40
0.6000000000000015
 50
180.0
 51
270.0
  0
ARC
  5
1421D
  8
HIDE
 10
2182.160956091373
 20
1591.006218190744
 30
0.0
 40
0.6000000000000015
 50
90.0
 51
180.0
  0
ARC
  5
1421E
  8
HIDE
 10
2198.9609560913718
 20
1572.2062181907449
 30
0.0
 40
0.6000000000000015
 50
270.0
 51
0.0
  0
ARC
  5
1421F
  8
HIDE
 10
2182.660956091373
 20
1572.706218190744
 30
0.0
 40
1.1000000000000001
 50
180.0
 51
270.0
  0
LINE
  5
14220
  8
HIDE
 10
2181.5609560913731
 20
1644.156218190745
 30
0.0
 11
2185.1297959943022
 21
1644.156218190745
 31
0.0
  0
LINE
  5
14221
  8
HIDE
 10
2182.660956091373
 20
1651.606218190745
 30
0.0
 11
2198.9609560913718
 21
1651.606218190745
 31
0.0
  0
LINE
  5
14222
  8
HIDE
 10
2199.5609560913731
 20
1639.0562181907451
 30
0.0
 11
2195.9921161884431
 21
1639.0562181907451
 31
0.0
  0
LINE
  5
14223
  8
HIDE
 10
2192.7078317355749
 20
1647.2089786682529
 30
0.0
 11
2199.5609560913731
 21
1647.856218190745
 31
0.0
  0
LINE
  5
14224
  8
HIDE
 10
2181.5609560913731
 20
1639.0562181907451
 30
0.0
 11
2185.1297959943022
 21
1639.0562181907451
 31
0.0
  0
LINE
  5
14225
  8
HIDE
 10
2181.5609560913731
 20
1584.156218190745
 30
0.0
 11
2185.1297959943022
 21
1584.156218190745
 31
0.0
  0
LINE
  5
14226
  8
HIDE
 10
2182.160956091373
 20
1631.606218190745
 30
0.0
 11
2198.4609560913718
 21
1631.606218190745
 31
0.0
  0
LINE
  5
14227
  8
HIDE
 10
2182.160956091373
 20
1591.606218190745
 30
0.0
 11
2198.4609560913718
 21
1591.606218190745
 31
0.0
  0
LINE
  5
14228
  8
HIDE
 10
2199.5609560913731
 20
1584.156218190745
 30
0.0
 11
2195.9921161884431
 21
1584.156218190745
 31
0.0
  0
LINE
  5
14229
  8
HIDE
 10
2181.5609560913731
 20
1579.0562181907451
 30
0.0
 11
2185.1297959943022
 21
1579.0562181907451
 31
0.0
  0
LINE
  5
1422A
  8
HIDE
 10
2198.9609560913718
 20
1571.606218190745
 30
0.0
 11
2182.660956091373
 21
1571.606218190745
 31
0.0
  0
LINE
  5
1422B
  8
HIDE
 10
2192.7078317355749
 20
1576.0034577132369
 30
0.0
 11
2199.5609560913731
 21
1575.356218190745
 31
0.0
  0
LINE
  5
1422C
  8
HIDE
 10
2181.5609560913731
 20
1572.706218190744
 30
0.0
 11
2181.5609560913731
 21
1650.5062181907449
 31
0.0
  0
LINE
  5
1422D
  8
HIDE
 10
2199.5609560913731
 20
1651.0062181907449
 30
0.0
 11
2199.5609560913731
 21
1572.2062181907449
 31
0.0
  0
LINE
  5
1422E
  8
HIDE
 10
2199.431165746179
 20
1647.843960213698
 30
0.0
 11
2199.5609560913731
 21
1647.9737505588921
 31
0.0
  0
LINE
  5
1422F
  8
HIDE
 10
2199.5609560913731
 20
1647.9737505588921
 30
0.0
 11
2199.6907464365681
 21
1647.843960213698
 31
0.0
  0
LINE
  5
14230
  8
0
 10
2190.5609560913708
 20
1551.606218190745
 30
0.0
 11
2190.5609560913708
 21
1523.606218190745
 31
0.0
  0
ARC
  5
14263
  8
0
 10
2026.164848145565
 20
1611.606218190745
 30
0.0
 40
75.0
 50
324.42138499997083
 51
324.48628199998677
  0
CIRCLE
  5
14264
  8
0
 10
2079.1978571455661
 20
1558.573209190745
 30
0.0
 40
7.0
  0
ARC
  5
14265
  8
CENTER
 10
2026.164848145565
 20
1611.606218190745
 30
0.0
 40
75.0
 50
305.45916899997462
 51
324.42138499997083
  0
LINE
  5
14266
  8
CENTER
 10
2057.9970301455669
 20
1593.227899190744
 30
0.0
 11
2078.8970151455669
 21
1581.161287190745
 31
0.0
  0
ARC
  5
14267
  8
CENTER
 10
2026.164848145565
 20
1611.606218190745
 30
0.0
 40
49.0
 50
316.03959599999507
 51
344.50192800002031
  0
LINE
  5
14268
  8
CENTER
 10
2070.2948841455659
 20
1567.476182190745
 30
0.0
 11
2089.3062451455662
 21
1548.464821190744
 31
0.0
  0
CIRCLE
  5
14269
  8
0
 10
2079.1978571455661
 20
1558.573209190745
 30
0.0
 40
10.0
  0
CIRCLE
  5
1426A
  8
0
 10
1973.131839145565
 20
1558.573209190745
 30
0.0
 40
7.0
  0
ARC
  5
1426B
  8
CENTER
 10
2026.164848145565
 20
1611.606218190745
 30
0.0
 40
75.0
 50
216.10468599998759
 51
235.48657899998
  0
LINE
  5
1426C
  8
CENTER
 10
1993.7367741455651
 20
1592.8838611907449
 30
0.0
 11
1973.4275981455669
 21
1581.1583521907451
 31
0.0
  0
ARC
  5
1426D
  8
CENTER
 10
2026.164848145565
 20
1611.606218190745
 30
0.0
 40
49.0
 50
194.7326960000037
 51
224.4949260000117
  0
LINE
  5
1426E
  8
CENTER
 10
1983.099963145565
 20
1568.541333190745
 30
0.0
 11
1961.7122531455659
 21
1547.1536231907451
 31
0.0
  0
CIRCLE
  5
1426F
  8
0
 10
1973.131839145565
 20
1558.573209190745
 30
0.0
 40
10.0
  0
LINE
  5
14270
  8
0
 10
1962.164848145565
 20
1551.2075431907449
 30
0.0
 11
1962.164848145565
 21
1611.606218190745
 31
0.0
  0
LINE
  5
14271
  8
0
 10
2090.164848145565
 20
1551.2075431907449
 30
0.0
 11
2090.164848145565
 21
1611.606218190745
 31
0.0
  0
ARC
  5
14272
  8
CENTER
 10
2026.164848145565
 20
1611.606218190745
 30
0.0
 40
49.0
 50
15.498071999979731
 51
43.960404000004999
  0
ARC
  5
14273
  8
CENTER
 10
2026.164848145565
 20
1611.606218190745
 30
0.0
 40
49.0
 50
73.787716000017625
 51
104.34297299999579
  0
ARC
  5
14274
  8
CENTER
 10
2026.164848145565
 20
1611.606218190745
 30
0.0
 40
49.0
 50
135.5050739999883
 51
165.2673039999963
  0
LINE
  5
14275
  8
CENTER
 10
1993.7367741455651
 20
1630.328575190744
 30
0.0
 11
1973.4275981455669
 21
1642.054084190745
 31
0.0
  0
LINE
  5
14276
  8
CENTER
 10
2057.9970301455669
 20
1629.984537190745
 30
0.0
 11
2078.8970151455669
 21
1642.051149190745
 31
0.0
  0
CIRCLE
  5
14277
  8
0
 10
2026.164848145565
 20
1611.606218190745
 30
0.0
 40
36.0
  0
CIRCLE
  5
14278
  8
0
 10
2026.164848145565
 20
1611.606218190745
 30
0.0
 40
63.0
  0
ARC
  5
14279
  8
0
 10
2026.164848145565
 20
1611.606218190745
 30
0.0
 40
75.0
 50
35.513718000013192
 51
35.578615000029281
  0
ARC
  5
1427A
  8
CENTER
 10
2026.164848145565
 20
1611.606218190745
 30
0.0
 40
75.0
 50
35.578615000029281
 51
54.540831000025342
  0
ARC
  5
1427B
  8
CENTER
 10
2026.164848145565
 20
1611.606218190745
 30
0.0
 40
75.0
 50
65.229253999998463
 51
84.487400000006417
  0
ARC
  5
1427C
  8
CENTER
 10
2026.164848145565
 20
1611.606218190745
 30
0.0
 40
75.0
 50
95.362270000007044
 51
114.9121840000244
  0
ARC
  5
1427D
  8
CENTER
 10
2026.164848145565
 20
1611.606218190745
 30
0.0
 40
75.0
 50
124.51342100002
 51
143.89531400001241
  0
CIRCLE
  5
1427E
  8
0
 10
1973.131839145565
 20
1664.639227190745
 30
0.0
 40
7.0
  0
CIRCLE
  5
1427F
  8
0
 10
1973.131839145565
 20
1664.639227190745
 30
0.0
 40
10.0
  0
CIRCLE
  5
14280
  8
0
 10
2006.753420145566
 20
1684.050655190744
 30
0.0
 40
7.0
  0
CIRCLE
  5
14281
  8
0
 10
2006.753420145566
 20
1684.050655190744
 30
0.0
 40
10.0
  0
CIRCLE
  5
14282
  8
0
 10
2045.576276145566
 20
1684.050655190744
 30
0.0
 40
7.0
  0
CIRCLE
  5
14283
  8
0
 10
2045.576276145566
 20
1684.050655190744
 30
0.0
 40
10.0
  0
CIRCLE
  5
14284
  8
0
 10
2079.1978571455661
 20
1664.639227190745
 30
0.0
 40
10.0
  0
CIRCLE
  5
14285
  8
0
 10
2079.1978571455661
 20
1664.639227190745
 30
0.0
 40
7.0
  0
LINE
  5
14286
  8
CENTER
 10
2070.2948841455659
 20
1655.7362541907451
 30
0.0
 11
2089.3062451455662
 21
1674.747615190744
 31
0.0
  0
LINE
  5
14287
  8
CENTER
 10
2042.270048145567
 20
1671.711643190745
 30
0.0
 11
2049.5389701455661
 21
1698.8396301907451
 31
0.0
  0
LINE
  5
14288
  8
CENTER
 10
1983.099963145565
 20
1654.671103190745
 30
0.0
 11
1961.7122531455659
 21
1676.058813190745
 31
0.0
  0
LINE
  5
14289
  8
CENTER
 10
2010.4877531455661
 20
1670.113933190745
 30
0.0
 11
2002.695138145566
 21
1699.1963691907449
 31
0.0
  0
ARC
  5
1428A
  8
0
 10
2026.164848145565
 20
1611.606218190745
 30
0.0
 40
88.0
 50
43.34175800003846
 51
136.65824199996149
  0
LINE
  5
1428B
  8
0
 10
2090.164848145565
 20
1672.004893190745
 30
0.0
 11
2090.164848145565
 21
1611.606218190745
 31
0.0
  0
LINE
  5
1428C
  8
0
 10
1962.164848145565
 20
1672.004893190745
 30
0.0
 11
1962.164848145565
 21
1611.606218190745
 31
0.0
  0
LINE
  5
1428D
  8
CENTER
 10
1956.529255145565
 20
1611.606218190745
 30
0.0
 11
2096.6091381455658
 21
1611.606218190745
 31
0.0
  0
LINE
  5
1428E
  8
CENTER
 10
2026.164848145565
 20
1518.957491190745
 30
0.0
 11
2026.164848145565
 21
1703.881434190745
 31
0.0
  0
CIRCLE
  5
1428F
  8
0
 10
2045.576276145566
 20
1539.1617811907449
 30
0.0
 40
7.0
  0
LINE
  5
14290
  8
CENTER
 10
2042.270048145567
 20
1551.5007931907451
 30
0.0
 11
2049.5389701455661
 21
1524.372806190745
 31
0.0
  0
CIRCLE
  5
14291
  8
0
 10
2045.576276145566
 20
1539.1617811907449
 30
0.0
 40
10.0
  0
ARC
  5
14292
  8
0
 10
2026.164848145565
 20
1611.606218190745
 30
0.0
 40
88.0
 50
223.3417580000384
 51
316.65824199996149
  0
ARC
  5
14293
  8
CENTER
 10
2026.164848145565
 20
1611.606218190745
 30
0.0
 40
75.0
 50
275.5125999999936
 51
294.77074600000151
  0
ARC
  5
14294
  8
CENTER
 10
2026.164848145565
 20
1611.606218190745
 30
0.0
 40
49.0
 50
255.65702700000409
 51
286.21228399998239
  0
CIRCLE
  5
14295
  8
0
 10
2006.753420145566
 20
1539.1617811907449
 30
0.0
 40
7.0
  0
ARC
  5
14296
  8
CENTER
 10
2026.164848145565
 20
1611.606218190745
 30
0.0
 40
75.0
 50
245.08781599997559
 51
264.63772999999293
  0
LINE
  5
14297
  8
CENTER
 10
2010.4877531455661
 20
1553.0985031907451
 30
0.0
 11
2002.695138145566
 21
1524.0160671907449
 31
0.0
  0
CIRCLE
  5
14298
  8
0
 10
2006.753420145566
 20
1539.1617811907449
 30
0.0
 40
10.0
  0
LINE
  5
142BA
  8
0
  6
CONTINUOUS
 62
     7
 10
2063.5812461455662
 20
1634.7608871907451
 30
0.0
 11
2067.2552311455661
 21
1631.086903190745
 31
0.0
  0
LINE
  5
142BB
  8
0
  6
CONTINUOUS
 62
     7
 10
2063.5811961455661
 20
1634.760925190745
 30
0.0
 11
2064.926156145566
 21
1639.780392190745
 31
0.0
  0
LINE
  5
142BC
  8
0
  6
CONTINUOUS
 62
     7
 10
2064.9263201455642
 20
1639.780418190745
 30
0.0
 11
2069.945080145566
 21
1641.125191190745
 31
0.0
  0
LINE
  5
142BD
  8
0
  6
CONTINUOUS
 62
     7
 10
2069.9448631455648
 20
1641.1251941907451
 30
0.0
 11
2073.6195381455659
 21
1637.450519190744
 31
0.0
  0
LINE
  5
142BE
  8
0
  6
CONTINUOUS
 62
     7
 10
2072.274630145565
 20
1632.4319381907451
 30
0.0
 11
2073.6193871455662
 21
1637.4506381907449
 31
0.0
  0
CIRCLE
  5
142BF
  8
0
  6
CONTINUOUS
 62
     7
 10
2068.6002051455648
 20
1636.106098190744
 30
0.0
 40
9.0
  0
LINE
  5
142C0
  8
0
  6
CONTINUOUS
 62
     7
 10
2067.2552231455652
 20
1631.086960190745
 30
0.0
 11
2072.2744511455662
 21
1632.4318581907451
 31
0.0
  0
LINE
  5
142C1
  8
0
  6
CONTINUOUS
 62
     7
 10
2021.1460011455661
 20
1659.2608871907451
 30
0.0
 11
2024.8199861455671
 21
1655.586903190745
 31
0.0
  0
LINE
  5
142C2
  8
0
  6
CONTINUOUS
 62
     7
 10
2021.1459511455671
 20
1659.260925190745
 30
0.0
 11
2022.4909111455661
 21
1664.280392190745
 31
0.0
  0
LINE
  5
142C3
  8
0
  6
CONTINUOUS
 62
     7
 10
2022.4910751455659
 20
1664.280418190745
 30
0.0
 11
2027.5098351455649
 21
1665.625191190745
 31
0.0
  0
LINE
  5
142C4
  8
0
  6
CONTINUOUS
 62
     7
 10
2027.5096181455649
 20
1665.6251941907451
 30
0.0
 11
2031.1842931455669
 21
1661.950519190744
 31
0.0
  0
LINE
  5
142C5
  8
0
  6
CONTINUOUS
 62
     7
 10
2029.839385145566
 20
1656.9319381907451
 30
0.0
 11
2031.1841421455661
 21
1661.9506381907449
 31
0.0
  0
CIRCLE
  5
142C6
  8
0
  6
CONTINUOUS
 62
     7
 10
2026.164960145567
 20
1660.6060981907449
 30
0.0
 40
9.0
  0
LINE
  5
142C7
  8
0
  6
CONTINUOUS
 62
     7
 10
2024.8199781455669
 20
1655.586960190745
 30
0.0
 11
2029.839206145565
 21
1656.9318581907451
 31
0.0
  0
LINE
  5
142C8
  8
0
  6
CONTINUOUS
 62
     7
 10
1978.710756145565
 20
1634.7608871907451
 30
0.0
 11
1982.3847411455661
 21
1631.086903190745
 31
0.0
  0
LINE
  5
142C9
  8
0
  6
CONTINUOUS
 62
     7
 10
1978.7107061455661
 20
1634.760925190745
 30
0.0
 11
1980.055666145566
 21
1639.780392190745
 31
0.0
  0
LINE
  5
142CA
  8
0
  6
CONTINUOUS
 62
     7
 10
1980.055830145566
 20
1639.780418190745
 30
0.0
 11
1985.0745901455671
 21
1641.125191190745
 31
0.0
  0
LINE
  5
142CB
  8
0
  6
CONTINUOUS
 62
     7
 10
1985.074373145565
 20
1641.1251941907451
 30
0.0
 11
1988.749048145565
 21
1637.450519190744
 31
0.0
  0
LINE
  5
142CC
  8
0
  6
CONTINUOUS
 62
     7
 10
1987.404140145567
 20
1632.4319381907451
 30
0.0
 11
1988.7488971455659
 21
1637.4506381907449
 31
0.0
  0
CIRCLE
  5
142CD
  8
0
  6
CONTINUOUS
 62
     7
 10
1983.729715145565
 20
1636.106098190744
 30
0.0
 40
9.0
  0
LINE
  5
142CE
  8
0
  6
CONTINUOUS
 62
     7
 10
1982.384733145567
 20
1631.086960190745
 30
0.0
 11
1987.403961145566
 21
1632.4318581907451
 31
0.0
  0
LINE
  5
142CF
  8
0
  6
CONTINUOUS
 62
     7
 10
2021.1460011455661
 20
1563.951549190745
 30
0.0
 11
2024.8199861455671
 21
1567.625533190745
 31
0.0
  0
LINE
  5
142D0
  8
0
  6
CONTINUOUS
 62
     7
 10
2021.1459511455671
 20
1563.951511190744
 30
0.0
 11
2022.4909111455661
 21
1558.932044190745
 31
0.0
  0
LINE
  5
142D1
  8
0
  6
CONTINUOUS
 62
     7
 10
2022.4910751455659
 20
1558.9320181907451
 30
0.0
 11
2027.5098351455649
 21
1557.5872451907451
 31
0.0
  0
LINE
  5
142D2
  8
0
  6
CONTINUOUS
 62
     7
 10
2027.5096181455649
 20
1557.587242190745
 30
0.0
 11
2031.1842931455669
 21
1561.261917190745
 31
0.0
  0
LINE
  5
142D3
  8
0
  6
CONTINUOUS
 62
     7
 10
2029.839385145566
 20
1566.280498190745
 30
0.0
 11
2031.1841421455661
 21
1561.2617981907449
 31
0.0
  0
CIRCLE
  5
142D4
  8
0
  6
CONTINUOUS
 62
     7
 10
2026.164960145567
 20
1562.606338190745
 30
0.0
 40
9.0
  0
LINE
  5
142D5
  8
0
  6
CONTINUOUS
 62
     7
 10
2024.8199781455669
 20
1567.6254761907451
 30
0.0
 11
2029.839206145565
 21
1566.280578190745
 31
0.0
  0
LINE
  5
142D6
  8
0
  6
CONTINUOUS
 62
     7
 10
1978.710756145565
 20
1588.451549190745
 30
0.0
 11
1982.3847411455661
 21
1592.125533190745
 31
0.0
  0
LINE
  5
142D7
  8
0
  6
CONTINUOUS
 62
     7
 10
1978.7107061455661
 20
1588.4515111907449
 30
0.0
 11
1980.055666145566
 21
1583.432044190745
 31
0.0
  0
LINE
  5
142D8
  8
0
  6
CONTINUOUS
 62
     7
 10
1980.055830145566
 20
1583.4320181907451
 30
0.0
 11
1985.0745901455671
 21
1582.0872451907451
 31
0.0
  0
LINE
  5
142D9
  8
0
  6
CONTINUOUS
 62
     7
 10
1985.074373145565
 20
1582.087242190745
 30
0.0
 11
1988.749048145565
 21
1585.761917190745
 31
0.0
  0
LINE
  5
142DA
  8
0
  6
CONTINUOUS
 62
     7
 10
1987.404140145567
 20
1590.780498190745
 30
0.0
 11
1988.7488971455659
 21
1585.7617981907449
 31
0.0
  0
CIRCLE
  5
142DB
  8
0
  6
CONTINUOUS
 62
     7
 10
1983.729715145565
 20
1587.106338190745
 30
0.0
 40
9.0
  0
LINE
  5
142DC
  8
0
  6
CONTINUOUS
 62
     7
 10
1982.384733145567
 20
1592.1254761907451
 30
0.0
 11
1987.403961145566
 21
1590.780578190745
 31
0.0
  0
LINE
  5
142DD
  8
0
  6
CONTINUOUS
 62
     7
 10
2063.5812461455662
 20
1588.451549190745
 30
0.0
 11
2067.2552311455661
 21
1592.125533190745
 31
0.0
  0
LINE
  5
142DE
  8
0
  6
CONTINUOUS
 62
     7
 10
2063.5811961455661
 20
1588.4515111907449
 30
0.0
 11
2064.926156145566
 21
1583.432044190745
 31
0.0
  0
LINE
  5
142DF
  8
0
  6
CONTINUOUS
 62
     7
 10
2064.9263201455642
 20
1583.4320181907451
 30
0.0
 11
2069.945080145566
 21
1582.0872451907451
 31
0.0
  0
LINE
  5
142E0
  8
0
  6
CONTINUOUS
 62
     7
 10
2069.9448631455648
 20
1582.087242190745
 30
0.0
 11
2073.6195381455659
 21
1585.761917190745
 31
0.0
  0
LINE
  5
142E1
  8
0
  6
CONTINUOUS
 62
     7
 10
2072.274630145565
 20
1590.780498190745
 30
0.0
 11
2073.6193871455662
 21
1585.7617981907449
 31
0.0
  0
CIRCLE
  5
142E2
  8
0
  6
CONTINUOUS
 62
     7
 10
2068.6002051455648
 20
1587.106338190745
 30
0.0
 40
9.0
  0
LINE
  5
142E3
  8
0
  6
CONTINUOUS
 62
     7
 10
2067.2552231455652
 20
1592.1254761907451
 30
0.0
 11
2072.2744511455662
 21
1590.780578190745
 31
0.0
  0
LINE
  5
1443E
  8
CENTER
 10
2141.5609560913731
 20
1611.606218190745
 30
0.0
 11
2168.5609560913731
 21
1611.606218190745
 31
0.0
  0
LINE
  5
1443F
  8
0
 10
2142.5609560913731
 20
1580.106218190745
 30
0.0
 11
2142.5609560913649
 21
1643.106218190745
 31
0.0
  0
LINE
  5
14440
  8
0
 10
2165.5609560913731
 20
1587.10621819075
 30
0.0
 11
2165.5609560913731
 21
1636.1062181907409
 31
0.0
  0
LINE
  5
14441
  8
0
 10
2165.0609560913731
 20
1580.106218190745
 30
0.0
 11
2165.0609560913731
 21
1643.106218190745
 31
0.0
  0
LINE
  5
14442
  8
0
 10
2165.0609560913658
 20
1636.6062181907571
 30
0.0
 11
2165.5609560913649
 21
1636.106218190745
 31
0.0
  0
LINE
  5
14443
  8
HIDE
 10
2165.5609560913731
 20
1631.606218190745
 30
0.0
 11
2142.5609560913799
 21
1631.606218190745
 31
0.0
  0
LINE
  5
14444
  8
HIDE
 10
2165.5609560913731
 20
1630.856218190743
 30
0.0
 11
2142.5609560913799
 21
1630.8562181907471
 31
0.0
  0
LINE
  5
14445
  8
CENTER
 10
2149.5609560913731
 20
1644.0585645707299
 30
0.0
 11
2149.5609560913731
 21
1631.606218190745
 31
0.0
  0
LINE
  5
14446
  8
HIDE
 10
2153.5609560913799
 20
1643.106218190745
 30
0.0
 11
2153.5609560913949
 21
1631.606218190743
 31
0.0
  0
LINE
  5
14447
  8
HIDE
 10
2145.5609560913799
 20
1643.106218190745
 30
0.0
 11
2145.5609560913799
 21
1631.606218190745
 31
0.0
  0
LINE
  5
14448
  8
HIDE
 10
2152.9609560913741
 20
1643.106218190745
 30
0.0
 11
2152.9609560913891
 21
1631.606218190745
 31
0.0
  0
LINE
  5
14449
  8
HIDE
 10
2146.1609560913789
 20
1643.106218190745
 30
0.0
 11
2146.1609560913712
 21
1631.606218190745
 31
0.0
  0
LINE
  5
1444A
  8
HIDE
 10
2152.9609560913741
 20
1632.606218190745
 30
0.0
 11
2146.1609560913712
 21
1632.606218190745
 31
0.0
  0
LINE
  5
1444B
  8
HIDE
 10
2152.9609560913741
 20
1632.606218190745
 30
0.0
 11
2153.5609560913799
 21
1633.6454486752821
 31
0.0
  0
LINE
  5
1444C
  8
HIDE
 10
2146.1609560913712
 20
1632.606218190745
 30
0.0
 11
2145.5609560913799
 21
1633.6454486752821
 31
0.0
  0
LINE
  5
1444D
  8
HIDE
 10
2153.5609560913799
 20
1633.6454486752821
 30
0.0
 11
2145.5609560913799
 21
1633.6454486752821
 31
0.0
  0
LINE
  5
1444E
  8
HIDE
 10
2153.5609560913799
 20
1641.6454486752821
 30
0.0
 11
2145.5609560913799
 21
1641.6454486752821
 31
0.0
  0
LINE
  5
1444F
  8
0
 10
2165.0609560913731
 20
1643.106218190745
 30
0.0
 11
2142.5609560913649
 21
1643.106218190745
 31
0.0
  0
LINE
  5
14450
  8
0
 10
2165.0609560913658
 20
1586.6062181907321
 30
0.0
 11
2165.5609560913649
 21
1587.106218190745
 31
0.0
  0
LINE
  5
14451
  8
0
 10
2165.0609560913731
 20
1580.106218190745
 30
0.0
 11
2142.5609560913649
 21
1580.106218190745
 31
0.0
  0
LINE
  5
14452
  8
HIDE
 10
2165.5609560913731
 20
1591.606218190745
 30
0.0
 11
2142.5609560913799
 21
1591.6062181907409
 31
0.0
  0
LINE
  5
14453
  8
HIDE
 10
2165.5609560913731
 20
1592.3562181907471
 30
0.0
 11
2142.5609560913799
 21
1592.3562181907389
 31
0.0
  0
LINE
  5
14454
  8
CENTER
 10
2149.5609560913731
 20
1579.1538718107579
 30
0.0
 11
2149.5609560913731
 21
1591.606218190743
 31
0.0
  0
LINE
  5
14455
  8
HIDE
 10
2153.5609560913799
 20
1580.106218190743
 30
0.0
 11
2153.5609560913949
 21
1591.606218190745
 31
0.0
  0
LINE
  5
14456
  8
HIDE
 10
2145.5609560913799
 20
1580.1062181907409
 30
0.0
 11
2145.5609560913799
 21
1591.6062181907409
 31
0.0
  0
LINE
  5
14457
  8
HIDE
 10
2152.9609560913741
 20
1580.106218190743
 30
0.0
 11
2152.9609560913891
 21
1591.606218190743
 31
0.0
  0
LINE
  5
14458
  8
HIDE
 10
2146.1609560913789
 20
1580.1062181907409
 30
0.0
 11
2146.1609560913712
 21
1591.6062181907409
 31
0.0
  0
LINE
  5
14459
  8
HIDE
 10
2152.9609560913741
 20
1590.606218190743
 30
0.0
 11
2146.1609560913712
 21
1590.6062181907409
 31
0.0
  0
LINE
  5
1445A
  8
HIDE
 10
2152.9609560913741
 20
1590.606218190743
 30
0.0
 11
2153.5609560913799
 21
1589.566987706206
 31
0.0
  0
LINE
  5
1445B
  8
HIDE
 10
2146.1609560913712
 20
1590.6062181907409
 30
0.0
 11
2145.5609560913799
 21
1589.5669877062039
 31
0.0
  0
LINE
  5
1445C
  8
HIDE
 10
2153.5609560913799
 20
1589.566987706206
 30
0.0
 11
2145.5609560913799
 21
1589.5669877062039
 31
0.0
  0
LINE
  5
1445D
  8
HIDE
 10
2153.5609560913799
 20
1581.566987706206
 30
0.0
 11
2145.5609560913799
 21
1581.5669877062039
 31
0.0
  0
LINE
  5
14464
  8
0
 10
2165.5609560913731
 20
1635.606218190745
 30
0.0
 11
2165.5609560913731
 21
1587.606218190745
 31
0.0
  0
LINE
  5
14531
  8
CENTER
 10
1991.8249553839
 20
1611.606218190745
 30
0.0
 11
2060.5047409072308
 21
1611.606218190745
 31
0.0
  0
LINE
  5
14532
  8
0
 10
2030.2916874423699
 20
1580.377718428213
 30
0.0
 11
2057.393347908112
 21
1607.4793788939601
 31
0.0
  0
LINE
  5
14533
  8
0
 10
1994.9363483830471
 20
1615.733057487548
 30
0.0
 11
2022.038008848753
 21
1642.8347179532709
 31
0.0
  0
LINE
  5
14534
  8
CENTER
 10
2026.164848145565
 20
1577.266325429079
 30
0.0
 11
2026.164848145565
 21
1645.94611095241
 31
0.0
  0
LINE
  5
14535
  8
0
 10
2022.038008848775
 20
1580.3777184282151
 30
0.0
 11
1994.9363483830471
 21
1607.479378893958
 31
0.0
  0
LINE
  5
14536
  8
0
 10
2057.393347908112
 20
1615.7330574875441
 30
0.0
 11
2030.291687442377
 21
1642.834717953277
 31
0.0
  0
LINE
  5
14538
  8
HIDE
 10
2022.1648481455579
 20
1642.8512177906771
 30
0.0
 11
2022.16484814555
 21
1631.2021361330039
 31
0.0
  0
LINE
  5
14539
  8
HIDE
 10
2030.1648481455579
 20
1642.851217790683
 30
0.0
 11
2030.1648481455579
 21
1631.2021361330151
 31
0.0
  0
LINE
  5
1453A
  8
HIDE
 10
2022.764848145564
 20
1642.9221885573149
 30
0.0
 11
2022.764848145556
 21
1631.3150994375289
 31
0.0
  0
LINE
  5
1453B
  8
HIDE
 10
2029.5648481455451
 20
1642.9221885573199
 30
0.0
 11
2029.564848145566
 21
1631.3150994375351
 31
0.0
  0
LINE
  5
1453C
  8
HIDE
 10
2022.764848145564
 20
1632.606218190745
 30
0.0
 11
2029.564848145566
 21
1632.606218190745
 31
0.0
  0
LINE
  5
1453D
  8
HIDE
 10
2022.764848145564
 20
1632.606218190745
 30
0.0
 11
2022.1648481455579
 21
1633.6454486752821
 31
0.0
  0
LINE
  5
1453E
  8
HIDE
 10
2029.564848145566
 20
1632.606218190745
 30
0.0
 11
2030.1648481455579
 21
1633.6454486752821
 31
0.0
  0
LINE
  5
1453F
  8
HIDE
 10
2022.1648481455579
 20
1633.6454486752821
 30
0.0
 11
2030.1648481455579
 21
1633.6454486752821
 31
0.0
  0
LINE
  5
14540
  8
HIDE
 10
2022.1648481455579
 20
1641.6454486752821
 30
0.0
 11
2030.1648481455579
 21
1641.6454486752821
 31
0.0
  0
ARC
  5
14541
  8
0
 10
2026.16484814558
 20
1611.606218190745
 30
0.0
 40
31.5
 50
82.471995182697356
 51
97.52800481730263
  0
ARC
  5
14542
  8
0
 10
2026.16484814558
 20
1611.606218190745
 30
0.0
 40
31.5
 50
172.4719951827889
 51
187.52800481721101
  0
ARC
  5
14543
  8
0
 10
2026.16484814558
 20
1611.606218190745
 30
0.0
 40
31.5
 50
262.4719951826973
 51
277.52800481730259
  0
ARC
  5
14544
  8
0
 10
2026.16484814558
 20
1611.606218190745
 30
0.0
 40
31.5
 50
352.47199518278887
 51
7.5280048172110741
  0
CIRCLE
  5
14545
  8
0
 10
2026.16484814558
 20
1611.606218190745
 30
0.0
 40
24.5
  0
LINE
  5
1454C
  8
HIDE
 10
2022.1648481455279
 20
1580.3612185908339
 30
0.0
 11
2022.1648481455361
 21
1595.340840851158
 31
0.0
  0
LINE
  5
1454D
  8
HIDE
 10
2030.1648481455279
 20
1580.36121859082
 30
0.0
 11
2030.1648481455429
 21
1595.3408408511409
 31
0.0
  0
LINE
  5
1454E
  8
HIDE
 10
2022.764848145534
 20
1580.2902478241949
 30
0.0
 11
2022.7648481455419
 21
1595.204922510241
 31
0.0
  0
LINE
  5
1454F
  8
HIDE
 10
2029.564848145516
 20
1580.290247824182
 30
0.0
 11
2029.5648481455589
 21
1595.2049225102339
 31
0.0
  0
LINE
  5
14550
  8
HIDE
 10
2022.7648481455419
 20
1590.606218190765
 30
0.0
 11
2029.5648481455451
 21
1590.606218190758
 31
0.0
  0
LINE
  5
14551
  8
HIDE
 10
2022.7648481455419
 20
1590.606218190765
 30
0.0
 11
2022.1648481455361
 21
1589.5669877062289
 31
0.0
  0
LINE
  5
14552
  8
HIDE
 10
2029.5648481455451
 20
1590.606218190758
 30
0.0
 11
2030.1648481455361
 21
1589.5669877062201
 31
0.0
  0
LINE
  5
14553
  8
HIDE
 10
2022.1648481455361
 20
1589.5669877062289
 30
0.0
 11
2030.1648481455361
 21
1589.5669877062201
 31
0.0
  0
LINE
  5
14554
  8
HIDE
 10
2022.1648481455279
 20
1581.5669877062289
 30
0.0
 11
2030.1648481455279
 21
1581.5669877062201
 31
0.0
  0
ARC
  5
14555
  8
HIDE
 10
2026.16484814558
 20
1611.606218190745
 30
0.0
 40
20.0
 50
270.0
 51
180.0
  0
CIRCLE
  5
14556
  8
0
 10
2026.16484814558
 20
1611.6062181907471
 30
0.0
 40
19.25
  0
ENDSEC
  0
EOF
