  0
SECTION
  2
HEADER
  9
$ACADVER
  1
AC1009
  9
$INSBASE
 10
0.0
 20
0.0
 30
0.0
  9
$EXTMIN
 10
1903.0405749290021
 20
1433.173578249188
 30
0.0
  9
$EXTMAX
 10
2348.540574929003
 20
1748.173578249188
 30
0.0
  9
$LIMMIN
 10
0.0
 20
0.0
  9
$LIMMAX
 10
12.0
 20
9.0
  9
$ORTHOMODE
 70
     0
  9
$REGENMODE
 70
     1
  9
$FILLMODE
 70
     1
  9
$QTEXTMODE
 70
     0
  9
$MIRRTEXT
 70
     0
  9
$DRAGMODE
 70
     2
  9
$LTSCALE
 40
5.0
  9
$OSMODE
 70
  2239
  9
$ATTMODE
 70
     1
  9
$TEXTSIZE
 40
2.5
  9
$TRACEWID
 40
0.05
  9
$TEXTSTYLE
  7
BIG
  9
$CLAYER
  8
0
  9
$CELTYPE
  6
BYLAYER
  9
$CECOLOR
 62
   256
  9
$DIMSCALE
 40
1.0
  9
$DIMASZ
 40
3.0
  9
$DIMEXO
 40
1.0
  9
$DIMDLI
 40
0.0
  9
$DIMRND
 40
0.0
  9
$DIMDLE
 40
0.0
  9
$DIMEXE
 40
1.0
  9
$DIMTP
 40
0.0
  9
$DIMTM
 40
0.0
  9
$DIMTXT
 40
3.0
  9
$DIMCEN
 40
0.0
  9
$DIMTSZ
 40
0.0
  9
$DIMTOL
 70
     0
  9
$DIMLIM
 70
     0
  9
$DIMTIH
 70
     0
  9
$DIMTOH
 70
     0
  9
$DIMSE1
 70
     0
  9
$DIMSE2
 70
     0
  9
$DIMTAD
 70
     1
  9
$DIMZIN
 70
     8
  9
$DIMBLK
  1

  9
$DIMASO
 70
     1
  9
$DIMSHO
 70
     1
  9
$DIMPOST
  1

  9
$DIMAPOST
  1

  9
$DIMALT
 70
     0
  9
$DIMALTD
 70
     2
  9
$DIMALTF
 40
25.399999999999999
  9
$DIMLFAC
 40
1.0
  9
$DIMTOFL
 70
     1
  9
$DIMTVP
 40
0.0
  9
$DIMTIX
 70
     1
  9
$DIMSOXD
 70
     0
  9
$DIMSAH
 70
     0
  9
$DIMBLK1
  1

  9
$DIMBLK2
  1

  9
$DIMSTYLE
  2
DUKITEC
  9
$DIMCLRD
 70
     5
  9
$DIMCLRE
 70
     5
  9
$DIMCLRT
 70
     0
  9
$DIMTFAC
 40
1.0
  9
$DIMGAP
 40
1.0
  9
$LUNITS
 70
     2
  9
$LUPREC
 70
     4
  9
$SKETCHINC
 40
0.1
  9
$FILLETRAD
 40
0.2
  9
$AUNITS
 70
     0
  9
$AUPREC
 70
     0
  9
$MENU
  1
.
  9
$ELEVATION
 40
0.0
  9
$PELEVATION
 40
0.0
  9
$THICKNESS
 40
0.0
  9
$LIMCHECK
 70
     0
  9
$BLIPMODE
 70
     0
  9
$CHAMFERA
 40
0.5
  9
$CHAMFERB
 40
0.5
  9
$SKPOLY
 70
     0
  9
$TDCREATE
 40
2454396.7143120612
  9
$TDUPDATE
 40
2456630.7439814811
  9
$TDINDWG
 40
0.001181331
  9
$TDUSRTIMER
 40
0.001181331
  9
$USRTIMER
 70
     1
  9
$ANGBASE
 50
0.0
  9
$ANGDIR
 70
     0
  9
$PDMODE
 70
     0
  9
$PDSIZE
 40
0.0
  9
$PLINEWID
 40
0.0
  9
$COORDS
 70
     1
  9
$SPLFRAME
 70
     0
  9
$SPLINETYPE
 70
     6
  9
$SPLINESEGS
 70
     8
  9
$ATTDIA
 70
     0
  9
$ATTREQ
 70
     1
  9
$HANDLING
 70
     1
  9
$HANDSEED
  5
14245
  9
$SURFTAB1
 70
     6
  9
$SURFTAB2
 70
     6
  9
$SURFTYPE
 70
     6
  9
$SURFU
 70
     6
  9
$SURFV
 70
     6
  9
$UCSNAME
  2

  9
$UCSORG
 10
0.0
 20
0.0
 30
0.0
  9
$UCSXDIR
 10
1.0
 20
0.0
 30
0.0
  9
$UCSYDIR
 10
0.0
 20
1.0
 30
0.0
  9
$PUCSNAME
  2

  9
$PUCSORG
 10
0.0
 20
0.0
 30
0.0
  9
$PUCSXDIR
 10
1.0
 20
0.0
 30
0.0
  9
$PUCSYDIR
 10
0.0
 20
1.0
 30
0.0
  9
$USERI1
 70
     0
  9
$USERI2
 70
     0
  9
$USERI3
 70
     0
  9
$USERI4
 70
     0
  9
$USERI5
 70
     0
  9
$USERR1
 40
0.0
  9
$USERR2
 40
0.0
  9
$USERR3
 40
0.0
  9
$USERR4
 40
0.0
  9
$USERR5
 40
0.0
  9
$WORLDVIEW
 70
     1
  9
$SHADEDGE
 70
     3
  9
$SHADEDIF
 70
    70
  9
$TILEMODE
 70
     1
  9
$MAXACTVP
 70
    64
  9
$PLIMCHECK
 70
     0
  9
$PEXTMIN
 10
0.0
 20
0.0
 30
0.0
  9
$PEXTMAX
 10
0.0
 20
0.0
 30
0.0
  9
$PLIMMIN
 10
0.0
 20
0.0
  9
$PLIMMAX
 10
12.0
 20
9.0
  9
$UNITMODE
 70
     0
  9
$VISRETAIN
 70
     1
  9
$PLINEGEN
 70
     0
  9
$PSLTSCALE
 70
     1
  0
ENDSEC
  0
SECTION
  2
TABLES
  0
TABLE
  2
VPORT
 70
     1
  0
VPORT
  2
*ACTIVE
 70
     0
 10
0.0
 20
0.0
 11
1.0
 21
1.0
 12
2119.6049057197829
 22
1557.3065314020489
 13
0.0
 23
0.0
 14
0.5
 24
0.5
 15
0.5
 25
0.5
 16
0.0
 26
0.0
 36
1.0
 17
0.0
 27
0.0
 37
0.0
 40
82.970534890749832
 41
2.1408934707903771
 42
50.0
 43
0.0
 44
0.0
 50
0.0
 51
0.0
 71
     0
 72
  2000
 73
     1
 74
     3
 75
     0
 76
     0
 77
     0
 78
     0
  0
ENDTAB
  0
TABLE
  2
LTYPE
 70
     5
  0
LTYPE
  2
CONTINUOUS
 70
     0
  3
Solid line
 72
    65
 73
     0
 40
0.0
  0
LTYPE
  2
PHANTOM2
 70
     0
  3
Phantom (.5x) ___ _ _ ___ _ _ ___ _ _ ___ _ _
 72
    65
 73
     6
 40
1.25
 49
0.625
 49
-0.125
 49
0.125
 49
-0.125
 49
0.125
 49
-0.125
  0
LTYPE
  2
CENTER
 70
     0
  3
___ _ ___ _ ___ _ ___ _ ___ _ ___ _ ___ _ ___ _
 72
    65
 73
     4
 40
0.95
 49
0.625
 49
-0.125
 49
0.075
 49
-0.125
  0
LTYPE
  2
DASHED2
 70
     0
  3
Dashed (.5x) _ _ _ _ _ _ _ _ _ _ _ _ _ _ _ _ _
 72
    65
 73
     2
 40
0.375
 49
0.25
 49
-0.125
  0
ENDTAB
  0
TABLE
  2
LAYER
 70
     4
  0
LAYER
  2
0
 70
     0
 62
     7
  6
CONTINUOUS
  0
LAYER
  2
HIDE
 70
     0
 62
     1
  6
DASHED2
  0
LAYER
  2
CENTER
 70
     0
 62
     3
  6
CENTER
  0
ENDTAB
  0
TABLE
  2
STYLE
 70
     3
  0
STYLE
  2
STANDARD
 70
     0
 40
5.0
 41
1.0
 50
0.0
 71
     0
 42
5.0
  3
txt.shx
  4
whgtxt.shx
  0
STYLE
  2
BIG
 70
     0
 40
20.0
 41
1.0
 50
0.0
 71
     0
 42
2.5
  3
txt
  4

  0
ENDTAB
  0
TABLE
  2
VIEW
 70
     0
  0
ENDTAB
  0
TABLE
  2
UCS
 70
     0
  0
ENDTAB
  0
TABLE
  2
APPID
 70
    10
  0
APPID
  2
ACAD
 70
     0
  0
APPID
  2
ACADANNOTATIVE
 70
     0
  0
APPID
  2
ACAD_EXEMPT_FROM_CAD_STANDARDS
 70
     0
  0
APPID
  2
ACAD_DSTYLE_DIMJOGGED_JOGA
 70
     0
  0
APPID
  2
ACAD_PSEXT
 70
     0
  0
APPID
  2
ACAECLAYERSTANDARD
 70
     0
  0
APPID
  2
DCO15
 70
     0
  0
APPID
  2
CONTENTBLOCKICON
 70
     0
  0
APPID
  2
ACAD_NAV_VCDISPLAY
 70
     0
  0
APPID
  2
ACAD_MLEADERVER
 70
     0
  0
ENDTAB
  0
TABLE
  2
DIMSTYLE
 70
     3
  0
DIMSTYLE
  2
DUKITEC
 70
     0
  3

  4

  5

  6

  7

 40
1.0
 41
3.0
 42
1.0
 43
0.0
 44
1.0
 45
0.0
 46
0.0
 47
0.0
 48
0.0
140
3.0
141
0.0
142
0.0
143
25.399999999999999
144
1.0
145
0.0
146
1.0
147
1.0
 71
     0
 72
     0
 73
     0
 74
     0
 75
     0
 76
     0
 77
     1
 78
     8
170
     0
171
     2
172
     1
173
     0
174
     1
175
     0
176
     5
177
     5
178
     0
  0
ENDTAB
  0
ENDSEC
  0
SECTION
  2
BLOCKS
  0
BLOCK
  8
0
  2
$MODEL_SPACE
 70
     0
 10
0.0
 20
0.0
 30
0.0
  3
$MODEL_SPACE
  1

  0
ENDBLK
  5
14086
  8
0
  0
BLOCK
 67
     1
  8
0
  2
$PAPER_SPACE
 70
     0
 10
0.0
 20
0.0
 30
0.0
  3
$PAPER_SPACE
  1

  0
ENDBLK
  5
14082
 67
     1
  8
0
  0
ENDSEC
  0
SECTION
  2
ENTITIES
  0
POLYLINE
  5
13E1C
  8
0
 66
     1
 10
0.0
 20
0.0
 30
0.0
 70
     1
  0
VERTEX
  5
14203
  8
0
 10
2058.436181142084
 20
1509.2035561853579
 30
0.0
  0
VERTEX
  5
14204
  8
0
 10
2058.436181142084
 20
1603.7035561853579
 30
0.0
  0
VERTEX
  5
14205
  8
0
 10
2192.086181142085
 20
1603.7035561853579
 30
0.0
  0
VERTEX
  5
14206
  8
0
 10
2192.086181142085
 20
1509.2035561853579
 30
0.0
  0
VERTEX
  5
14207
  8
0
 10
2058.436181142084
 20
1509.2035561853579
 30
0.0
  0
SEQEND
  5
14208
  8
0
  0
TEXT
  5
13FF4
  8
0
 10
2087.9252500638459
 20
1522.1479534814789
 30
0.0
 40
20.0
  1
FK6N
  7
BIG
  0
CIRCLE
  5
140E3
  8
HIDE
 10
2145.3268045946838
 20
1575.1592143632829
 30
0.0
 40
1.049999999999998
  0
CIRCLE
  5
140E4
  8
HIDE
 10
2145.3268045946838
 20
1565.659214363282
 30
0.0
 40
1.049999999999998
  0
LINE
  5
140E5
  8
HIDE
 10
2147.8268045946838
 20
1576.2592143632819
 30
0.0
 11
2147.5368045946839
 21
1576.2592143632819
 31
0.0
  0
LINE
  5
140E6
  8
HIDE
 10
2142.8268045946838
 20
1576.2592143632819
 30
0.0
 11
2143.1168045946852
 21
1576.2592143632819
 31
0.0
  0
LINE
  5
140E7
  8
HIDE
 10
2147.5368045946839
 20
1574.109214363282
 30
0.0
 11
2147.8268045946838
 21
1574.109214363282
 31
0.0
  0
LINE
  5
140E8
  8
HIDE
 10
2143.1168045946852
 20
1574.109214363282
 30
0.0
 11
2142.8268045946838
 21
1574.109214363282
 31
0.0
  0
LINE
  5
140E9
  8
HIDE
 10
2142.8268045946838
 20
1574.109214363282
 30
0.0
 11
2142.8268045946838
 21
1576.2592143632819
 31
0.0
  0
LINE
  5
140EA
  8
HIDE
 10
2143.1168045946852
 20
1576.2592143632819
 30
0.0
 11
2143.1168045946852
 21
1574.109214363282
 31
0.0
  0
LINE
  5
140EB
  8
HIDE
 10
2142.899304594685
 20
1576.2592143632819
 30
0.0
 11
2142.899304594685
 21
1574.109214363282
 31
0.0
  0
LINE
  5
140EC
  8
HIDE
 10
2142.899304594685
 20
1576.2592143632819
 30
0.0
 11
2143.1168045946852
 21
1574.109214363282
 31
0.0
  0
LINE
  5
140ED
  8
HIDE
 10
2142.899304594685
 20
1574.109214363282
 30
0.0
 11
2143.1168045946852
 21
1576.2592143632819
 31
0.0
  0
LINE
  5
140EE
  8
HIDE
 10
2147.7543045946841
 20
1576.2592143632819
 30
0.0
 11
2147.7543045946841
 21
1574.109214363282
 31
0.0
  0
LINE
  5
140EF
  8
HIDE
 10
2147.7543045946841
 20
1574.109214363282
 30
0.0
 11
2147.5368045946839
 21
1576.2592143632819
 31
0.0
  0
LINE
  5
140F0
  8
HIDE
 10
2147.8268045946838
 20
1574.109214363282
 30
0.0
 11
2147.8268045946838
 21
1576.2592143632819
 31
0.0
  0
LINE
  5
140F1
  8
HIDE
 10
2147.5368045946839
 20
1576.2592143632819
 30
0.0
 11
2147.5368045946839
 21
1574.109214363282
 31
0.0
  0
LINE
  5
140F2
  8
HIDE
 10
2147.5368045946839
 20
1574.109214363282
 30
0.0
 11
2147.7543045946841
 21
1576.2592143632819
 31
0.0
  0
LINE
  5
140F3
  8
HIDE
 10
2147.5368045946839
 20
1566.7092143632831
 30
0.0
 11
2147.8268045946838
 21
1566.7092143632831
 31
0.0
  0
LINE
  5
140F4
  8
HIDE
 10
2143.1168045946852
 20
1566.7092143632831
 30
0.0
 11
2142.8268045946838
 21
1566.7092143632831
 31
0.0
  0
LINE
  5
140F5
  8
HIDE
 10
2147.8268045946838
 20
1564.5592143632821
 30
0.0
 11
2147.5368045946839
 21
1564.5592143632821
 31
0.0
  0
LINE
  5
140F6
  8
HIDE
 10
2142.8268045946838
 20
1564.5592143632821
 30
0.0
 11
2143.1168045946852
 21
1564.5592143632821
 31
0.0
  0
LINE
  5
140F7
  8
HIDE
 10
2147.7543045946841
 20
1564.5592143632821
 30
0.0
 11
2147.7543045946841
 21
1566.7092143632831
 31
0.0
  0
LINE
  5
140F8
  8
HIDE
 10
2147.8268045946838
 20
1566.7092143632831
 30
0.0
 11
2147.8268045946838
 21
1564.5592143632821
 31
0.0
  0
LINE
  5
140F9
  8
HIDE
 10
2142.899304594685
 20
1564.5592143632821
 30
0.0
 11
2142.899304594685
 21
1566.7092143632819
 31
0.0
  0
LINE
  5
140FA
  8
HIDE
 10
2142.899304594685
 20
1564.5592143632821
 30
0.0
 11
2143.1168045946852
 21
1566.7092143632831
 31
0.0
  0
LINE
  5
140FB
  8
HIDE
 10
2142.899304594685
 20
1566.7092143632819
 30
0.0
 11
2143.1168045946852
 21
1564.5592143632821
 31
0.0
  0
LINE
  5
140FC
  8
HIDE
 10
2142.8268045946838
 20
1566.7092143632831
 30
0.0
 11
2142.8268045946838
 21
1564.5592143632821
 31
0.0
  0
LINE
  5
140FD
  8
HIDE
 10
2143.1168045946852
 20
1564.5592143632821
 30
0.0
 11
2143.1168045946852
 21
1566.7092143632831
 31
0.0
  0
LINE
  5
140FE
  8
HIDE
 10
2147.5368045946839
 20
1564.5592143632821
 30
0.0
 11
2147.5368045946839
 21
1566.7092143632831
 31
0.0
  0
LINE
  5
140FF
  8
HIDE
 10
2147.5368045946839
 20
1566.7092143632831
 30
0.0
 11
2147.7543045946841
 21
1564.5592143632821
 31
0.0
  0
LINE
  5
14100
  8
HIDE
 10
2147.7543045946841
 20
1566.7092143632831
 30
0.0
 11
2147.5368045946839
 21
1564.5592143632821
 31
0.0
  0
ARC
  5
14101
  8
HIDE
 10
2142.9768045946848
 20
1576.7592143632819
 30
0.0
 40
0.1500000000000003
 50
90.0
 51
180.0
  0
ARC
  5
14102
  8
HIDE
 10
2142.9768045946848
 20
1567.2592143632819
 30
0.0
 40
0.1499999999999999
 50
90.0
 51
180.0
  0
ARC
  5
14103
  8
HIDE
 10
2142.9768045946848
 20
1573.559214363283
 30
0.0
 40
0.15
 50
180.0
 51
270.0
  0
ARC
  5
14104
  8
HIDE
 10
2147.6768045946842
 20
1573.559214363283
 30
0.0
 40
0.1499999999999999
 50
270.0
 51
0.0
  0
ARC
  5
14105
  8
HIDE
 10
2147.6768045946842
 20
1567.2592143632819
 30
0.0
 40
0.1500000000000003
 50
0.0
 51
90.0
  0
ARC
  5
14106
  8
0
 10
2147.6768045946842
 20
1577.759214363283
 30
0.0
 40
0.1500000000000003
 50
0.0
 51
90.0
  0
ARC
  5
14107
  8
HIDE
 10
2142.9768045946848
 20
1564.059214363283
 30
0.0
 40
0.15
 50
180.0
 51
270.0
  0
ARC
  5
14108
  8
0
 10
2147.6768045946842
 20
1563.059214363283
 30
0.0
 40
0.1500000000000003
 50
270.0
 51
0.0
  0
LINE
  5
14109
  8
HIDE
 10
2147.8268045946838
 20
1574.109214363282
 30
0.0
 11
2147.8268045946838
 21
1573.559214363283
 31
0.0
  0
LINE
  5
1410A
  8
0
 10
2147.8268045946838
 20
1577.759214363283
 30
0.0
 11
2147.8268045946838
 21
1563.059214363283
 31
0.0
  0
LINE
  5
1410B
  8
HIDE
 10
2147.8268045946838
 20
1566.7092143632831
 30
0.0
 11
2147.8268045946838
 21
1567.2592143632819
 31
0.0
  0
LINE
  5
1410C
  8
0
 10
2147.6768045946842
 20
1577.909214363282
 30
0.0
 11
2146.7268045946848
 21
1577.909214363282
 31
0.0
  0
LINE
  5
1410D
  8
HIDE
 10
2142.9768045946848
 20
1576.9092143632829
 30
0.0
 11
2146.7268045946848
 21
1576.9092143632829
 31
0.0
  0
LINE
  5
1410E
  8
HIDE
 10
2142.8268045946838
 20
1573.559214363283
 30
0.0
 11
2142.8268045946838
 21
1574.109214363282
 31
0.0
  0
LINE
  5
1410F
  8
HIDE
 10
2142.8268045946838
 20
1576.2592143632819
 30
0.0
 11
2142.8268045946838
 21
1576.7592143632819
 31
0.0
  0
LINE
  5
14110
  8
HIDE
 10
2142.9768045946848
 20
1573.409214363282
 30
0.0
 11
2147.6768045946842
 21
1573.409214363282
 31
0.0
  0
LINE
  5
14111
  8
HIDE
 10
2142.8268045946838
 20
1567.2592143632819
 30
0.0
 11
2142.8268045946838
 21
1566.7092143632831
 31
0.0
  0
LINE
  5
14112
  8
HIDE
 10
2142.9768045946848
 20
1567.409214363282
 30
0.0
 11
2147.6768045946842
 21
1567.409214363282
 31
0.0
  0
LINE
  5
14113
  8
HIDE
 10
2142.8268045946838
 20
1570.4092143632829
 30
0.0
 11
2142.8268045946838
 21
1567.2592143632819
 31
0.0
  0
LINE
  5
14114
  8
HIDE
 10
2142.8268045946838
 20
1570.4092143632829
 30
0.0
 11
2142.8268045946838
 21
1573.559214363283
 31
0.0
  0
LINE
  5
14115
  8
HIDE
 10
2143.1168045946852
 20
1574.4092143632829
 30
0.0
 11
2144.5919576718488
 21
1574.4092143632829
 31
0.0
  0
LINE
  5
14116
  8
HIDE
 10
2146.0616515175188
 20
1574.4092143632829
 30
0.0
 11
2147.5368045946839
 21
1574.4092143632829
 31
0.0
  0
LINE
  5
14117
  8
HIDE
 10
2143.1168045946852
 20
1575.9092143632829
 30
0.0
 11
2144.5919576718488
 21
1575.9092143632829
 31
0.0
  0
LINE
  5
14118
  8
HIDE
 10
2146.0616515175188
 20
1575.9092143632829
 30
0.0
 11
2147.5368045946839
 21
1575.9092143632829
 31
0.0
  0
LINE
  5
14119
  8
HIDE
 10
2143.1168045946852
 20
1566.4092143632829
 30
0.0
 11
2144.5919576718488
 21
1566.4092143632829
 31
0.0
  0
LINE
  5
1411A
  8
HIDE
 10
2146.0616515175188
 20
1566.4092143632829
 30
0.0
 11
2147.5368045946839
 21
1566.4092143632829
 31
0.0
  0
LINE
  5
1411B
  8
HIDE
 10
2142.8268045946838
 20
1564.5592143632821
 30
0.0
 11
2142.8268045946838
 21
1564.059214363283
 31
0.0
  0
LINE
  5
1411C
  8
HIDE
 10
2142.9768045946848
 20
1563.909214363282
 30
0.0
 11
2146.7268045946848
 21
1563.909214363282
 31
0.0
  0
LINE
  5
1411D
  8
0
 10
2147.6768045946842
 20
1562.9092143632829
 30
0.0
 11
2146.7268045946848
 21
1562.9092143632829
 31
0.0
  0
LINE
  5
1411E
  8
HIDE
 10
2143.1168045946852
 20
1564.909214363282
 30
0.0
 11
2144.5919576718488
 21
1564.909214363282
 31
0.0
  0
LINE
  5
1411F
  8
HIDE
 10
2146.0616515175188
 20
1564.909214363282
 30
0.0
 11
2147.5368045946839
 21
1564.909214363282
 31
0.0
  0
LINE
  5
14120
  8
CENTER
 10
2129.999548245979
 20
1570.4092143632829
 30
0.0
 11
2150.5799635260628
 21
1570.4092143632829
 31
0.0
  0
LINE
  5
14121
  8
0
 10
2137.7268045946839
 20
1561.9092143632811
 30
0.0
 11
2138.7268045946839
 21
1561.909214363282
 31
0.0
  0
LINE
  5
14122
  8
0
 10
2137.7268045946839
 20
1578.9092143632829
 30
0.0
 11
2138.7268045946839
 21
1578.9092143632829
 31
0.0
  0
LINE
  5
14123
  8
0
 10
2141.7268045946839
 20
1561.409214363282
 30
0.0
 11
2146.7268045946848
 21
1561.409214363282
 31
0.0
  0
LINE
  5
14124
  8
0
 10
2141.7268045946839
 20
1579.409214363282
 30
0.0
 11
2146.7268045946848
 21
1579.409214363282
 31
0.0
  0
LINE
  5
14125
  8
0
 10
2138.7268045946839
 20
1585.4092143632829
 30
0.0
 11
2141.7268045946839
 21
1585.409214363284
 31
0.0
  0
LINE
  5
14126
  8
0
 10
2141.7268045946839
 20
1585.4092143632829
 30
0.0
 11
2141.7268045946839
 21
1555.409214363282
 31
0.0
  0
LINE
  5
14127
  8
0
 10
2146.7268045946848
 20
1579.409214363282
 30
0.0
 11
2146.7268045946862
 21
1561.409214363282
 31
0.0
  0
LINE
  5
14128
  8
0
 10
2138.7268045946839
 20
1585.4092143632829
 30
0.0
 11
2138.7268045946848
 21
1555.409214363282
 31
0.0
  0
LINE
  5
14129
  8
0
 10
2137.7268045946839
 20
1578.9092143632829
 30
0.0
 11
2137.7268045946839
 21
1561.9092143632811
 31
0.0
  0
LINE
  5
1412A
  8
0
 10
2138.7268045946839
 20
1555.409214363282
 30
0.0
 11
2141.7268045946839
 21
1555.409214363282
 31
0.0
  0
CIRCLE
  5
1412B
  8
HIDE
 10
2139.126804594684
 20
1575.1592143632829
 30
0.0
 40
1.049999999999998
  0
CIRCLE
  5
1412C
  8
HIDE
 10
2139.126804594684
 20
1565.659214363282
 30
0.0
 40
1.049999999999998
  0
LINE
  5
1412D
  8
HIDE
 10
2136.626804594684
 20
1576.2592143632819
 30
0.0
 11
2136.916804594684
 21
1576.2592143632819
 31
0.0
  0
LINE
  5
1412E
  8
HIDE
 10
2141.626804594684
 20
1576.2592143632819
 30
0.0
 11
2141.3368045946841
 21
1576.2592143632819
 31
0.0
  0
LINE
  5
1412F
  8
HIDE
 10
2136.916804594684
 20
1574.109214363282
 30
0.0
 11
2136.626804594684
 21
1574.109214363282
 31
0.0
  0
LINE
  5
14130
  8
HIDE
 10
2141.3368045946841
 20
1574.109214363282
 30
0.0
 11
2141.626804594684
 21
1574.109214363282
 31
0.0
  0
LINE
  5
14131
  8
HIDE
 10
2141.626804594684
 20
1574.109214363282
 30
0.0
 11
2141.626804594684
 21
1576.2592143632819
 31
0.0
  0
LINE
  5
14132
  8
HIDE
 10
2141.3368045946841
 20
1576.2592143632819
 30
0.0
 11
2141.3368045946841
 21
1574.109214363282
 31
0.0
  0
LINE
  5
14133
  8
HIDE
 10
2141.5543045946838
 20
1576.2592143632819
 30
0.0
 11
2141.5543045946838
 21
1574.109214363282
 31
0.0
  0
LINE
  5
14134
  8
HIDE
 10
2141.5543045946838
 20
1576.2592143632819
 30
0.0
 11
2141.3368045946841
 21
1574.109214363282
 31
0.0
  0
LINE
  5
14135
  8
HIDE
 10
2141.5543045946838
 20
1574.109214363282
 30
0.0
 11
2141.3368045946841
 21
1576.2592143632819
 31
0.0
  0
LINE
  5
14136
  8
HIDE
 10
2136.6993045946838
 20
1576.2592143632819
 30
0.0
 11
2136.6993045946838
 21
1574.109214363282
 31
0.0
  0
LINE
  5
14137
  8
HIDE
 10
2136.6993045946838
 20
1574.109214363282
 30
0.0
 11
2136.916804594684
 21
1576.2592143632819
 31
0.0
  0
LINE
  5
14138
  8
HIDE
 10
2136.626804594684
 20
1574.109214363282
 30
0.0
 11
2136.626804594684
 21
1576.2592143632819
 31
0.0
  0
LINE
  5
14139
  8
HIDE
 10
2136.916804594684
 20
1576.2592143632819
 30
0.0
 11
2136.916804594684
 21
1574.109214363282
 31
0.0
  0
LINE
  5
1413A
  8
HIDE
 10
2136.916804594684
 20
1574.109214363282
 30
0.0
 11
2136.6993045946838
 21
1576.2592143632819
 31
0.0
  0
LINE
  5
1413B
  8
HIDE
 10
2136.916804594684
 20
1566.7092143632831
 30
0.0
 11
2136.626804594684
 21
1566.7092143632831
 31
0.0
  0
LINE
  5
1413C
  8
HIDE
 10
2141.3368045946841
 20
1566.7092143632831
 30
0.0
 11
2141.626804594684
 21
1566.7092143632831
 31
0.0
  0
LINE
  5
1413D
  8
HIDE
 10
2136.626804594684
 20
1564.5592143632821
 30
0.0
 11
2136.916804594684
 21
1564.5592143632821
 31
0.0
  0
LINE
  5
1413E
  8
HIDE
 10
2141.626804594684
 20
1564.5592143632821
 30
0.0
 11
2141.3368045946841
 21
1564.5592143632821
 31
0.0
  0
LINE
  5
1413F
  8
HIDE
 10
2136.6993045946838
 20
1564.5592143632821
 30
0.0
 11
2136.6993045946838
 21
1566.7092143632831
 31
0.0
  0
LINE
  5
14140
  8
HIDE
 10
2136.626804594684
 20
1566.7092143632831
 30
0.0
 11
2136.626804594684
 21
1564.5592143632821
 31
0.0
  0
LINE
  5
14141
  8
HIDE
 10
2141.5543045946838
 20
1564.5592143632821
 30
0.0
 11
2141.5543045946838
 21
1566.7092143632819
 31
0.0
  0
LINE
  5
14142
  8
HIDE
 10
2141.5543045946838
 20
1564.5592143632821
 30
0.0
 11
2141.3368045946841
 21
1566.7092143632831
 31
0.0
  0
LINE
  5
14143
  8
HIDE
 10
2141.5543045946838
 20
1566.7092143632819
 30
0.0
 11
2141.3368045946841
 21
1564.5592143632821
 31
0.0
  0
LINE
  5
14144
  8
HIDE
 10
2141.626804594684
 20
1566.7092143632831
 30
0.0
 11
2141.626804594684
 21
1564.5592143632821
 31
0.0
  0
LINE
  5
14145
  8
HIDE
 10
2141.3368045946841
 20
1564.5592143632821
 30
0.0
 11
2141.3368045946841
 21
1566.7092143632831
 31
0.0
  0
LINE
  5
14146
  8
HIDE
 10
2136.916804594684
 20
1564.5592143632821
 30
0.0
 11
2136.916804594684
 21
1566.7092143632831
 31
0.0
  0
LINE
  5
14147
  8
HIDE
 10
2136.916804594684
 20
1566.7092143632831
 30
0.0
 11
2136.6993045946838
 21
1564.5592143632821
 31
0.0
  0
LINE
  5
14148
  8
HIDE
 10
2136.6993045946838
 20
1566.7092143632831
 30
0.0
 11
2136.916804594684
 21
1564.5592143632821
 31
0.0
  0
ARC
  5
14149
  8
HIDE
 10
2141.4768045946839
 20
1576.7592143632819
 30
0.0
 40
0.1500000000000003
 50
0.0
 51
90.0
  0
ARC
  5
1414A
  8
HIDE
 10
2141.4768045946839
 20
1567.2592143632819
 30
0.0
 40
0.1499999999999999
 50
0.0
 51
90.0
  0
ARC
  5
1414B
  8
HIDE
 10
2141.4768045946839
 20
1573.559214363283
 30
0.0
 40
0.15
 50
270.0
 51
0.0
  0
ARC
  5
1414C
  8
HIDE
 10
2136.7768045946841
 20
1573.559214363283
 30
0.0
 40
0.1499999999999999
 50
180.0
 51
270.0
  0
ARC
  5
1414D
  8
HIDE
 10
2136.7768045946841
 20
1567.2592143632819
 30
0.0
 40
0.1500000000000003
 50
90.0
 51
180.0
  0
ARC
  5
1414E
  8
0
 10
2136.7768045946841
 20
1577.759214363283
 30
0.0
 40
0.1500000000000003
 50
90.0
 51
180.0
  0
ARC
  5
1414F
  8
HIDE
 10
2141.4768045946839
 20
1564.059214363283
 30
0.0
 40
0.15
 50
270.0
 51
0.0
  0
ARC
  5
14150
  8
0
 10
2136.7768045946841
 20
1563.059214363283
 30
0.0
 40
0.1500000000000003
 50
180.0
 51
270.0
  0
LINE
  5
14151
  8
HIDE
 10
2136.626804594684
 20
1574.109214363282
 30
0.0
 11
2136.626804594684
 21
1573.559214363283
 31
0.0
  0
LINE
  5
14152
  8
0
 10
2136.626804594684
 20
1577.759214363283
 30
0.0
 11
2136.626804594684
 21
1563.059214363283
 31
0.0
  0
LINE
  5
14153
  8
HIDE
 10
2136.626804594684
 20
1566.7092143632831
 30
0.0
 11
2136.626804594684
 21
1567.2592143632819
 31
0.0
  0
LINE
  5
14154
  8
0
 10
2136.7768045946841
 20
1577.909214363282
 30
0.0
 11
2137.7268045946839
 21
1577.909214363282
 31
0.0
  0
LINE
  5
14155
  8
HIDE
 10
2141.4768045946839
 20
1576.9092143632829
 30
0.0
 11
2137.7268045946839
 21
1576.9092143632829
 31
0.0
  0
LINE
  5
14156
  8
HIDE
 10
2141.626804594684
 20
1573.559214363283
 30
0.0
 11
2141.626804594684
 21
1574.109214363282
 31
0.0
  0
LINE
  5
14157
  8
HIDE
 10
2141.626804594684
 20
1576.2592143632819
 30
0.0
 11
2141.626804594684
 21
1576.7592143632819
 31
0.0
  0
LINE
  5
14158
  8
HIDE
 10
2141.4768045946839
 20
1573.409214363282
 30
0.0
 11
2136.7768045946841
 21
1573.409214363282
 31
0.0
  0
LINE
  5
14159
  8
HIDE
 10
2141.626804594684
 20
1567.2592143632819
 30
0.0
 11
2141.626804594684
 21
1566.7092143632831
 31
0.0
  0
LINE
  5
1415A
  8
HIDE
 10
2141.4768045946839
 20
1567.409214363282
 30
0.0
 11
2136.7768045946841
 21
1567.409214363282
 31
0.0
  0
LINE
  5
1415B
  8
HIDE
 10
2141.626804594684
 20
1570.4092143632829
 30
0.0
 11
2141.626804594684
 21
1567.2592143632819
 31
0.0
  0
LINE
  5
1415C
  8
HIDE
 10
2141.626804594684
 20
1570.4092143632829
 30
0.0
 11
2141.626804594684
 21
1573.559214363283
 31
0.0
  0
LINE
  5
1415D
  8
HIDE
 10
2141.3368045946841
 20
1574.4092143632829
 30
0.0
 11
2139.861651517519
 21
1574.4092143632829
 31
0.0
  0
LINE
  5
1415E
  8
HIDE
 10
2138.391957671849
 20
1574.4092143632829
 30
0.0
 11
2136.916804594684
 21
1574.4092143632829
 31
0.0
  0
LINE
  5
1415F
  8
HIDE
 10
2141.3368045946841
 20
1575.9092143632829
 30
0.0
 11
2139.861651517519
 21
1575.9092143632829
 31
0.0
  0
LINE
  5
14160
  8
HIDE
 10
2138.391957671849
 20
1575.9092143632829
 30
0.0
 11
2136.916804594684
 21
1575.9092143632829
 31
0.0
  0
LINE
  5
14161
  8
HIDE
 10
2141.3368045946841
 20
1566.4092143632829
 30
0.0
 11
2139.861651517519
 21
1566.4092143632829
 31
0.0
  0
LINE
  5
14162
  8
HIDE
 10
2138.391957671849
 20
1566.4092143632829
 30
0.0
 11
2136.916804594684
 21
1566.4092143632829
 31
0.0
  0
LINE
  5
14163
  8
HIDE
 10
2141.626804594684
 20
1564.5592143632821
 30
0.0
 11
2141.626804594684
 21
1564.059214363283
 31
0.0
  0
LINE
  5
14164
  8
HIDE
 10
2141.4768045946839
 20
1563.909214363282
 30
0.0
 11
2137.7268045946839
 21
1563.909214363282
 31
0.0
  0
LINE
  5
14165
  8
0
 10
2136.7768045946841
 20
1562.9092143632829
 30
0.0
 11
2137.7268045946839
 21
1562.9092143632829
 31
0.0
  0
LINE
  5
14166
  8
HIDE
 10
2141.3368045946841
 20
1564.909214363282
 30
0.0
 11
2139.861651517519
 21
1564.909214363282
 31
0.0
  0
LINE
  5
14167
  8
HIDE
 10
2138.391957671849
 20
1564.909214363282
 30
0.0
 11
2136.916804594684
 21
1564.909214363282
 31
0.0
  0
LINE
  5
14168
  8
0
 10
2136.126804594684
 20
1577.659214363282
 30
0.0
 11
2131.626804594684
 21
1577.659214363282
 31
0.0
  0
LINE
  5
14169
  8
0
 10
2136.126804594684
 20
1563.1592143632811
 30
0.0
 11
2131.6268045946831
 21
1563.159214363282
 31
0.0
  0
LINE
  5
1416A
  8
0
 10
2131.626804594684
 20
1577.659214363282
 30
0.0
 11
2131.626804594684
 21
1563.1592143632811
 31
0.0
  0
LINE
  5
1416B
  8
CENTER
 10
2133.9268045946828
 20
1578.23735895136
 30
0.0
 11
2133.9268045946828
 21
1572.206067610867
 31
0.0
  0
LINE
  5
1416C
  8
0
 10
2136.126804594684
 20
1577.659214363282
 30
0.0
 11
2136.126804594684
 21
1563.1592143632811
 31
0.0
  0
LINE
  5
1416D
  8
0
 10
2136.126804594684
 20
1571.774138942093
 30
0.0
 11
2131.626804594684
 21
1571.774138942093
 31
0.0
  0
LINE
  5
1416E
  8
0
 10
2136.126804594684
 20
1569.0442897844639
 30
0.0
 11
2131.626804594684
 21
1569.0442897844659
 31
0.0
  0
LINE
  5
1416F
  8
HIDE
 10
2136.626804594684
 20
1567.4092143632811
 30
0.0
 11
2131.626804594684
 21
1567.409214363282
 31
0.0
  0
LINE
  5
14170
  8
HIDE
 10
2136.626804594684
 20
1573.409214363282
 30
0.0
 11
2131.626804594684
 21
1573.409214363282
 31
0.0
  0
LINE
  5
14171
  8
0
 10
2136.626804594684
 20
1565.409214363282
 30
0.0
 11
2136.126804594684
 21
1565.1205392286899
 31
0.0
  0
LINE
  5
14172
  8
0
 10
2136.626804594684
 20
1575.409214363282
 30
0.0
 11
2136.126804594684
 21
1575.697889497877
 31
0.0
  0
LINE
  5
14173
  8
HIDE
 10
2132.4268045946828
 20
1577.659214363282
 30
0.0
 11
2132.4268045946819
 21
1573.034214363284
 31
0.0
  0
LINE
  5
14174
  8
HIDE
 10
2132.6768045946828
 20
1577.659214363282
 30
0.0
 11
2132.6768045946828
 21
1573.034214363284
 31
0.0
  0
LINE
  5
14175
  8
HIDE
 10
2135.426804594681
 20
1577.659214363282
 30
0.0
 11
2135.4268045946801
 21
1573.034214363284
 31
0.0
  0
LINE
  5
14176
  8
HIDE
 10
2135.1768045946828
 20
1577.659214363282
 30
0.0
 11
2135.1768045946828
 21
1573.034214363284
 31
0.0
  0
LINE
  5
14177
  8
HIDE
 10
2135.4268045946801
 20
1574.1322394971189
 30
0.0
 11
2132.4268045946801
 21
1574.1322394971189
 31
0.0
  0
LINE
  5
14178
  8
HIDE
 10
2135.4268045946801
 20
1577.1322394971189
 30
0.0
 11
2132.4268045946801
 21
1577.1322394971189
 31
0.0
  0
LINE
  5
14179
  8
HIDE
 10
2135.4268045946801
 20
1574.1322394971171
 30
0.0
 11
2135.1768045946828
 21
1573.9879019298221
 31
0.0
  0
LINE
  5
1417A
  8
HIDE
 10
2132.4268045946828
 20
1574.132239497118
 30
0.0
 11
2132.6768045946828
 21
1573.987901929821
 31
0.0
  0
LINE
  5
1417B
  8
HIDE
 10
2135.1768045946828
 20
1573.9879019298221
 30
0.0
 11
2132.6768045946828
 21
1573.987901929821
 31
0.0
  0
LINE
  5
1417C
  8
HIDE
 10
2136.626804594684
 20
1573.034214363284
 30
0.0
 11
2131.626804594684
 21
1573.0342143632829
 31
0.0
  0
LINE
  5
1417D
  8
HIDE
 10
2136.626804594684
 20
1567.784214363282
 30
0.0
 11
2131.626804594684
 21
1567.784214363282
 31
0.0
  0
LINE
  5
1417E
  8
HIDE
 10
2138.7268045946839
 20
1584.109214363282
 30
0.0
 11
2141.7268045946839
 21
1584.109214363282
 31
0.0
  0
LINE
  5
1417F
  8
HIDE
 10
2138.7268045946839
 20
1580.7092143632819
 30
0.0
 11
2141.7268045946839
 21
1580.7092143632831
 31
0.0
  0
LINE
  5
14180
  8
HIDE
 10
2138.7268045946839
 20
1556.7092143632831
 30
0.0
 11
2141.7268045946839
 21
1556.7092143632831
 31
0.0
  0
LINE
  5
14181
  8
HIDE
 10
2138.7268045946839
 20
1560.1092143632829
 30
0.0
 11
2141.7268045946839
 21
1560.109214363282
 31
0.0
  0
LINE
  5
14182
  8
CENTER
 10
2137.141128658714
 20
1582.4092143632829
 30
0.0
 11
2143.5462898395999
 21
1582.4092143632829
 31
0.0
  0
LINE
  5
14183
  8
CENTER
 10
2137.141128658714
 20
1558.4092143632829
 30
0.0
 11
2143.5462898395999
 21
1558.4092143632829
 31
0.0
  0
ARC
  5
14186
  8
0
 10
2110.6415667283991
 20
1570.4092143632829
 30
0.0
 40
15.0
 50
230.70351976079081
 51
309.2964802392093
  0
ARC
  5
14187
  8
0
 10
2110.6415667283991
 20
1570.4092143632829
 30
0.0
 40
15.0
 50
50.703519760790769
 51
129.29648023920919
  0
LINE
  5
14188
  8
CENTER
 10
2095.6415667283991
 20
1570.4092143632829
 30
0.0
 11
2125.6415667283991
 21
1570.4092143632829
 31
0.0
  0
LINE
  5
14189
  8
CENTER
 10
2110.6415667283991
 20
1550.4092143632829
 30
0.0
 11
2110.6415667283991
 21
1590.4092143632829
 31
0.0
  0
LINE
  5
1418A
  8
0
 10
2101.1415667283991
 20
1558.8010275970389
 30
0.0
 11
2101.1415667283991
 21
1582.017401129526
 31
0.0
  0
LINE
  5
1418B
  8
0
 10
2120.1415667283991
 20
1558.8010275970389
 30
0.0
 11
2120.1415667283991
 21
1582.017401129526
 31
0.0
  0
ARC
  5
1418C
  8
CENTER
 10
2110.6415667283991
 20
1570.4092143632829
 30
0.0
 40
12.0
 50
75.638488437079246
 51
104.3615115629207
  0
ARC
  5
1418D
  8
CENTER
 10
2110.6415667283991
 20
1570.4092143632829
 30
0.0
 40
12.0
 50
255.6384884370793
 51
284.36151156292073
  0
CIRCLE
  5
1418E
  8
0
 10
2110.6415667283991
 20
1582.4092143632829
 30
0.0
 40
1.7
  0
CIRCLE
  5
1418F
  8
0
 10
2110.6415667283991
 20
1558.4092143632829
 30
0.0
 40
1.7
  0
LINE
  5
14190
  8
0
 10
2112.0064913072119
 20
1563.2888575678569
 30
0.0
 11
2117.761923523824
 21
1569.0442897844721
 31
0.0
  0
LINE
  5
14191
  8
0
 10
2103.5212099329729
 20
1571.7741389420951
 30
0.0
 11
2109.276642149588
 21
1577.529571158708
 31
0.0
  0
LINE
  5
14192
  8
HIDE
 10
2112.1415667283991
 20
1577.3944957375199
 30
0.0
 11
2112.1415667284
 21
1572.563425355733
 31
0.0
  0
LINE
  5
14193
  8
HIDE
 10
2111.8915667283991
 20
1577.5506427918251
 30
0.0
 11
2111.8915667283991
 21
1572.7174875273599
 31
0.0
  0
LINE
  5
14194
  8
HIDE
 10
2109.1415667284
 20
1577.3944957375199
 30
0.0
 11
2109.1415667284018
 21
1572.5634253557371
 31
0.0
  0
LINE
  5
14195
  8
HIDE
 10
2109.3915667283991
 20
1577.5506427918251
 30
0.0
 11
2109.3915667283991
 21
1572.717487527359
 31
0.0
  0
LINE
  5
14196
  8
0
 10
2112.0064913072119
 20
1577.529571158708
 30
0.0
 11
2117.7619235238262
 21
1571.7741389420919
 31
0.0
  0
LINE
  5
14197
  8
0
 10
2103.5212099329751
 20
1569.044289784468
 30
0.0
 11
2109.2766421495862
 21
1563.2888575678589
 31
0.0
  0
ARC
  5
14198
  8
0
 10
2110.6415667283991
 20
1570.4092143632829
 30
0.0
 40
7.25
 50
169.1484243449693
 51
190.85157565508189
  0
ARC
  5
14199
  8
0
 10
2110.6415667283991
 20
1570.4092143632829
 30
0.0
 40
7.25
 50
259.14842434496933
 51
280.85157565503067
  0
ARC
  5
1419A
  8
0
 10
2110.6415667283991
 20
1570.4092143632829
 30
0.0
 40
7.25
 50
349.14842434491811
 51
10.85157565503069
  0
ARC
  5
1419B
  8
0
 10
2110.6415667283991
 20
1570.4092143632829
 30
0.0
 40
7.25
 50
79.148424344969314
 51
100.8515756550307
  0
LINE
  5
1419C
  8
HIDE
 10
2109.1415667284018
 20
1574.1322394971189
 30
0.0
 11
2112.1415667284018
 21
1574.1322394971189
 31
0.0
  0
LINE
  5
1419D
  8
HIDE
 10
2109.1415667284018
 20
1577.1322394971189
 30
0.0
 11
2112.1415667284018
 21
1577.1322394971189
 31
0.0
  0
LINE
  5
1419E
  8
HIDE
 10
2109.1415667284018
 20
1574.1322394971171
 30
0.0
 11
2109.3915667283991
 21
1573.9879019298221
 31
0.0
  0
LINE
  5
1419F
  8
HIDE
 10
2112.1415667283991
 20
1574.132239497118
 30
0.0
 11
2111.8915667283991
 21
1573.9879019298221
 31
0.0
  0
LINE
  5
141A0
  8
HIDE
 10
2109.3915667283991
 20
1573.9879019298221
 30
0.0
 11
2111.8915667283991
 21
1573.9879019298221
 31
0.0
  0
ARC
  5
141A1
  8
HIDE
 10
2110.6415667283991
 20
1570.4092143632829
 30
0.0
 40
3.0
 50
270.0
 51
180.0
  0
CIRCLE
  5
141A2
  8
0
 10
2110.6415667283991
 20
1570.4092143632829
 30
0.0
 40
2.625
  0
CIRCLE
  5
141A3
  8
0
 10
2110.6415667283991
 20
1570.4092143632829
 30
0.0
 40
7.5
  0
ENDSEC
  0
EOF
