  0
SECTION
  2
HEADER
  9
$ACADVER
  1
AC1009
  9
$INSBASE
 10
0.0
 20
0.0
 30
0.0
  9
$EXTMIN
 10
2014.9454172966871
 20
1514.2846675627291
 30
0.0
  9
$EXTMAX
 10
2237.695417296688
 20
1671.7846675627291
 30
0.0
  9
$LIMMIN
 10
0.0
 20
0.0
  9
$LIMMAX
 10
12.0
 20
9.0
  9
$ORTHOMODE
 70
     0
  9
$REGENMODE
 70
     1
  9
$FILLMODE
 70
     1
  9
$QTEXTMODE
 70
     0
  9
$MIRRTEXT
 70
     0
  9
$DRAGMODE
 70
     2
  9
$LTSCALE
 40
1.0
  9
$OSMODE
 70
  2239
  9
$ATTMODE
 70
     1
  9
$TEXTSIZE
 40
2.5
  9
$TRACEWID
 40
0.05
  9
$TEXTSTYLE
  7
BIG
  9
$CLAYER
  8
0
  9
$CELTYPE
  6
BYLAYER
  9
$CECOLOR
 62
   256
  9
$DIMSCALE
 40
1.0
  9
$DIMASZ
 40
3.0
  9
$DIMEXO
 40
1.0
  9
$DIMDLI
 40
0.0
  9
$DIMRND
 40
0.0
  9
$DIMDLE
 40
0.0
  9
$DIMEXE
 40
1.0
  9
$DIMTP
 40
0.0
  9
$DIMTM
 40
0.0
  9
$DIMTXT
 40
3.0
  9
$DIMCEN
 40
0.0
  9
$DIMTSZ
 40
0.0
  9
$DIMTOL
 70
     0
  9
$DIMLIM
 70
     0
  9
$DIMTIH
 70
     0
  9
$DIMTOH
 70
     0
  9
$DIMSE1
 70
     0
  9
$DIMSE2
 70
     0
  9
$DIMTAD
 70
     1
  9
$DIMZIN
 70
     8
  9
$DIMBLK
  1

  9
$DIMASO
 70
     1
  9
$DIMSHO
 70
     1
  9
$DIMPOST
  1

  9
$DIMAPOST
  1

  9
$DIMALT
 70
     0
  9
$DIMALTD
 70
     2
  9
$DIMALTF
 40
25.399999999999999
  9
$DIMLFAC
 40
1.0
  9
$DIMTOFL
 70
     1
  9
$DIMTVP
 40
0.0
  9
$DIMTIX
 70
     1
  9
$DIMSOXD
 70
     0
  9
$DIMSAH
 70
     0
  9
$DIMBLK1
  1

  9
$DIMBLK2
  1

  9
$DIMSTYLE
  2
DUKITEC
  9
$DIMCLRD
 70
     5
  9
$DIMCLRE
 70
     5
  9
$DIMCLRT
 70
     0
  9
$DIMTFAC
 40
1.0
  9
$DIMGAP
 40
1.0
  9
$LUNITS
 70
     2
  9
$LUPREC
 70
     4
  9
$SKETCHINC
 40
0.1
  9
$FILLETRAD
 40
0.2
  9
$AUNITS
 70
     0
  9
$AUPREC
 70
     0
  9
$MENU
  1
.
  9
$ELEVATION
 40
0.0
  9
$PELEVATION
 40
0.0
  9
$THICKNESS
 40
0.0
  9
$LIMCHECK
 70
     0
  9
$BLIPMODE
 70
     0
  9
$CHAMFERA
 40
0.5
  9
$CHAMFERB
 40
0.5
  9
$SKPOLY
 70
     0
  9
$TDCREATE
 40
2454396.7322851499
  9
$TDUPDATE
 40
2456630.7427222459
  9
$TDINDWG
 40
0.0267624653
  9
$TDUSRTIMER
 40
0.0267623958
  9
$USRTIMER
 70
     1
  9
$ANGBASE
 50
0.0
  9
$ANGDIR
 70
     0
  9
$PDMODE
 70
     0
  9
$PDSIZE
 40
0.0
  9
$PLINEWID
 40
0.0
  9
$COORDS
 70
     1
  9
$SPLFRAME
 70
     0
  9
$SPLINETYPE
 70
     6
  9
$SPLINESEGS
 70
     8
  9
$ATTDIA
 70
     0
  9
$ATTREQ
 70
     1
  9
$HANDLING
 70
     1
  9
$HANDSEED
  5
14286
  9
$SURFTAB1
 70
     6
  9
$SURFTAB2
 70
     6
  9
$SURFTYPE
 70
     6
  9
$SURFU
 70
     6
  9
$SURFV
 70
     6
  9
$UCSNAME
  2

  9
$UCSORG
 10
0.0
 20
0.0
 30
0.0
  9
$UCSXDIR
 10
1.0
 20
0.0
 30
0.0
  9
$UCSYDIR
 10
0.0
 20
1.0
 30
0.0
  9
$PUCSNAME
  2

  9
$PUCSORG
 10
0.0
 20
0.0
 30
0.0
  9
$PUCSXDIR
 10
1.0
 20
0.0
 30
0.0
  9
$PUCSYDIR
 10
0.0
 20
1.0
 30
0.0
  9
$USERI1
 70
     0
  9
$USERI2
 70
     0
  9
$USERI3
 70
     0
  9
$USERI4
 70
     0
  9
$USERI5
 70
     0
  9
$USERR1
 40
0.0
  9
$USERR2
 40
0.0
  9
$USERR3
 40
0.0
  9
$USERR4
 40
0.0
  9
$USERR5
 40
0.0
  9
$WORLDVIEW
 70
     1
  9
$SHADEDGE
 70
     3
  9
$SHADEDIF
 70
    70
  9
$TILEMODE
 70
     1
  9
$MAXACTVP
 70
    64
  9
$PLIMCHECK
 70
     0
  9
$PEXTMIN
 10
0.0
 20
0.0
 30
0.0
  9
$PEXTMAX
 10
0.0
 20
0.0
 30
0.0
  9
$PLIMMIN
 10
0.0
 20
0.0
  9
$PLIMMAX
 10
12.0
 20
9.0
  9
$UNITMODE
 70
     0
  9
$VISRETAIN
 70
     1
  9
$PLINEGEN
 70
     0
  9
$PSLTSCALE
 70
     1
  0
ENDSEC
  0
SECTION
  2
TABLES
  0
TABLE
  2
VPORT
 70
     1
  0
VPORT
  2
*ACTIVE
 70
     0
 10
0.0
 20
0.0
 11
1.0
 21
1.0
 12
2111.7565107620999
 22
1585.4582496676239
 13
0.0
 23
0.0
 14
0.5
 24
0.5
 15
0.5
 25
0.5
 16
0.0
 26
0.0
 36
1.0
 17
0.0
 27
0.0
 37
0.0
 40
140.2829728522652
 41
2.1408934707903771
 42
50.0
 43
0.0
 44
0.0
 50
0.0
 51
0.0
 71
     0
 72
  2000
 73
     1
 74
     3
 75
     0
 76
     0
 77
     0
 78
     0
  0
ENDTAB
  0
TABLE
  2
LTYPE
 70
     5
  0
LTYPE
  2
CONTINUOUS
 70
     0
  3
Solid line
 72
    65
 73
     0
 40
0.0
  0
LTYPE
  2
PHANTOM2
 70
     0
  3
Phantom (.5x) ___ _ _ ___ _ _ ___ _ _ ___ _ _
 72
    65
 73
     6
 40
1.25
 49
0.625
 49
-0.125
 49
0.125
 49
-0.125
 49
0.125
 49
-0.125
  0
LTYPE
  2
CENTER
 70
     0
  3
___ _ ___ _ ___ _ ___ _ ___ _ ___ _ ___ _ ___ _
 72
    65
 73
     4
 40
0.95
 49
0.625
 49
-0.125
 49
0.075
 49
-0.125
  0
LTYPE
  2
DASHED2
 70
     0
  3
Dashed (.5x) _ _ _ _ _ _ _ _ _ _ _ _ _ _ _ _ _
 72
    65
 73
     2
 40
0.375
 49
0.25
 49
-0.125
  0
ENDTAB
  0
TABLE
  2
LAYER
 70
     3
  0
LAYER
  2
0
 70
     0
 62
     7
  6
CONTINUOUS
  0
LAYER
  2
HIDE
 70
     0
 62
     1
  6
DASHED2
  0
LAYER
  2
CENTER
 70
     0
 62
     3
  6
CENTER
  0
ENDTAB
  0
TABLE
  2
STYLE
 70
     2
  0
STYLE
  2
STANDARD
 70
     0
 40
5.0
 41
1.0
 50
0.0
 71
     0
 42
5.0
  3
txt.shx
  4
whgtxt.shx
  0
STYLE
  2
BIG
 70
     0
 40
20.0
 41
1.0
 50
0.0
 71
     0
 42
2.5
  3
txt
  4

  0
ENDTAB
  0
TABLE
  2
VIEW
 70
     0
  0
ENDTAB
  0
TABLE
  2
UCS
 70
     0
  0
ENDTAB
  0
TABLE
  2
APPID
 70
    11
  0
APPID
  2
ACAD
 70
     0
  0
APPID
  2
ACADANNOTATIVE
 70
     0
  0
APPID
  2
ACAD_EXEMPT_FROM_CAD_STANDARDS
 70
     0
  0
APPID
  2
ACAD_DSTYLE_DIMJOGGED_JOGA
 70
     0
  0
APPID
  2
ACAD_PSEXT
 70
     0
  0
APPID
  2
ACAECLAYERSTANDARD
 70
     0
  0
APPID
  2
DCO15
 70
     0
  0
APPID
  2
CONTENTBLOCKICON
 70
     0
  0
APPID
  2
ACAD_DSTYLE_DIMRADIAL_EXTENSION
 70
     0
  0
APPID
  2
ACAD_NAV_VCDISPLAY
 70
     0
  0
APPID
  2
ACAD_MLEADERVER
 70
     0
  0
ENDTAB
  0
TABLE
  2
DIMSTYLE
 70
     2
  0
DIMSTYLE
  2
DUKITEC
 70
     0
  3

  4

  5

  6

  7

 40
1.0
 41
3.0
 42
1.0
 43
0.0
 44
1.0
 45
0.0
 46
0.0
 47
0.0
 48
0.0
140
3.0
141
0.0
142
0.0
143
25.399999999999999
144
1.0
145
0.0
146
1.0
147
1.0
 71
     0
 72
     0
 73
     0
 74
     0
 75
     0
 76
     0
 77
     1
 78
     8
170
     0
171
     2
172
     1
173
     0
174
     1
175
     0
176
     5
177
     5
178
     0
  0
ENDTAB
  0
ENDSEC
  0
SECTION
  2
BLOCKS
  0
BLOCK
  8
0
  2
$MODEL_SPACE
 70
     0
 10
0.0
 20
0.0
 30
0.0
  3
$MODEL_SPACE
  1

  0
ENDBLK
  5
14078
  8
0
  0
BLOCK
 67
     1
  8
0
  2
$PAPER_SPACE
 70
     0
 10
0.0
 20
0.0
 30
0.0
  3
$PAPER_SPACE
  1

  0
ENDBLK
  5
14074
 67
     1
  8
0
  0
ENDSEC
  0
SECTION
  2
ENTITIES
  0
POLYLINE
  5
13E1C
  8
0
 66
     1
 10
0.0
 20
0.0
 30
0.0
 70
     1
  0
VERTEX
  5
14242
  8
0
 10
2014.9454172966871
 20
1514.2846675627291
 30
0.0
  0
VERTEX
  5
14243
  8
0
 10
2014.9454172966871
 20
1671.7846675627291
 30
0.0
  0
VERTEX
  5
14244
  8
0
 10
2237.695417296688
 20
1671.7846675627291
 30
0.0
  0
VERTEX
  5
14245
  8
0
 10
2237.695417296688
 20
1514.2846675627291
 30
0.0
  0
VERTEX
  5
14246
  8
0
 10
2014.9454172966871
 20
1514.2846675627291
 30
0.0
  0
SEQEND
  5
14247
  8
0
  0
TEXT
  5
13FE6
  8
0
 10
2070.8074434614182
 20
1541.8291987939681
 30
0.0
 40
20.0
  1
FK6 P5
  7
BIG
  0
LINE
  5
14094
  8
HIDE
 10
2142.537727280504
 20
1592.6973661236809
 30
0.0
 11
2146.537727280504
 21
1592.6973661236809
 31
0.0
  0
LINE
  5
14095
  8
HIDE
 10
2146.537727280504
 20
1591.1473661236801
 30
0.0
 11
2149.537727280504
 21
1591.1473661236801
 31
0.0
  0
LINE
  5
14096
  8
HIDE
 10
2146.537727280504
 20
1587.7473661236811
 30
0.0
 11
2149.537727280504
 21
1587.7473661236811
 31
0.0
  0
LINE
  5
14097
  8
HIDE
 10
2142.537727280504
 20
1586.1973661236809
 30
0.0
 11
2146.537727280504
 21
1586.1973661236809
 31
0.0
  0
LINE
  5
14098
  8
HIDE
 10
2146.537727280504
 20
1592.6973661236809
 30
0.0
 11
2146.537727280504
 21
1586.1973661236809
 31
0.0
  0
LINE
  5
14099
  8
HIDE
 10
2146.537727280504
 20
1620.6973661236809
 30
0.0
 11
2146.537727280504
 21
1614.1973661236809
 31
0.0
  0
LINE
  5
1409A
  8
HIDE
 10
2142.537727280504
 20
1614.1973661236809
 30
0.0
 11
2146.537727280504
 21
1614.1973661236809
 31
0.0
  0
LINE
  5
1409B
  8
HIDE
 10
2146.537727280504
 20
1615.7473661236811
 30
0.0
 11
2149.537727280504
 21
1615.7473661236811
 31
0.0
  0
LINE
  5
1409C
  8
HIDE
 10
2146.537727280504
 20
1619.1473661236801
 30
0.0
 11
2149.537727280504
 21
1619.1473661236801
 31
0.0
  0
LINE
  5
1409D
  8
HIDE
 10
2142.537727280504
 20
1620.6973661236809
 30
0.0
 11
2146.537727280504
 21
1620.6973661236809
 31
0.0
  0
LINE
  5
1409E
  8
CENTER
 10
2141.0183286138022
 20
1589.44736612368
 30
0.0
 11
2150.8964384702331
 21
1589.44736612368
 31
0.0
  0
LINE
  5
1409F
  8
CENTER
 10
2141.0183286138022
 20
1617.4473661236809
 30
0.0
 11
2150.8964384702331
 21
1617.4473661236809
 31
0.0
  0
LINE
  5
140A0
  8
0
 10
2142.537727280504
 20
1621.44736612368
 30
0.0
 11
2149.537727280504
 21
1621.44736612368
 31
0.0
  0
LINE
  5
140A1
  8
0
 10
2142.537727280504
 20
1585.4473661236809
 30
0.0
 11
2149.537727280504
 21
1585.4473661236809
 31
0.0
  0
LINE
  5
140A2
  8
0
 10
2142.537727280504
 20
1598.6973661236809
 30
0.0
 11
2142.037727280504
 21
1598.6973661236809
 31
0.0
  0
LINE
  5
140A3
  8
0
 10
2142.537727280504
 20
1608.1973661236809
 30
0.0
 11
2142.037727280504
 21
1608.1973661236809
 31
0.0
  0
LINE
  5
140A5
  8
0
 10
2142.537727280504
 20
1621.44736612368
 30
0.0
 11
2142.537727280504
 21
1585.4473661236809
 31
0.0
  0
LINE
  5
140A8
  8
CENTER
 10
2134.6422342600999
 20
1603.44736612368
 30
0.0
 11
2166.328898569152
 21
1603.44736612368
 31
0.0
  0
LINE
  5
140A9
  8
HIDE
 10
2142.037727280504
 20
1600.4473661236809
 30
0.0
 11
2147.037727280504
 21
1600.4473661236809
 31
0.0
  0
LINE
  5
140AB
  8
HIDE
 10
2142.037727280504
 20
1606.4473661236809
 30
0.0
 11
2147.037727280504
 21
1606.4473661236809
 31
0.0
  0
LINE
  5
140AD
  8
HIDE
 10
2142.537727280504
 20
1598.6973661236809
 30
0.0
 11
2147.037727280504
 21
1598.6973661236809
 31
0.0
  0
LINE
  5
140AE
  8
HIDE
 10
2159.037727280504
 20
1598.6973661236809
 30
0.0
 11
2162.537727280504
 21
1598.6973661236809
 31
0.0
  0
LINE
  5
140AF
  8
HIDE
 10
2159.037727280504
 20
1608.1973661236809
 30
0.0
 11
2162.537727280504
 21
1608.19736612368
 31
0.0
  0
LINE
  5
140B0
  8
HIDE
 10
2142.537727280504
 20
1608.1973661236809
 30
0.0
 11
2147.037727280504
 21
1608.1973661236809
 31
0.0
  0
LINE
  5
140B1
  8
0
 10
2149.537727280504
 20
1592.44736612368
 30
0.0
 11
2162.537727280504
 21
1592.44736612368
 31
0.0
  0
LINE
  5
140B2
  8
0
 10
2149.537727280504
 20
1614.4473661236809
 30
0.0
 11
2162.537727280504
 21
1614.4473661236809
 31
0.0
  0
LINE
  5
140B3
  8
0
 10
2149.537727280504
 20
1621.44736612368
 30
0.0
 11
2149.537727280504
 21
1585.4473661236809
 31
0.0
  0
LINE
  5
140B4
  8
0
 10
2162.537727280504
 20
1592.44736612368
 30
0.0
 11
2162.537727280504
 21
1614.4473661236809
 31
0.0
  0
LINE
  5
140B5
  8
0
 10
2142.537727280504
 20
1601.5478761236809
 30
0.0
 11
2149.537727280504
 21
1601.5478761236809
 31
0.0
  0
LINE
  5
140B6
  8
0
 10
2142.537727280504
 20
1605.346857123681
 30
0.0
 11
2149.537727280504
 21
1605.346857123681
 31
0.0
  0
POINT
  5
140B7
  8
0
 10
2162.537727280504
 20
1603.44736612368
 30
0.0
  0
POINT
  5
140B8
  8
0
 10
2162.537727280504
 20
1603.44736612368
 30
0.0
  0
LINE
  5
140B9
  8
0
 10
2141.537727280504
 20
1610.69736612368
 30
0.0
 11
2137.037727280504
 21
1610.69736612368
 31
0.0
  0
LINE
  5
140BA
  8
0
 10
2141.537727280504
 20
1596.19736612368
 30
0.0
 11
2137.0377272805022
 21
1596.19736612368
 31
0.0
  0
LINE
  5
140BB
  8
0
 10
2137.037727280504
 20
1610.69736612368
 30
0.0
 11
2137.037727280504
 21
1596.19736612368
 31
0.0
  0
LINE
  5
140BC
  8
0
 10
2142.037727280504
 20
1608.44736612368
 30
0.0
 11
2142.037727280504
 21
1598.4473661236809
 31
0.0
  0
LINE
  5
140BD
  8
CENTER
 10
2139.3377272805028
 20
1611.275510711758
 30
0.0
 11
2139.3377272805028
 21
1605.2442193712659
 31
0.0
  0
LINE
  5
140BE
  8
0
 10
2141.537727280504
 20
1610.69736612368
 30
0.0
 11
2141.537727280504
 21
1596.19736612368
 31
0.0
  0
LINE
  5
140BF
  8
CENTER
 10
2142.6300696840649
 20
1603.44736612368
 30
0.0
 11
2135.5503783218292
 21
1603.44736612368
 31
0.0
  0
LINE
  5
140C0
  8
0
 10
2141.537727280504
 20
1604.812290702492
 30
0.0
 11
2137.037727280504
 21
1604.812290702492
 31
0.0
  0
LINE
  5
140C1
  8
0
 10
2141.537727280504
 20
1602.0824415448619
 30
0.0
 11
2137.037727280504
 21
1602.082441544864
 31
0.0
  0
LINE
  5
140C2
  8
HIDE
 10
2142.037727280504
 20
1600.4473661236791
 30
0.0
 11
2137.037727280504
 21
1600.4473661236809
 31
0.0
  0
LINE
  5
140C3
  8
HIDE
 10
2142.037727280504
 20
1606.4473661236809
 30
0.0
 11
2137.037727280504
 21
1606.4473661236809
 31
0.0
  0
LINE
  5
140C4
  8
0
 10
2142.037727280504
 20
1598.4473661236809
 30
0.0
 11
2141.537727280504
 21
1598.158690989088
 31
0.0
  0
LINE
  5
140C5
  8
0
 10
2142.037727280504
 20
1608.44736612368
 30
0.0
 11
2141.537727280504
 21
1608.7360412582759
 31
0.0
  0
LINE
  5
140C6
  8
HIDE
 10
2137.8377272805028
 20
1610.69736612368
 30
0.0
 11
2137.837727280501
 21
1606.0723661236821
 31
0.0
  0
LINE
  5
140C7
  8
HIDE
 10
2138.0877272805028
 20
1610.69736612368
 30
0.0
 11
2138.0877272805028
 21
1606.0723661236821
 31
0.0
  0
LINE
  5
140C8
  8
HIDE
 10
2140.837727280501
 20
1610.69736612368
 30
0.0
 11
2140.8377272805001
 21
1606.0723661236821
 31
0.0
  0
LINE
  5
140C9
  8
HIDE
 10
2140.5877272805028
 20
1610.69736612368
 30
0.0
 11
2140.5877272805028
 21
1606.0723661236821
 31
0.0
  0
LINE
  5
140CA
  8
HIDE
 10
2140.8377272805001
 20
1607.1703912575181
 30
0.0
 11
2137.8377272805001
 21
1607.1703912575181
 31
0.0
  0
LINE
  5
140CB
  8
HIDE
 10
2140.8377272805001
 20
1610.1703912575169
 30
0.0
 11
2137.8377272805001
 21
1610.1703912575169
 31
0.0
  0
LINE
  5
140CC
  8
HIDE
 10
2140.8377272805001
 20
1607.170391257516
 30
0.0
 11
2140.5877272805028
 21
1607.026053690221
 31
0.0
  0
LINE
  5
140CD
  8
HIDE
 10
2137.8377272805028
 20
1607.1703912575169
 30
0.0
 11
2138.0877272805028
 21
1607.026053690219
 31
0.0
  0
LINE
  5
140CE
  8
HIDE
 10
2140.5877272805028
 20
1607.026053690221
 30
0.0
 11
2138.0877272805028
 21
1607.026053690219
 31
0.0
  0
LINE
  5
140CF
  8
HIDE
 10
2142.037727280504
 20
1606.0723661236821
 30
0.0
 11
2137.037727280504
 21
1606.0723661236809
 31
0.0
  0
LINE
  5
140D0
  8
HIDE
 10
2142.037727280504
 20
1600.8223661236809
 30
0.0
 11
2137.037727280504
 21
1600.8223661236809
 31
0.0
  0
LINE
  5
140D1
  8
HIDE
 10
2159.0377272805031
 20
1608.1973661236809
 30
0.0
 11
2159.0377272805049
 21
1598.6973661236809
 31
0.0
  0
CIRCLE
  5
140D2
  8
HIDE
 10
2156.037727280504
 20
1597.6973661236809
 30
0.0
 40
1.649999999999999
  0
CIRCLE
  5
140D3
  8
HIDE
 10
2156.037727280504
 20
1609.1973661236821
 30
0.0
 40
1.649999999999999
  0
LINE
  5
140D4
  8
HIDE
 10
2159.037727280504
 20
1596.5723661236809
 30
0.0
 11
2159.037727280504
 21
1598.987366123682
 31
0.0
  0
LINE
  5
140D5
  8
HIDE
 10
2153.037727280504
 20
1598.987366123682
 30
0.0
 11
2153.037727280504
 21
1596.5723661236809
 31
0.0
  0
LINE
  5
140D6
  8
HIDE
 10
2157.2447380509611
 20
1596.5723661236809
 30
0.0
 11
2159.037727280504
 21
1596.5723661236809
 31
0.0
  0
LINE
  5
140D7
  8
HIDE
 10
2153.3377272805042
 20
1594.9473661236809
 30
0.0
 11
2158.7377272805038
 21
1594.9473661236809
 31
0.0
  0
ARC
  5
140D8
  8
HIDE
 10
2153.3377272805042
 20
1595.247366123682
 30
0.0
 40
0.3
 50
180.0
 51
270.0
  0
LINE
  5
140D9
  8
HIDE
 10
2153.037727280504
 20
1596.5723661236809
 30
0.0
 11
2153.037727280504
 21
1595.247366123682
 31
0.0
  0
ARC
  5
140DA
  8
HIDE
 10
2158.7377272805038
 20
1595.247366123682
 30
0.0
 40
0.3000000000000007
 50
270.0
 51
0.0
  0
LINE
  5
140DB
  8
HIDE
 10
2159.037727280504
 20
1595.247366123682
 30
0.0
 11
2159.037727280504
 21
1596.5723661236809
 31
0.0
  0
ARC
  5
140DC
  8
HIDE
 10
2153.3377272805042
 20
1606.747366123682
 30
0.0
 40
0.3
 50
180.0
 51
270.0
  0
ARC
  5
140DD
  8
HIDE
 10
2158.7377272805038
 20
1606.747366123682
 30
0.0
 40
0.2999999999999998
 50
270.0
 51
0.0
  0
LINE
  5
140DE
  8
HIDE
 10
2153.037727280504
 20
1603.4473661236809
 30
0.0
 11
2153.037727280504
 21
1606.747366123682
 31
0.0
  0
LINE
  5
140DF
  8
HIDE
 10
2153.037727280504
 20
1598.987366123682
 30
0.0
 11
2155.008941588535
 21
1598.987366123682
 31
0.0
  0
LINE
  5
140E0
  8
HIDE
 10
2157.066512972473
 20
1598.987366123682
 30
0.0
 11
2159.037727280504
 21
1598.987366123682
 31
0.0
  0
LINE
  5
140E1
  8
HIDE
 10
2153.3377272805042
 20
1600.4473661236809
 30
0.0
 11
2158.7377272805038
 21
1600.4473661236809
 31
0.0
  0
LINE
  5
140E2
  8
HIDE
 10
2153.3377272805042
 20
1606.4473661236809
 30
0.0
 11
2158.7377272805038
 21
1606.4473661236809
 31
0.0
  0
LINE
  5
140E3
  8
HIDE
 10
2153.037727280504
 20
1603.4473661236809
 30
0.0
 11
2153.037727280504
 21
1600.1473661236821
 31
0.0
  0
ARC
  5
140E4
  8
HIDE
 10
2153.3377272805042
 20
1600.1473661236821
 30
0.0
 40
0.2999999999999998
 50
90.0
 51
180.0
  0
LINE
  5
140E5
  8
HIDE
 10
2153.037727280504
 20
1600.1473661236821
 30
0.0
 11
2153.037727280504
 21
1598.987366123682
 31
0.0
  0
ARC
  5
140E6
  8
HIDE
 10
2158.7377272805038
 20
1600.1473661236821
 30
0.0
 40
0.2999999999999998
 50
0.0
 51
90.0
  0
LINE
  5
140E7
  8
HIDE
 10
2159.037727280504
 20
1598.987366123682
 30
0.0
 11
2159.037727280504
 21
1600.1473661236821
 31
0.0
  0
LINE
  5
140E8
  8
HIDE
 10
2153.037727280504
 20
1607.907366123681
 30
0.0
 11
2155.008941588535
 21
1607.907366123681
 31
0.0
  0
LINE
  5
140E9
  8
HIDE
 10
2157.066512972473
 20
1607.907366123681
 30
0.0
 11
2159.037727280504
 21
1607.907366123681
 31
0.0
  0
LINE
  5
140EA
  8
HIDE
 10
2153.0475494631069
 20
1611.0110131142769
 30
0.0
 11
2155.4910917476368
 21
1610.7541864711229
 31
0.0
  0
LINE
  5
140EB
  8
HIDE
 10
2157.2447380509611
 20
1610.3223661236821
 30
0.0
 11
2159.037727280504
 21
1610.3223661236821
 31
0.0
  0
LINE
  5
140EC
  8
HIDE
 10
2153.3377272805042
 20
1611.9473661236821
 30
0.0
 11
2158.7377272805038
 21
1611.9473661236821
 31
0.0
  0
ARC
  5
140ED
  8
HIDE
 10
2153.3377272805042
 20
1611.6473661236821
 30
0.0
 40
0.3000000000000007
 50
90.0
 51
180.0
  0
LINE
  5
140EE
  8
HIDE
 10
2153.037727280504
 20
1610.3223661236821
 30
0.0
 11
2153.037727280504
 21
1611.6473661236821
 31
0.0
  0
LINE
  5
140EF
  8
HIDE
 10
2153.037727280504
 20
1606.747366123682
 30
0.0
 11
2153.037727280504
 21
1607.907366123681
 31
0.0
  0
LINE
  5
140F0
  8
HIDE
 10
2153.037727280504
 20
1607.907366123681
 30
0.0
 11
2153.037727280504
 21
1610.3223661236821
 31
0.0
  0
LINE
  5
140F1
  8
HIDE
 10
2159.037727280504
 20
1611.6473661236821
 30
0.0
 11
2159.037727280504
 21
1610.3223661236821
 31
0.0
  0
LINE
  5
140F2
  8
HIDE
 10
2159.037727280504
 20
1607.907366123681
 30
0.0
 11
2159.037727280504
 21
1606.747366123682
 31
0.0
  0
LINE
  5
140F3
  8
HIDE
 10
2159.037727280504
 20
1610.3223661236821
 30
0.0
 11
2159.037727280504
 21
1607.907366123681
 31
0.0
  0
ARC
  5
140F4
  8
HIDE
 10
2158.7377272805038
 20
1611.6473661236821
 30
0.0
 40
0.2999999999999998
 50
0.0
 51
90.0
  0
LINE
  5
140F5
  8
HIDE
 10
2153.1084848755859
 20
1598.987366123682
 30
0.0
 11
2153.037727280504
 21
1599.0581237187639
 31
0.0
  0
LINE
  5
140F6
  8
HIDE
 10
2153.0475494631069
 20
1595.8837191330861
 30
0.0
 11
2155.4910917476368
 21
1596.1405457762401
 31
0.0
  0
CIRCLE
  5
140F7
  8
HIDE
 10
2150.037727280504
 20
1597.6973661236809
 30
0.0
 40
1.649999999999999
  0
CIRCLE
  5
140F8
  8
HIDE
 10
2150.037727280504
 20
1609.1973661236821
 30
0.0
 40
1.649999999999999
  0
LINE
  5
140F9
  8
HIDE
 10
2153.037727280504
 20
1598.987366123682
 30
0.0
 11
2153.037727280504
 21
1596.5723661236809
 31
0.0
  0
LINE
  5
140FA
  8
HIDE
 10
2148.8307165100468
 20
1596.5723661236809
 30
0.0
 11
2147.037727280504
 21
1596.5723661236809
 31
0.0
  0
LINE
  5
140FB
  8
HIDE
 10
2152.7377272805038
 20
1594.9473661236809
 30
0.0
 11
2147.3377272805042
 21
1594.9473661236809
 31
0.0
  0
ARC
  5
140FC
  8
HIDE
 10
2152.7377272805038
 20
1595.247366123682
 30
0.0
 40
0.3
 50
270.0
 51
0.0
  0
LINE
  5
140FD
  8
HIDE
 10
2153.037727280504
 20
1596.5723661236809
 30
0.0
 11
2153.037727280504
 21
1595.247366123682
 31
0.0
  0
ARC
  5
140FE
  8
HIDE
 10
2147.3377272805042
 20
1595.247366123682
 30
0.0
 40
0.3000000000000007
 50
180.0
 51
270.0
  0
ARC
  5
140FF
  8
HIDE
 10
2152.7377272805038
 20
1606.747366123682
 30
0.0
 40
0.3
 50
270.0
 51
0.0
  0
ARC
  5
14100
  8
HIDE
 10
2147.3377272805042
 20
1606.747366123682
 30
0.0
 40
0.2999999999999998
 50
180.0
 51
270.0
  0
LINE
  5
14101
  8
HIDE
 10
2153.037727280504
 20
1603.4473661236809
 30
0.0
 11
2153.037727280504
 21
1606.747366123682
 31
0.0
  0
LINE
  5
14102
  8
HIDE
 10
2153.037727280504
 20
1598.987366123682
 30
0.0
 11
2151.066512972473
 21
1598.987366123682
 31
0.0
  0
LINE
  5
14103
  8
HIDE
 10
2149.008941588535
 20
1598.987366123682
 30
0.0
 11
2147.037727280504
 21
1598.987366123682
 31
0.0
  0
LINE
  5
14104
  8
HIDE
 10
2152.7377272805038
 20
1600.4473661236809
 30
0.0
 11
2147.3377272805042
 21
1600.4473661236809
 31
0.0
  0
LINE
  5
14105
  8
HIDE
 10
2152.7377272805038
 20
1606.4473661236809
 30
0.0
 11
2147.3377272805042
 21
1606.4473661236809
 31
0.0
  0
LINE
  5
14106
  8
HIDE
 10
2153.037727280504
 20
1603.4473661236809
 30
0.0
 11
2153.037727280504
 21
1600.1473661236821
 31
0.0
  0
ARC
  5
14107
  8
HIDE
 10
2152.7377272805038
 20
1600.1473661236821
 30
0.0
 40
0.2999999999999998
 50
0.0
 51
90.0
  0
LINE
  5
14108
  8
HIDE
 10
2153.037727280504
 20
1600.1473661236821
 30
0.0
 11
2153.037727280504
 21
1598.987366123682
 31
0.0
  0
ARC
  5
14109
  8
HIDE
 10
2147.3377272805042
 20
1600.1473661236821
 30
0.0
 40
0.2999999999999998
 50
90.0
 51
180.0
  0
LINE
  5
1410A
  8
HIDE
 10
2147.037727280504
 20
1598.987366123682
 30
0.0
 11
2147.037727280504
 21
1600.1473661236821
 31
0.0
  0
LINE
  5
1410B
  8
HIDE
 10
2153.037727280504
 20
1607.907366123681
 30
0.0
 11
2151.066512972473
 21
1607.907366123681
 31
0.0
  0
LINE
  5
1410C
  8
HIDE
 10
2149.008941588535
 20
1607.907366123681
 30
0.0
 11
2147.037727280504
 21
1607.907366123681
 31
0.0
  0
LINE
  5
1410D
  8
HIDE
 10
2153.0279050979011
 20
1611.0110131142769
 30
0.0
 11
2150.5843628133721
 21
1610.7541864711229
 31
0.0
  0
LINE
  5
1410E
  8
HIDE
 10
2148.8307165100468
 20
1610.3223661236821
 30
0.0
 11
2147.037727280504
 21
1610.3223661236821
 31
0.0
  0
LINE
  5
1410F
  8
HIDE
 10
2152.7377272805038
 20
1611.9473661236821
 30
0.0
 11
2147.3377272805042
 21
1611.9473661236821
 31
0.0
  0
ARC
  5
14110
  8
HIDE
 10
2152.7377272805038
 20
1611.6473661236821
 30
0.0
 40
0.3000000000000007
 50
0.0
 51
90.0
  0
LINE
  5
14111
  8
HIDE
 10
2153.037727280504
 20
1610.3223661236821
 30
0.0
 11
2153.037727280504
 21
1611.6473661236821
 31
0.0
  0
LINE
  5
14112
  8
HIDE
 10
2153.037727280504
 20
1606.747366123682
 30
0.0
 11
2153.037727280504
 21
1607.907366123681
 31
0.0
  0
LINE
  5
14113
  8
HIDE
 10
2153.037727280504
 20
1607.907366123681
 30
0.0
 11
2153.037727280504
 21
1610.3223661236821
 31
0.0
  0
LINE
  5
14114
  8
HIDE
 10
2147.037727280504
 20
1611.6473661236821
 30
0.0
 11
2147.037727280504
 21
1595.247366123682
 31
0.0
  0
ARC
  5
14115
  8
HIDE
 10
2147.3377272805042
 20
1611.6473661236821
 30
0.0
 40
0.2999999999999998
 50
90.0
 51
180.0
  0
LINE
  5
14116
  8
HIDE
 10
2152.9669696854221
 20
1598.987366123682
 30
0.0
 11
2153.037727280504
 21
1599.0581237187639
 31
0.0
  0
LINE
  5
14117
  8
HIDE
 10
2153.0279050979011
 20
1595.8837191330861
 30
0.0
 11
2150.5843628133721
 21
1596.1405457762401
 31
0.0
  0
ARC
  5
1411B
  8
CENTER
 10
2100.0283804618948
 20
1603.44736612368
 30
0.0
 40
14.0
 50
72.492915000003478
 51
106.87682300000721
  0
ARC
  5
1411C
  8
CENTER
 10
2100.0283804618948
 20
1603.44736612368
 30
0.0
 40
14.0
 50
342.49982599999879
 51
16.786220999991901
  0
ARC
  5
1411D
  8
CENTER
 10
2100.0283804618948
 20
1603.44736612368
 30
0.0
 40
14.0
 50
252.28803100000971
 51
288.19746199999702
  0
ARC
  5
1411F
  8
CENTER
 10
2100.0283804618948
 20
1603.44736612368
 30
0.0
 40
14.0
 50
163.57555199999771
 51
197.32014200000879
  0
CIRCLE
  5
14120
  8
0
 10
2100.0283804618948
 20
1617.4473661236809
 30
0.0
 40
1.7
  0
CIRCLE
  5
14121
  8
0
 10
2100.0283804618948
 20
1617.4473661236809
 30
0.0
 40
3.25
  0
CIRCLE
  5
14122
  8
0
 10
2086.0283804618948
 20
1603.44736612368
 30
0.0
 40
1.7
  0
CIRCLE
  5
14123
  8
0
 10
2086.0283804618948
 20
1603.44736612368
 30
0.0
 40
3.25
  0
CIRCLE
  5
14124
  8
0
 10
2100.0283804618948
 20
1589.44736612368
 30
0.0
 40
1.7
  0
CIRCLE
  5
14125
  8
0
 10
2100.0283804618948
 20
1589.44736612368
 30
0.0
 40
3.25
  0
CIRCLE
  5
14126
  8
0
 10
2114.0283804618948
 20
1603.44736612368
 30
0.0
 40
1.7
  0
CIRCLE
  5
14127
  8
0
 10
2114.0283804618948
 20
1603.44736612368
 30
0.0
 40
3.25
  0
CIRCLE
  5
14128
  8
0
 10
2100.0283804618948
 20
1617.4473661236809
 30
0.0
 40
1.7
  0
CIRCLE
  5
14129
  8
0
 10
2100.0283804618948
 20
1617.4473661236809
 30
0.0
 40
3.25
  0
LINE
  5
1412A
  8
CENTER
 10
2078.028382742255
 20
1603.44736612368
 30
0.0
 11
2122.0283781815351
 21
1603.44736612368
 31
0.0
  0
LINE
  5
1412B
  8
CENTER
 10
2100.0283804618948
 20
1581.4473684040399
 30
0.0
 11
2100.0283804618948
 21
1625.447363843321
 31
0.0
  0
LINE
  5
1412C
  8
0
 10
2101.3933050407081
 20
1596.3270093282549
 30
0.0
 11
2107.1487372573201
 21
1602.0824415448701
 31
0.0
  0
LINE
  5
1412D
  8
0
 10
2092.9080236664699
 20
1604.8122907024931
 30
0.0
 11
2098.6634558830842
 21
1610.567722919106
 31
0.0
  0
LINE
  5
1412E
  8
HIDE
 10
2101.5283804618948
 20
1610.432647497918
 30
0.0
 11
2101.5283804618971
 21
1605.601577116131
 31
0.0
  0
LINE
  5
1412F
  8
HIDE
 10
2101.2783804618948
 20
1610.588794552224
 30
0.0
 11
2101.2783804618948
 21
1605.755639287758
 31
0.0
  0
LINE
  5
14130
  8
HIDE
 10
2098.5283804618971
 20
1610.432647497918
 30
0.0
 11
2098.528380461898
 21
1605.6015771161351
 31
0.0
  0
LINE
  5
14131
  8
HIDE
 10
2098.7783804618948
 20
1610.588794552224
 30
0.0
 11
2098.7783804618948
 21
1605.755639287758
 31
0.0
  0
LINE
  5
14132
  8
0
 10
2101.3933050407081
 20
1610.567722919106
 30
0.0
 11
2107.148737257322
 21
1604.8122907024899
 31
0.0
  0
LINE
  5
14133
  8
0
 10
2092.9080236664709
 20
1602.082441544866
 30
0.0
 11
2098.663455883082
 21
1596.327009328257
 31
0.0
  0
ARC
  5
14134
  8
0
 10
2100.0283804618948
 20
1603.44736612368
 30
0.0
 40
7.25
 50
169.1484243449693
 51
190.85157565508189
  0
ARC
  5
14135
  8
0
 10
2100.0283804618948
 20
1603.44736612368
 30
0.0
 40
7.25
 50
259.14842434496933
 51
280.85157565503067
  0
ARC
  5
14136
  8
0
 10
2100.0283804618948
 20
1603.44736612368
 30
0.0
 40
7.25
 50
349.14842434491811
 51
10.85157565503069
  0
ARC
  5
14137
  8
0
 10
2100.0283804618948
 20
1603.44736612368
 30
0.0
 40
7.25
 50
79.148424344969314
 51
100.8515756550307
  0
LINE
  5
14138
  8
HIDE
 10
2098.528380461898
 20
1607.1703912575181
 30
0.0
 11
2101.528380461898
 21
1607.1703912575181
 31
0.0
  0
LINE
  5
14139
  8
HIDE
 10
2098.528380461898
 20
1610.1703912575169
 30
0.0
 11
2101.528380461898
 21
1610.1703912575169
 31
0.0
  0
LINE
  5
1413A
  8
HIDE
 10
2098.528380461898
 20
1607.170391257516
 30
0.0
 11
2098.7783804618948
 21
1607.026053690221
 31
0.0
  0
LINE
  5
1413B
  8
HIDE
 10
2101.5283804618948
 20
1607.1703912575169
 30
0.0
 11
2101.2783804618948
 21
1607.026053690219
 31
0.0
  0
LINE
  5
1413C
  8
HIDE
 10
2098.7783804618948
 20
1607.026053690221
 30
0.0
 11
2101.2783804618948
 21
1607.026053690219
 31
0.0
  0
ARC
  5
1413D
  8
HIDE
 10
2100.0283804618948
 20
1603.44736612368
 30
0.0
 40
3.0
 50
270.0
 51
180.0
  0
CIRCLE
  5
1413E
  8
0
 10
2100.0283804618948
 20
1603.44736612368
 30
0.0
 40
2.625
  0
ARC
  5
1413F
  8
0
 10
2100.0283804618948
 20
1603.44736612368
 30
0.0
 40
18.0
 50
353.94244126898849
 51
6.0575587310115262
  0
ARC
  5
14140
  8
0
 10
2100.0283804618948
 20
1603.44736612368
 30
0.0
 40
18.0
 50
83.942441268987096
 51
96.05755873101289
  0
ARC
  5
14141
  8
0
 10
2100.0283804618948
 20
1603.44736612368
 30
0.0
 40
18.0
 50
173.9424412689884
 51
186.05755873101151
  0
ARC
  5
14142
  8
0
 10
2100.0283804618948
 20
1603.44736612368
 30
0.0
 40
18.0
 50
263.94244126898712
 51
276.05755873101288
  0
LINE
  5
14143
  8
0
 10
2098.1288855252828
 20
1585.5478711870689
 30
0.0
 11
2082.1288855252842
 21
1601.5478711870689
 31
0.0
  0
LINE
  5
14144
  8
0
 10
2117.9278753985059
 20
1605.3468610602911
 30
0.0
 11
2101.9278753985068
 21
1621.346861060292
 31
0.0
  0
LINE
  5
14145
  8
0
 10
2101.9278753985059
 20
1585.5478711870689
 30
0.0
 11
2117.9278753985059
 21
1601.547871187068
 31
0.0
  0
LINE
  5
14146
  8
0
 10
2082.1288855252842
 20
1605.3468610602929
 30
0.0
 11
2098.1288855252842
 21
1621.3468610602929
 31
0.0
  0
ARC
  5
141FF
  8
HIDE
 10
2100.0283804618948
 20
1603.44736612368
 30
0.0
 40
9.25
 50
270.0
 51
180.0
  0
CIRCLE
  5
14200
  8
0
 10
2100.0283804618948
 20
1603.44736612368
 30
0.0
 40
9.0
  0
ENDSEC
  0
EOF
