  0
SECTION
  2
HEADER
  9
$ACADVER
  1
AC1009
  9
$INSBASE
 10
0.0
 20
0.0
 30
0.0
  9
$EXTMIN
 10
2028.062171719044
 20
1521.0101375771931
 30
0.0
  9
$EXTMAX
 10
2206.2621717190441
 20
1647.0101375771931
 30
0.0
  9
$LIMMIN
 10
0.0
 20
0.0
  9
$LIMMAX
 10
12.0
 20
9.0
  9
$ORTHOMODE
 70
     1
  9
$REGENMODE
 70
     1
  9
$FILLMODE
 70
     1
  9
$QTEXTMODE
 70
     0
  9
$MIRRTEXT
 70
     0
  9
$DRAGMODE
 70
     2
  9
$LTSCALE
 40
5.0
  9
$OSMODE
 70
  2239
  9
$ATTMODE
 70
     1
  9
$TEXTSIZE
 40
2.5
  9
$TRACEWID
 40
0.05
  9
$TEXTSTYLE
  7
BIG
  9
$CLAYER
  8
0
  9
$CELTYPE
  6
BYLAYER
  9
$CECOLOR
 62
   256
  9
$DIMSCALE
 40
1.0
  9
$DIMASZ
 40
3.0
  9
$DIMEXO
 40
1.0
  9
$DIMDLI
 40
0.0
  9
$DIMRND
 40
0.0
  9
$DIMDLE
 40
0.0
  9
$DIMEXE
 40
1.0
  9
$DIMTP
 40
0.0
  9
$DIMTM
 40
0.0
  9
$DIMTXT
 40
3.0
  9
$DIMCEN
 40
0.0
  9
$DIMTSZ
 40
0.0
  9
$DIMTOL
 70
     0
  9
$DIMLIM
 70
     0
  9
$DIMTIH
 70
     0
  9
$DIMTOH
 70
     0
  9
$DIMSE1
 70
     0
  9
$DIMSE2
 70
     0
  9
$DIMTAD
 70
     1
  9
$DIMZIN
 70
     8
  9
$DIMBLK
  1

  9
$DIMASO
 70
     1
  9
$DIMSHO
 70
     1
  9
$DIMPOST
  1

  9
$DIMAPOST
  1

  9
$DIMALT
 70
     0
  9
$DIMALTD
 70
     2
  9
$DIMALTF
 40
25.399999999999999
  9
$DIMLFAC
 40
1.0
  9
$DIMTOFL
 70
     1
  9
$DIMTVP
 40
0.0
  9
$DIMTIX
 70
     1
  9
$DIMSOXD
 70
     0
  9
$DIMSAH
 70
     0
  9
$DIMBLK1
  1

  9
$DIMBLK2
  1

  9
$DIMSTYLE
  2
DUKITEC
  9
$DIMCLRD
 70
     5
  9
$DIMCLRE
 70
     5
  9
$DIMCLRT
 70
     0
  9
$DIMTFAC
 40
1.0
  9
$DIMGAP
 40
1.0
  9
$LUNITS
 70
     2
  9
$LUPREC
 70
     4
  9
$SKETCHINC
 40
0.1
  9
$FILLETRAD
 40
0.2
  9
$AUNITS
 70
     0
  9
$AUPREC
 70
     0
  9
$MENU
  1
.
  9
$ELEVATION
 40
0.0
  9
$PELEVATION
 40
0.0
  9
$THICKNESS
 40
0.0
  9
$LIMCHECK
 70
     0
  9
$BLIPMODE
 70
     0
  9
$CHAMFERA
 40
0.5
  9
$CHAMFERB
 40
0.5
  9
$SKPOLY
 70
     0
  9
$TDCREATE
 40
2454396.714503217
  9
$TDUPDATE
 40
2456631.3828944438
  9
$TDINDWG
 40
0.0286122454
  9
$TDUSRTIMER
 40
0.0286119907
  9
$USRTIMER
 70
     1
  9
$ANGBASE
 50
0.0
  9
$ANGDIR
 70
     0
  9
$PDMODE
 70
     0
  9
$PDSIZE
 40
0.0
  9
$PLINEWID
 40
0.0
  9
$COORDS
 70
     1
  9
$SPLFRAME
 70
     0
  9
$SPLINETYPE
 70
     6
  9
$SPLINESEGS
 70
     8
  9
$ATTDIA
 70
     0
  9
$ATTREQ
 70
     1
  9
$HANDLING
 70
     1
  9
$HANDSEED
  5
1441B
  9
$SURFTAB1
 70
     6
  9
$SURFTAB2
 70
     6
  9
$SURFTYPE
 70
     6
  9
$SURFU
 70
     6
  9
$SURFV
 70
     6
  9
$UCSNAME
  2

  9
$UCSORG
 10
0.0
 20
0.0
 30
0.0
  9
$UCSXDIR
 10
1.0
 20
0.0
 30
0.0
  9
$UCSYDIR
 10
0.0
 20
1.0
 30
0.0
  9
$PUCSNAME
  2

  9
$PUCSORG
 10
0.0
 20
0.0
 30
0.0
  9
$PUCSXDIR
 10
1.0
 20
0.0
 30
0.0
  9
$PUCSYDIR
 10
0.0
 20
1.0
 30
0.0
  9
$USERI1
 70
     0
  9
$USERI2
 70
     0
  9
$USERI3
 70
     0
  9
$USERI4
 70
     0
  9
$USERI5
 70
     0
  9
$USERR1
 40
0.0
  9
$USERR2
 40
0.0
  9
$USERR3
 40
0.0
  9
$USERR4
 40
0.0
  9
$USERR5
 40
0.0
  9
$WORLDVIEW
 70
     1
  9
$SHADEDGE
 70
     3
  9
$SHADEDIF
 70
    70
  9
$TILEMODE
 70
     1
  9
$MAXACTVP
 70
    64
  9
$PLIMCHECK
 70
     0
  9
$PEXTMIN
 10
0.0
 20
0.0
 30
0.0
  9
$PEXTMAX
 10
0.0
 20
0.0
 30
0.0
  9
$PLIMMIN
 10
0.0
 20
0.0
  9
$PLIMMAX
 10
12.0
 20
9.0
  9
$UNITMODE
 70
     0
  9
$VISRETAIN
 70
     1
  9
$PLINEGEN
 70
     0
  9
$PSLTSCALE
 70
     1
  0
ENDSEC
  0
SECTION
  2
TABLES
  0
TABLE
  2
VPORT
 70
     1
  0
VPORT
  2
*ACTIVE
 70
     0
 10
0.0
 20
0.0
 11
1.0
 21
1.0
 12
2128.3040019326859
 22
1589.2035306281589
 13
0.0
 23
0.0
 14
0.5
 24
0.5
 15
0.5
 25
0.5
 16
0.0
 26
0.0
 36
1.0
 17
0.0
 27
0.0
 37
0.0
 40
124.33731636203581
 41
2.1408934707903771
 42
50.0
 43
0.0
 44
0.0
 50
0.0
 51
0.0
 71
     0
 72
  2000
 73
     1
 74
     3
 75
     0
 76
     0
 77
     0
 78
     0
  0
ENDTAB
  0
TABLE
  2
LTYPE
 70
     5
  0
LTYPE
  2
CONTINUOUS
 70
     0
  3
Solid line
 72
    65
 73
     0
 40
0.0
  0
LTYPE
  2
PHANTOM2
 70
     0
  3
Phantom (.5x) ___ _ _ ___ _ _ ___ _ _ ___ _ _
 72
    65
 73
     6
 40
1.25
 49
0.625
 49
-0.125
 49
0.125
 49
-0.125
 49
0.125
 49
-0.125
  0
LTYPE
  2
CENTER
 70
     0
  3
___ _ ___ _ ___ _ ___ _ ___ _ ___ _ ___ _ ___ _
 72
    65
 73
     4
 40
0.95
 49
0.625
 49
-0.125
 49
0.075
 49
-0.125
  0
LTYPE
  2
DASHED2
 70
     0
  3
Dashed (.5x) _ _ _ _ _ _ _ _ _ _ _ _ _ _ _ _ _
 72
    65
 73
     2
 40
0.375
 49
0.25
 49
-0.125
  0
ENDTAB
  0
TABLE
  2
LAYER
 70
     4
  0
LAYER
  2
0
 70
     0
 62
     7
  6
CONTINUOUS
  0
LAYER
  2
HIDE
 70
     0
 62
     1
  6
DASHED2
  0
LAYER
  2
CENTER
 70
     0
 62
     3
  6
CENTER
  0
ENDTAB
  0
TABLE
  2
STYLE
 70
     3
  0
STYLE
  2
STANDARD
 70
     0
 40
5.0
 41
1.0
 50
0.0
 71
     0
 42
5.0
  3
txt.shx
  4
whgtxt.shx
  0
STYLE
  2
BIG
 70
     0
 40
20.0
 41
1.0
 50
0.0
 71
     0
 42
2.5
  3
txt
  4

  0
ENDTAB
  0
TABLE
  2
VIEW
 70
     0
  0
ENDTAB
  0
TABLE
  2
UCS
 70
     0
  0
ENDTAB
  0
TABLE
  2
APPID
 70
    11
  0
APPID
  2
ACAD
 70
     0
  0
APPID
  2
ACADANNOTATIVE
 70
     0
  0
APPID
  2
ACAD_EXEMPT_FROM_CAD_STANDARDS
 70
     0
  0
APPID
  2
ACAD_DSTYLE_DIMJOGGED_JOGA
 70
     0
  0
APPID
  2
ACAD_PSEXT
 70
     0
  0
APPID
  2
ACAECLAYERSTANDARD
 70
     0
  0
APPID
  2
DCO15
 70
     0
  0
APPID
  2
CONTENTBLOCKICON
 70
     0
  0
APPID
  2
ACAD_NAV_VCDISPLAY
 70
     0
  0
APPID
  2
ACAD_DSTYLE_DIMRADIAL_EXTENSION
 70
     0
  0
APPID
  2
ACAD_MLEADERVER
 70
     0
  0
ENDTAB
  0
TABLE
  2
DIMSTYLE
 70
     4
  0
DIMSTYLE
  2
DUKITEC
 70
     0
  3

  4

  5

  6

  7

 40
1.0
 41
3.0
 42
1.0
 43
0.0
 44
1.0
 45
0.0
 46
0.0
 47
0.0
 48
0.0
140
3.0
141
0.0
142
0.0
143
25.399999999999999
144
1.0
145
0.0
146
1.0
147
1.0
 71
     0
 72
     0
 73
     0
 74
     0
 75
     0
 76
     0
 77
     1
 78
     8
170
     0
171
     2
172
     1
173
     0
174
     1
175
     0
176
     5
177
     5
178
     0
  0
ENDTAB
  0
ENDSEC
  0
SECTION
  2
BLOCKS
  0
BLOCK
  8
0
  2
$MODEL_SPACE
 70
     0
 10
0.0
 20
0.0
 30
0.0
  3
$MODEL_SPACE
  1

  0
ENDBLK
  5
14341
  8
0
  0
BLOCK
 67
     1
  8
0
  2
$PAPER_SPACE
 70
     0
 10
0.0
 20
0.0
 30
0.0
  3
$PAPER_SPACE
  1

  0
ENDBLK
  5
1433D
 67
     1
  8
0
  0
ENDSEC
  0
SECTION
  2
ENTITIES
  0
TEXT
  5
13FF0
  8
0
 10
2089.2700297769511
 20
1539.5509475021779
 30
0.0
 40
20.0
  1
FK8
  7
BIG
  0
ARC
  5
1409E
  8
HIDE
 10
2083.5625749357168
 20
1603.4506444458989
 30
0.0
 40
14.0
 50
270.0
 51
180.0
  0
ARC
  5
1409F
  8
CENTER
 10
2083.5625749357168
 20
1603.4506444458989
 30
0.0
 40
17.5
 50
165.60723000000689
 51
194.62935599999599
  0
ARC
  5
140A0
  8
CENTER
 10
2083.5625749357168
 20
1603.4506444458989
 30
0.0
 40
17.5
 50
75.016573000006574
 51
103.8333330000074
  0
ARC
  5
140A1
  8
CENTER
 10
2083.5625749357168
 20
1603.4506444458989
 30
0.0
 40
17.5
 50
347.03310999999002
 51
13.96929499999872
  0
ARC
  5
140A2
  8
CENTER
 10
2083.5625749357168
 20
1603.4506444458989
 30
0.0
 40
17.5
 50
256.14018500000731
 51
284.19133199999601
  0
CIRCLE
  5
140A9
  8
0
 10
2083.5625749357168
 20
1585.9506444458989
 30
0.0
 40
1.7
  0
CIRCLE
  5
140AA
  8
0
 10
2083.5625749357168
 20
1585.9506444458989
 30
0.0
 40
3.25
  0
CIRCLE
  5
140AB
  8
0
 10
2101.0625749357168
 20
1603.4506444458989
 30
0.0
 40
1.7
  0
CIRCLE
  5
140AC
  8
0
 10
2101.0625749357168
 20
1603.4506444458989
 30
0.0
 40
3.25
  0
CIRCLE
  5
140AD
  8
0
 10
2083.5625749357168
 20
1620.9506444458989
 30
0.0
 40
1.7
  0
CIRCLE
  5
140AE
  8
0
 10
2083.5625749357168
 20
1620.9506444458989
 30
0.0
 40
3.25
  0
CIRCLE
  5
140AF
  8
0
 10
2066.0625749357168
 20
1603.4506444458989
 30
0.0
 40
1.7
  0
CIRCLE
  5
140B0
  8
0
 10
2066.0625749357168
 20
1603.4506444458989
 30
0.0
 40
3.25
  0
LINE
  5
140B2
  8
0
 10
2086.509554627105
 20
1581.6489172047241
 30
0.0
 11
2105.3643018432122
 21
1600.503662285957
 31
0.0
  0
LINE
  5
140B3
  8
0
 10
2061.760857244733
 20
1606.397694788634
 30
0.0
 11
2080.6155258272638
 21
1625.2523623037271
 31
0.0
  0
LINE
  5
140B4
  8
0
 10
2061.7608520867561
 20
1600.503632261142
 30
0.0
 11
2080.6155639852359
 21
1581.6489214300971
 31
0.0
  0
LINE
  5
140B5
  8
0
 10
2086.5095940582819
 20
1625.252366357051
 30
0.0
 11
2105.3642970137112
 21
1606.397662334186
 31
0.0
  0
LINE
  5
140B6
  8
CENTER
 10
2073.562574935715
 20
1603.4506444458989
 30
0.0
 11
2093.5625749357168
 21
1603.4506444458989
 31
0.0
  0
LINE
  5
140B7
  8
0
 10
2085.1027769797752
 20
1595.0913515533471
 30
0.0
 11
2091.9218678282682
 21
1601.9104424018419
 31
0.0
  0
LINE
  5
140B8
  8
0
 10
2075.203282043165
 20
1604.9908464899579
 30
0.0
 11
2082.0223728916571
 21
1611.8099373384521
 31
0.0
  0
LINE
  5
140B9
  8
CENTER
 10
2083.5625749357168
 20
1613.450644445898
 30
0.0
 11
2083.5625749357168
 21
1593.4506444458989
 31
0.0
  0
LINE
  5
140BA
  8
0
 10
2085.102776979777
 20
1611.8099373384521
 30
0.0
 11
2091.92186782827
 21
1604.9908464899579
 31
0.0
  0
LINE
  5
140BB
  8
0
 10
2075.203282043165
 20
1601.9104424018351
 30
0.0
 11
2082.022372891653
 21
1595.0913515533471
 31
0.0
  0
ARC
  5
140BC
  8
0
 10
2083.5625749357168
 20
1603.4506444458989
 30
0.0
 40
8.5
 50
79.560321780045399
 51
100.4396782199546
  0
ARC
  5
140BD
  8
0
 10
2083.5625749357168
 20
1603.4506444458989
 30
0.0
 40
8.5
 50
169.5603217799918
 51
190.43967822000809
  0
ARC
  5
140BE
  8
0
 10
2083.5625749357168
 20
1603.4506444458989
 30
0.0
 40
8.5
 50
259.5603217800454
 51
280.4396782199546
  0
ARC
  5
140BF
  8
0
 10
2083.5625749357168
 20
1603.4506444458989
 30
0.0
 40
8.5
 50
349.56032177999191
 51
10.43967822000821
  0
ARC
  5
140C0
  8
HIDE
 10
2083.5625749357168
 20
1603.4506444458989
 30
0.0
 40
4.0
 50
270.0
 51
180.0
  0
CIRCLE
  5
140C1
  8
0
 10
2083.5625749357168
 20
1603.4506444458989
 30
0.0
 40
3.5
  0
LINE
  5
140C2
  8
HIDE
 10
2085.0625749357168
 20
1611.817244711239
 30
0.0
 11
2085.0625749357191
 21
1606.6129221060651
 31
0.0
  0
LINE
  5
140C3
  8
HIDE
 10
2084.8125749357168
 20
1611.8582303062981
 30
0.0
 11
2084.8125749357168
 21
1606.7198186535541
 31
0.0
  0
LINE
  5
140C4
  8
HIDE
 10
2082.0625749357191
 20
1611.817244711239
 30
0.0
 11
2082.06257493572
 21
1606.612922106068
 31
0.0
  0
LINE
  5
140C5
  8
HIDE
 10
2082.3125749357168
 20
1611.8582303062981
 30
0.0
 11
2082.3125749357168
 21
1606.7198186535529
 31
0.0
  0
LINE
  5
140C6
  8
HIDE
 10
2082.06257493572
 20
1608.4236695797349
 30
0.0
 11
2085.0625749357209
 21
1608.4236695797349
 31
0.0
  0
LINE
  5
140C7
  8
HIDE
 10
2082.06257493572
 20
1611.4236695797349
 30
0.0
 11
2085.0625749357209
 21
1611.4236695797349
 31
0.0
  0
LINE
  5
140C8
  8
HIDE
 10
2082.06257493572
 20
1608.423669579734
 30
0.0
 11
2082.3125749357168
 21
1608.2793320124381
 31
0.0
  0
LINE
  5
140C9
  8
HIDE
 10
2085.0625749357168
 20
1608.4236695797349
 30
0.0
 11
2084.8125749357168
 21
1608.2793320124381
 31
0.0
  0
LINE
  5
140CA
  8
HIDE
 10
2082.3125749357168
 20
1608.2793320124381
 30
0.0
 11
2084.8125749357168
 21
1608.2793320124381
 31
0.0
  0
LINE
  5
140CB
  8
CENTER
 10
2058.5625749357168
 20
1603.4506444458989
 30
0.0
 11
2108.5625749357168
 21
1603.4506444458989
 31
0.0
  0
LINE
  5
140CC
  8
CENTER
 10
2083.5625749357168
 20
1578.450644445898
 30
0.0
 11
2083.5625749357168
 21
1628.4506444458989
 31
0.0
  0
LINE
  5
140CF
  8
HIDE
 10
2143.0371637148678
 20
1589.2006444458989
 30
0.0
 11
2147.0371637148678
 21
1589.2006444458989
 31
0.0
  0
LINE
  5
140D0
  8
HIDE
 10
2147.0371637148678
 20
1587.650644445898
 30
0.0
 11
2152.0371637148678
 21
1587.650644445898
 31
0.0
  0
LINE
  5
140D1
  8
HIDE
 10
2143.0371637148678
 20
1582.7006444458989
 30
0.0
 11
2147.0371637148678
 21
1582.7006444458989
 31
0.0
  0
LINE
  5
140D2
  8
HIDE
 10
2147.0371637148678
 20
1584.2506444458991
 30
0.0
 11
2152.0371637148678
 21
1584.2506444458991
 31
0.0
  0
LINE
  5
140D3
  8
HIDE
 10
2147.0371637148678
 20
1582.7006444458989
 30
0.0
 11
2147.0371637148678
 21
1589.2006444458989
 31
0.0
  0
LINE
  5
140D4
  8
HIDE
 10
2162.0371637148678
 20
1599.450644445898
 30
0.0
 11
2169.5371637148678
 21
1599.450644445898
 31
0.0
  0
LINE
  5
140D5
  8
HIDE
 10
2162.0371637148678
 20
1607.450644445898
 30
0.0
 11
2169.5371637148678
 21
1607.450644445898
 31
0.0
  0
LINE
  5
140D6
  8
HIDE
 10
2147.0371637148678
 20
1617.700644445898
 30
0.0
 11
2147.0371637148678
 21
1624.200644445898
 31
0.0
  0
LINE
  5
140D7
  8
HIDE
 10
2147.0371637148678
 20
1619.2506444458991
 30
0.0
 11
2152.0371637148678
 21
1619.2506444458991
 31
0.0
  0
LINE
  5
140D8
  8
HIDE
 10
2143.0371637148678
 20
1617.700644445898
 30
0.0
 11
2147.0371637148678
 21
1617.700644445898
 31
0.0
  0
LINE
  5
140D9
  8
HIDE
 10
2147.0371637148678
 20
1622.650644445898
 30
0.0
 11
2152.0371637148678
 21
1622.650644445898
 31
0.0
  0
LINE
  5
140DA
  8
HIDE
 10
2143.0371637148678
 20
1624.200644445898
 30
0.0
 11
2147.0371637148678
 21
1624.200644445898
 31
0.0
  0
LINE
  5
140DB
  8
CENTER
 10
2141.7658527240569
 20
1585.9506444458989
 30
0.0
 11
2153.4292451619581
 21
1585.9506444458989
 31
0.0
  0
LINE
  5
140DC
  8
CENTER
 10
2141.7658527240569
 20
1620.9506444458989
 30
0.0
 11
2153.4292451619581
 21
1620.9506444458989
 31
0.0
  0
LINE
  5
140DD
  8
0
 10
2143.0371637148678
 20
1624.950644445898
 30
0.0
 11
2152.0371637148678
 21
1624.950644445898
 31
0.0
  0
LINE
  5
140DE
  8
0
 10
2143.0371637148678
 20
1581.9506444458989
 30
0.0
 11
2152.0371637148678
 21
1581.9506444458989
 31
0.0
  0
LINE
  5
140DF
  8
0
 10
2143.0371637148678
 20
1608.950644445898
 30
0.0
 11
2142.5371637148678
 21
1608.950644445898
 31
0.0
  0
LINE
  5
140E0
  8
0
 10
2143.0371637148678
 20
1597.9506444458989
 30
0.0
 11
2142.5371637148678
 21
1597.9506444458989
 31
0.0
  0
LINE
  5
140E1
  8
0
 10
2169.5371637148678
 20
1597.9506444458989
 30
0.0
 11
2166.0371637148678
 21
1597.9506444458989
 31
0.0
  0
LINE
  5
140E2
  8
0
 10
2169.5371637148678
 20
1608.950644445898
 30
0.0
 11
2166.0371637148678
 21
1608.950644445898
 31
0.0
  0
LINE
  5
140E3
  8
0
 10
2169.5371637148678
 20
1597.9506444458989
 30
0.0
 11
2169.5371637148678
 21
1608.950644445898
 31
0.0
  0
LINE
  5
140E4
  8
CENTER
 10
2132.8596422488608
 20
1603.4506444458989
 30
0.0
 11
2169.6935736396131
 21
1603.4506444458989
 31
0.0
  0
LINE
  5
140E5
  8
0
 10
2143.0371637148678
 20
1581.9506444458989
 30
0.0
 11
2143.0371637148678
 21
1624.950644445898
 31
0.0
  0
LINE
  5
140E6
  8
0
 10
2152.0371637148678
 20
1589.450644445898
 30
0.0
 11
2166.0371637148678
 21
1589.450644445898
 31
0.0
  0
LINE
  5
140E7
  8
0
 10
2152.0371637148678
 20
1617.4506444458989
 30
0.0
 11
2166.0371637148678
 21
1617.4506444458989
 31
0.0
  0
LINE
  5
140E8
  8
0
 10
2166.0371637148678
 20
1589.450644445898
 30
0.0
 11
2166.0371637148678
 21
1617.4506444458989
 31
0.0
  0
LINE
  5
140E9
  8
0
 10
2143.0371637148678
 20
1599.9080724458991
 30
0.0
 11
2152.0371637148678
 21
1599.9080724458991
 31
0.0
  0
LINE
  5
140EA
  8
0
 10
2143.0371637148678
 20
1606.9932474458981
 30
0.0
 11
2152.0371637148678
 21
1606.9932474458981
 31
0.0
  0
POINT
  5
140EB
  8
0
 10
2166.0371637148678
 20
1603.4506444458989
 30
0.0
  0
POINT
  5
140EC
  8
0
 10
2166.0371637148678
 20
1603.4506444458989
 30
0.0
  0
CIRCLE
  5
140ED
  8
HIDE
 10
2151.5371637148678
 20
1595.4506444458989
 30
0.0
 40
2.399999999999999
  0
CIRCLE
  5
140EE
  8
HIDE
 10
2151.5371637148678
 20
1611.450644445898
 30
0.0
 40
2.399999999999999
  0
ARC
  5
140EF
  8
HIDE
 10
2154.7371637148681
 20
1607.7506444458991
 30
0.0
 40
0.2999999999999998
 50
270.0
 51
0.0
  0
ARC
  5
140F0
  8
HIDE
 10
2154.7371637148681
 20
1599.1506444458989
 30
0.0
 40
0.2999999999999998
 50
0.0
 51
90.0
  0
LINE
  5
140F1
  8
HIDE
 10
2148.0371637148678
 20
1609.4606444458991
 30
0.0
 11
2150.1955601966852
 21
1609.4606444458991
 31
0.0
  0
LINE
  5
140F2
  8
HIDE
 10
2152.8787672330509
 20
1609.4606444458991
 30
0.0
 11
2155.0371637148678
 21
1609.4606444458991
 31
0.0
  0
LINE
  5
140F3
  8
HIDE
 10
2155.0371637148678
 20
1597.4406444458989
 30
0.0
 11
2152.8787672330509
 21
1597.4406444458989
 31
0.0
  0
LINE
  5
140F4
  8
HIDE
 10
2150.1955601966852
 20
1597.4406444458989
 30
0.0
 11
2148.0371637148678
 21
1597.4406444458989
 31
0.0
  0
ARC
  5
140F5
  8
HIDE
 10
2148.337163714868
 20
1607.7506444458991
 30
0.0
 40
0.3
 50
180.0
 51
270.0
  0
LINE
  5
140F6
  8
HIDE
 10
2148.0371637148678
 20
1607.7506444458991
 30
0.0
 11
2148.0371637148678
 21
1603.4506444458989
 31
0.0
  0
LINE
  5
140F7
  8
HIDE
 10
2148.0371637148678
 20
1599.1506444458989
 30
0.0
 11
2148.0371637148678
 21
1603.4506444458989
 31
0.0
  0
ARC
  5
140F8
  8
HIDE
 10
2148.337163714868
 20
1599.1506444458989
 30
0.0
 40
0.2999999999999998
 50
90.0
 51
180.0
  0
LINE
  5
140F9
  8
HIDE
 10
2148.0371637148678
 20
1597.4406444458989
 30
0.0
 11
2148.0371637148678
 21
1599.1506444458989
 31
0.0
  0
LINE
  5
140FA
  8
HIDE
 10
2148.337163714868
 20
1599.450644445898
 30
0.0
 11
2154.7371637148681
 21
1599.450644445898
 31
0.0
  0
LINE
  5
140FB
  8
HIDE
 10
2148.337163714868
 20
1607.450644445898
 30
0.0
 11
2154.7371637148681
 21
1607.450644445898
 31
0.0
  0
LINE
  5
140FC
  8
HIDE
 10
2148.0371637148678
 20
1609.4606444458991
 30
0.0
 11
2148.0371637148678
 21
1607.7506444458991
 31
0.0
  0
LINE
  5
140FD
  8
HIDE
 10
2155.0371637148678
 20
1607.7506444458991
 30
0.0
 11
2155.0371637148678
 21
1603.4506444458989
 31
0.0
  0
LINE
  5
140FE
  8
HIDE
 10
2155.0371637148678
 20
1599.1506444458989
 30
0.0
 11
2155.0371637148678
 21
1603.4506444458989
 31
0.0
  0
LINE
  5
140FF
  8
HIDE
 10
2155.0371637148678
 20
1599.1506444458989
 30
0.0
 11
2155.0371637148678
 21
1597.4406444458989
 31
0.0
  0
LINE
  5
14100
  8
HIDE
 10
2155.0371637148678
 20
1609.4606444458991
 30
0.0
 11
2155.0371637148678
 21
1607.7506444458991
 31
0.0
  0
LINE
  5
14101
  8
HIDE
 10
2148.0371637148678
 20
1597.4406444458989
 30
0.0
 11
2148.0371637148678
 21
1593.9506444458989
 31
0.0
  0
LINE
  5
14102
  8
HIDE
 10
2155.0371637148678
 20
1592.7006444458989
 30
0.0
 11
2155.0371637148678
 21
1597.4406444458989
 31
0.0
  0
LINE
  5
14103
  8
HIDE
 10
2151.5371637148678
 20
1593.0506444458979
 30
0.0
 11
2155.0371637148678
 21
1592.7006444458989
 31
0.0
  0
LINE
  5
14104
  8
HIDE
 10
2148.337163714868
 20
1591.450644445898
 30
0.0
 11
2154.7371637148681
 21
1591.450644445898
 31
0.0
  0
LINE
  5
14105
  8
HIDE
 10
2149.6636643153479
 20
1593.9506444458989
 30
0.0
 11
2148.0371637148678
 21
1593.9506444458989
 31
0.0
  0
ARC
  5
14106
  8
HIDE
 10
2148.337163714868
 20
1591.7506444458991
 30
0.0
 40
0.3000000000000043
 50
180.0
 51
270.0
  0
LINE
  5
14107
  8
HIDE
 10
2148.0371637148678
 20
1593.9506444458989
 30
0.0
 11
2148.0371637148678
 21
1591.7506444458991
 31
0.0
  0
ARC
  5
14108
  8
HIDE
 10
2154.7371637148681
 20
1591.7506444458991
 30
0.0
 40
0.3000000000001339
 50
270.0
 51
0.0
  0
LINE
  5
14109
  8
HIDE
 10
2155.0371637148678
 20
1591.7506444458991
 30
0.0
 11
2155.0371637148678
 21
1592.7006444458989
 31
0.0
  0
LINE
  5
1410A
  8
HIDE
 10
2148.0371637148678
 20
1612.950644445898
 30
0.0
 11
2148.0371637148678
 21
1615.1506444458989
 31
0.0
  0
LINE
  5
1410B
  8
HIDE
 10
2155.0371637148678
 20
1615.1506444458989
 30
0.0
 11
2155.0371637148678
 21
1614.200644445898
 31
0.0
  0
LINE
  5
1410C
  8
HIDE
 10
2155.0371637148678
 20
1614.200644445898
 30
0.0
 11
2155.0371637148678
 21
1609.4606444458991
 31
0.0
  0
LINE
  5
1410D
  8
HIDE
 10
2148.0371637148678
 20
1609.4606444458991
 30
0.0
 11
2148.0371637148678
 21
1612.950644445898
 31
0.0
  0
LINE
  5
1410E
  8
HIDE
 10
2151.5371637148678
 20
1613.8506444458981
 30
0.0
 11
2155.0371637148678
 21
1614.200644445898
 31
0.0
  0
LINE
  5
1410F
  8
HIDE
 10
2149.6636643153479
 20
1612.950644445898
 30
0.0
 11
2148.0371637148678
 21
1612.950644445898
 31
0.0
  0
LINE
  5
14110
  8
HIDE
 10
2148.337163714868
 20
1615.4506444458989
 30
0.0
 11
2154.7371637148681
 21
1615.4506444458989
 31
0.0
  0
ARC
  5
14111
  8
HIDE
 10
2148.337163714868
 20
1615.1506444458989
 30
0.0
 40
0.2999999999999971
 50
90.0
 51
180.0
  0
ARC
  5
14112
  8
HIDE
 10
2154.7371637148681
 20
1615.1506444458989
 30
0.0
 40
0.2999999999999634
 50
0.0
 51
90.0
  0
CIRCLE
  5
14113
  8
HIDE
 10
2158.5371637148678
 20
1595.4506444458989
 30
0.0
 40
2.399999999999999
  0
CIRCLE
  5
14114
  8
HIDE
 10
2158.5371637148678
 20
1611.450644445898
 30
0.0
 40
2.399999999999999
  0
ARC
  5
14115
  8
HIDE
 10
2155.337163714868
 20
1607.7506444458991
 30
0.0
 40
0.2999999999999998
 50
180.0
 51
270.0
  0
ARC
  5
14116
  8
HIDE
 10
2155.337163714868
 20
1599.1506444458989
 30
0.0
 40
0.2999999999999998
 50
90.0
 51
180.0
  0
LINE
  5
14117
  8
HIDE
 10
2162.0371637148678
 20
1609.4606444458991
 30
0.0
 11
2159.8787672330509
 21
1609.4606444458991
 31
0.0
  0
LINE
  5
14118
  8
HIDE
 10
2157.1955601966852
 20
1609.4606444458991
 30
0.0
 11
2155.0371637148678
 21
1609.4606444458991
 31
0.0
  0
LINE
  5
14119
  8
HIDE
 10
2155.0371637148678
 20
1597.4406444458989
 30
0.0
 11
2157.1955601966852
 21
1597.4406444458989
 31
0.0
  0
LINE
  5
1411A
  8
HIDE
 10
2159.8787672330509
 20
1597.4406444458989
 30
0.0
 11
2162.0371637148678
 21
1597.4406444458989
 31
0.0
  0
ARC
  5
1411B
  8
HIDE
 10
2161.7371637148672
 20
1607.7506444458991
 30
0.0
 40
0.3
 50
270.0
 51
0.0
  0
LINE
  5
1411C
  8
HIDE
 10
2162.0371637148678
 20
1607.7506444458991
 30
0.0
 11
2162.0371637148678
 21
1603.4506444458989
 31
0.0
  0
LINE
  5
1411D
  8
HIDE
 10
2162.0371637148678
 20
1599.1506444458989
 30
0.0
 11
2162.0371637148678
 21
1603.4506444458989
 31
0.0
  0
ARC
  5
1411E
  8
HIDE
 10
2161.7371637148672
 20
1599.1506444458989
 30
0.0
 40
0.2999999999999998
 50
0.0
 51
90.0
  0
LINE
  5
1411F
  8
HIDE
 10
2162.0371637148678
 20
1597.4406444458989
 30
0.0
 11
2162.0371637148678
 21
1599.1506444458989
 31
0.0
  0
LINE
  5
14120
  8
HIDE
 10
2161.7371637148672
 20
1599.450644445898
 30
0.0
 11
2155.337163714868
 21
1599.450644445898
 31
0.0
  0
LINE
  5
14121
  8
HIDE
 10
2161.7371637148672
 20
1607.450644445898
 30
0.0
 11
2155.337163714868
 21
1607.450644445898
 31
0.0
  0
LINE
  5
14122
  8
HIDE
 10
2162.0371637148678
 20
1609.4606444458991
 30
0.0
 11
2162.0371637148678
 21
1607.7506444458991
 31
0.0
  0
LINE
  5
14123
  8
HIDE
 10
2155.0371637148678
 20
1607.7506444458991
 30
0.0
 11
2155.0371637148678
 21
1603.4506444458989
 31
0.0
  0
LINE
  5
14124
  8
HIDE
 10
2155.0371637148678
 20
1599.1506444458989
 30
0.0
 11
2155.0371637148678
 21
1603.4506444458989
 31
0.0
  0
LINE
  5
14125
  8
HIDE
 10
2155.0371637148678
 20
1599.1506444458989
 30
0.0
 11
2155.0371637148678
 21
1597.4406444458989
 31
0.0
  0
LINE
  5
14126
  8
HIDE
 10
2155.0371637148678
 20
1609.4606444458991
 30
0.0
 11
2155.0371637148678
 21
1607.7506444458991
 31
0.0
  0
LINE
  5
14127
  8
HIDE
 10
2162.0371637148678
 20
1597.4406444458989
 30
0.0
 11
2162.0371637148678
 21
1593.9506444458989
 31
0.0
  0
LINE
  5
14128
  8
HIDE
 10
2155.0371637148678
 20
1592.7006444458989
 30
0.0
 11
2155.0371637148678
 21
1597.4406444458989
 31
0.0
  0
LINE
  5
14129
  8
HIDE
 10
2158.5371637148678
 20
1593.0506444458979
 30
0.0
 11
2155.0371637148678
 21
1592.7006444458989
 31
0.0
  0
LINE
  5
1412A
  8
HIDE
 10
2161.7371637148672
 20
1591.450644445898
 30
0.0
 11
2155.337163714868
 21
1591.450644445898
 31
0.0
  0
LINE
  5
1412B
  8
HIDE
 10
2160.4106631143882
 20
1593.9506444458989
 30
0.0
 11
2162.0371637148678
 21
1593.9506444458989
 31
0.0
  0
ARC
  5
1412C
  8
HIDE
 10
2161.7371637148672
 20
1591.7506444458991
 30
0.0
 40
0.3000000000000043
 50
270.0
 51
0.0
  0
LINE
  5
1412D
  8
HIDE
 10
2162.0371637148678
 20
1593.9506444458989
 30
0.0
 11
2162.0371637148678
 21
1591.7506444458991
 31
0.0
  0
ARC
  5
1412E
  8
HIDE
 10
2155.337163714868
 20
1591.7506444458991
 30
0.0
 40
0.3000000000001339
 50
180.0
 51
270.0
  0
LINE
  5
1412F
  8
HIDE
 10
2155.0371637148678
 20
1591.7506444458991
 30
0.0
 11
2155.0371637148678
 21
1592.7006444458989
 31
0.0
  0
LINE
  5
14130
  8
HIDE
 10
2162.0371637148678
 20
1612.950644445898
 30
0.0
 11
2162.0371637148678
 21
1615.1506444458989
 31
0.0
  0
LINE
  5
14131
  8
HIDE
 10
2155.0371637148678
 20
1615.1506444458989
 30
0.0
 11
2155.0371637148678
 21
1614.200644445898
 31
0.0
  0
LINE
  5
14132
  8
HIDE
 10
2155.0371637148678
 20
1614.200644445898
 30
0.0
 11
2155.0371637148678
 21
1609.4606444458991
 31
0.0
  0
LINE
  5
14133
  8
HIDE
 10
2162.0371637148678
 20
1609.4606444458991
 30
0.0
 11
2162.0371637148678
 21
1612.950644445898
 31
0.0
  0
LINE
  5
14134
  8
HIDE
 10
2158.5371637148678
 20
1613.8506444458981
 30
0.0
 11
2155.0371637148678
 21
1614.200644445898
 31
0.0
  0
LINE
  5
14135
  8
HIDE
 10
2160.4106631143882
 20
1612.950644445898
 30
0.0
 11
2162.0371637148678
 21
1612.950644445898
 31
0.0
  0
LINE
  5
14136
  8
HIDE
 10
2161.7371637148672
 20
1615.4506444458989
 30
0.0
 11
2155.337163714868
 21
1615.4506444458989
 31
0.0
  0
ARC
  5
14137
  8
HIDE
 10
2161.7371637148672
 20
1615.1506444458989
 30
0.0
 40
0.2999999999999971
 50
0.0
 51
90.0
  0
ARC
  5
14138
  8
HIDE
 10
2155.337163714868
 20
1615.1506444458989
 30
0.0
 40
0.2999999999999634
 50
90.0
 51
180.0
  0
LINE
  5
14139
  8
0
 10
2152.0371637148678
 20
1624.950644445898
 30
0.0
 11
2152.0371637148678
 21
1581.9506444458989
 31
0.0
  0
LINE
  5
1413A
  8
HIDE
 10
2166.0371637148678
 20
1608.950644445898
 30
0.0
 11
2162.0371637148678
 21
1608.950644445898
 31
0.0
  0
LINE
  5
1413B
  8
HIDE
 10
2166.0371637148678
 20
1597.9506444458989
 30
0.0
 11
2162.0371637148678
 21
1597.9506444458989
 31
0.0
  0
LINE
  5
1413C
  8
HIDE
 10
2142.5371637148678
 20
1599.450644445898
 30
0.0
 11
2148.0371637148678
 21
1599.450644445898
 31
0.0
  0
LINE
  5
1413D
  8
HIDE
 10
2142.5371637148678
 20
1607.450644445898
 30
0.0
 11
2148.0371637148678
 21
1607.450644445898
 31
0.0
  0
LINE
  5
1413E
  8
HIDE
 10
2143.0371637148678
 20
1608.950644445898
 30
0.0
 11
2148.0371637148678
 21
1608.950644445898
 31
0.0
  0
LINE
  5
1413F
  8
HIDE
 10
2143.0371637148678
 20
1597.9506444458989
 30
0.0
 11
2148.0371637148678
 21
1597.9506444458989
 31
0.0
  0
LINE
  5
14140
  8
CENTER
 10
2144.170928955446
 20
1603.4506444458989
 30
0.0
 11
2133.5473724903168
 21
1603.4506444458989
 31
0.0
  0
LINE
  5
14141
  8
0
 10
2136.0371637148678
 20
1611.9506444458989
 30
0.0
 11
2136.0371637148701
 21
1603.4506444458989
 31
0.0
  0
LINE
  5
14142
  8
0
 10
2142.5371637148678
 20
1609.950644445898
 30
0.0
 11
2142.5371637148678
 21
1603.4506444458989
 31
0.0
  0
LINE
  5
14143
  8
CENTER
 10
2139.0371637148678
 20
1612.716279135293
 30
0.0
 11
2139.0371637148678
 21
1606.5420715692021
 31
0.0
  0
LINE
  5
14144
  8
0
 10
2142.0371637148678
 20
1611.9506444458989
 30
0.0
 11
2142.0371637148678
 21
1603.4506444458989
 31
0.0
  0
LINE
  5
14145
  8
0
 10
2142.0371637148678
 20
1611.9506444458989
 30
0.0
 11
2136.0371637148678
 21
1611.9506444458989
 31
0.0
  0
LINE
  5
14146
  8
0
 10
2142.5371637148678
 20
1609.9506444458989
 30
0.0
 11
2142.0371637148678
 21
1610.239319580493
 31
0.0
  0
LINE
  5
14147
  8
0
 10
2142.0371637148678
 20
1604.9908464899549
 30
0.0
 11
2136.0371637148701
 21
1604.9908464899549
 31
0.0
  0
LINE
  5
14148
  8
HIDE
 10
2142.5371637148678
 20
1606.9506444458959
 30
0.0
 11
2136.0371637148701
 21
1606.9506444458941
 31
0.0
  0
LINE
  5
14149
  8
HIDE
 10
2142.5371637148678
 20
1607.450644445895
 30
0.0
 11
2136.0371637148701
 21
1607.4506444458941
 31
0.0
  0
LINE
  5
1414A
  8
0
 10
2136.0371637148678
 20
1594.9506444458989
 30
0.0
 11
2136.0371637148701
 21
1603.4506444458989
 31
0.0
  0
LINE
  5
1414B
  8
0
 10
2142.5371637148678
 20
1596.9506444459
 30
0.0
 11
2142.5371637148678
 21
1603.4506444458989
 31
0.0
  0
LINE
  5
1414C
  8
0
 10
2142.0371637148678
 20
1594.9506444458989
 30
0.0
 11
2142.0371637148678
 21
1603.4506444458989
 31
0.0
  0
LINE
  5
1414D
  8
0
 10
2142.0371637148678
 20
1594.9506444458989
 30
0.0
 11
2136.0371637148678
 21
1594.9506444458989
 31
0.0
  0
LINE
  5
1414E
  8
0
 10
2142.5371637148678
 20
1596.9506444458989
 30
0.0
 11
2142.0371637148678
 21
1596.6619693113039
 31
0.0
  0
LINE
  5
1414F
  8
0
 10
2142.0371637148678
 20
1601.910442401841
 30
0.0
 11
2136.0371637148701
 21
1601.9104424018419
 31
0.0
  0
LINE
  5
14150
  8
HIDE
 10
2142.5371637148678
 20
1599.9506444459009
 30
0.0
 11
2136.0371637148701
 21
1599.950644445903
 31
0.0
  0
LINE
  5
14151
  8
HIDE
 10
2142.5371637148678
 20
1599.4506444459009
 30
0.0
 11
2136.0371637148701
 21
1599.450644445903
 31
0.0
  0
LINE
  5
14152
  8
HIDE
 10
2137.5371637148678
 20
1611.9506444458989
 30
0.0
 11
2137.537163714866
 21
1606.9506444458941
 31
0.0
  0
LINE
  5
14153
  8
HIDE
 10
2137.7871637148678
 20
1611.9506444458989
 30
0.0
 11
2137.7871637148678
 21
1606.9506444458941
 31
0.0
  0
LINE
  5
14154
  8
HIDE
 10
2140.537163714866
 20
1611.9506444458989
 30
0.0
 11
2140.5371637148642
 21
1606.9506444458959
 31
0.0
  0
LINE
  5
14155
  8
HIDE
 10
2140.2871637148678
 20
1611.9506444458989
 30
0.0
 11
2140.2871637148678
 21
1606.9506444458959
 31
0.0
  0
LINE
  5
14156
  8
HIDE
 10
2140.5371637148642
 20
1608.4236695797349
 30
0.0
 11
2137.5371637148642
 21
1608.4236695797349
 31
0.0
  0
LINE
  5
14157
  8
HIDE
 10
2140.5371637148642
 20
1611.4236695797349
 30
0.0
 11
2137.5371637148642
 21
1611.4236695797349
 31
0.0
  0
LINE
  5
14158
  8
HIDE
 10
2140.5371637148642
 20
1608.423669579734
 30
0.0
 11
2140.2871637148678
 21
1608.2793320124381
 31
0.0
  0
LINE
  5
14159
  8
HIDE
 10
2137.5371637148678
 20
1608.4236695797349
 30
0.0
 11
2137.7871637148678
 21
1608.2793320124381
 31
0.0
  0
LINE
  5
1415A
  8
HIDE
 10
2140.2871637148678
 20
1608.2793320124381
 30
0.0
 11
2137.7871637148678
 21
1608.2793320124381
 31
0.0
  0
CIRCLE
  5
1416D
  8
0
 10
2083.5625749357168
 20
1603.4506444458989
 30
0.0
 40
13.5
  0
ARC
  5
1436E
  8
0
 10
2083.5625749357168
 20
1603.450644445898
 30
0.0
 40
22.0
 50
262.30180054885989
 51
277.69811730103021
  0
ARC
  5
1436F
  8
0
 10
2083.5625749357168
 20
1603.450644445898
 30
0.0
 40
22.0
 50
352.30187621151663
 51
7.698217683967739
  0
ARC
  5
14372
  8
0
 10
2083.5625749357168
 20
1603.450644445898
 30
0.0
 40
22.0
 50
82.301779072301969
 51
97.698299731791636
  0
ARC
  5
14373
  8
0
 10
2083.5625749357168
 20
1603.450644445898
 30
0.0
 40
22.0
 50
172.30169702446489
 51
187.69820269486141
  0
ENDSEC
  0
EOF
