  0
SECTION
  2
HEADER
  9
$ACADVER
  1
AC1009
  9
$INSBASE
 10
0.0
 20
0.0
 30
0.0
  9
$EXTMIN
 10
1903.0405749290021
 20
1433.173578249188
 30
0.0
  9
$EXTMAX
 10
2348.540574929003
 20
1748.173578249188
 30
0.0
  9
$LIMMIN
 10
0.0
 20
0.0
  9
$LIMMAX
 10
12.0
 20
9.0
  9
$ORTHOMODE
 70
     1
  9
$REGENMODE
 70
     1
  9
$FILLMODE
 70
     1
  9
$QTEXTMODE
 70
     0
  9
$MIRRTEXT
 70
     0
  9
$DRAGMODE
 70
     2
  9
$LTSCALE
 40
5.0
  9
$OSMODE
 70
  2239
  9
$ATTMODE
 70
     1
  9
$TEXTSIZE
 40
2.5
  9
$TRACEWID
 40
0.05
  9
$TEXTSTYLE
  7
BIG
  9
$CLAYER
  8
0
  9
$CELTYPE
  6
BYLAYER
  9
$CECOLOR
 62
   256
  9
$DIMSCALE
 40
1.0
  9
$DIMASZ
 40
3.0
  9
$DIMEXO
 40
1.0
  9
$DIMDLI
 40
0.0
  9
$DIMRND
 40
0.0
  9
$DIMDLE
 40
0.0
  9
$DIMEXE
 40
1.0
  9
$DIMTP
 40
0.0
  9
$DIMTM
 40
0.0
  9
$DIMTXT
 40
3.0
  9
$DIMCEN
 40
0.0
  9
$DIMTSZ
 40
0.0
  9
$DIMTOL
 70
     0
  9
$DIMLIM
 70
     0
  9
$DIMTIH
 70
     0
  9
$DIMTOH
 70
     0
  9
$DIMSE1
 70
     0
  9
$DIMSE2
 70
     0
  9
$DIMTAD
 70
     1
  9
$DIMZIN
 70
     8
  9
$DIMBLK
  1

  9
$DIMASO
 70
     1
  9
$DIMSHO
 70
     1
  9
$DIMPOST
  1

  9
$DIMAPOST
  1

  9
$DIMALT
 70
     0
  9
$DIMALTD
 70
     2
  9
$DIMALTF
 40
25.399999999999999
  9
$DIMLFAC
 40
1.0
  9
$DIMTOFL
 70
     1
  9
$DIMTVP
 40
0.0
  9
$DIMTIX
 70
     1
  9
$DIMSOXD
 70
     0
  9
$DIMSAH
 70
     0
  9
$DIMBLK1
  1

  9
$DIMBLK2
  1

  9
$DIMSTYLE
  2
DUKITEC
  9
$DIMCLRD
 70
     5
  9
$DIMCLRE
 70
     5
  9
$DIMCLRT
 70
     0
  9
$DIMTFAC
 40
1.0
  9
$DIMGAP
 40
1.0
  9
$LUNITS
 70
     2
  9
$LUPREC
 70
     4
  9
$SKETCHINC
 40
0.1
  9
$FILLETRAD
 40
0.2
  9
$AUNITS
 70
     0
  9
$AUPREC
 70
     0
  9
$MENU
  1
.
  9
$ELEVATION
 40
0.0
  9
$PELEVATION
 40
0.0
  9
$THICKNESS
 40
0.0
  9
$LIMCHECK
 70
     0
  9
$BLIPMODE
 70
     0
  9
$CHAMFERA
 40
0.5
  9
$CHAMFERB
 40
0.5
  9
$SKPOLY
 70
     0
  9
$TDCREATE
 40
2454396.7395431828
  9
$TDUPDATE
 40
2456631.3816652428
  9
$TDINDWG
 40
0.0038271991
  9
$TDUSRTIMER
 40
0.0038270139
  9
$USRTIMER
 70
     1
  9
$ANGBASE
 50
0.0
  9
$ANGDIR
 70
     0
  9
$PDMODE
 70
     0
  9
$PDSIZE
 40
0.0
  9
$PLINEWID
 40
0.0
  9
$COORDS
 70
     1
  9
$SPLFRAME
 70
     0
  9
$SPLINETYPE
 70
     6
  9
$SPLINESEGS
 70
     8
  9
$ATTDIA
 70
     0
  9
$ATTREQ
 70
     1
  9
$HANDLING
 70
     1
  9
$HANDSEED
  5
1425B
  9
$SURFTAB1
 70
     6
  9
$SURFTAB2
 70
     6
  9
$SURFTYPE
 70
     6
  9
$SURFU
 70
     6
  9
$SURFV
 70
     6
  9
$UCSNAME
  2

  9
$UCSORG
 10
0.0
 20
0.0
 30
0.0
  9
$UCSXDIR
 10
1.0
 20
0.0
 30
0.0
  9
$UCSYDIR
 10
0.0
 20
1.0
 30
0.0
  9
$PUCSNAME
  2

  9
$PUCSORG
 10
0.0
 20
0.0
 30
0.0
  9
$PUCSXDIR
 10
1.0
 20
0.0
 30
0.0
  9
$PUCSYDIR
 10
0.0
 20
1.0
 30
0.0
  9
$USERI1
 70
     0
  9
$USERI2
 70
     0
  9
$USERI3
 70
     0
  9
$USERI4
 70
     0
  9
$USERI5
 70
     0
  9
$USERR1
 40
0.0
  9
$USERR2
 40
0.0
  9
$USERR3
 40
0.0
  9
$USERR4
 40
0.0
  9
$USERR5
 40
0.0
  9
$WORLDVIEW
 70
     1
  9
$SHADEDGE
 70
     3
  9
$SHADEDIF
 70
    70
  9
$TILEMODE
 70
     1
  9
$MAXACTVP
 70
    64
  9
$PLIMCHECK
 70
     0
  9
$PEXTMIN
 10
0.0
 20
0.0
 30
0.0
  9
$PEXTMAX
 10
0.0
 20
0.0
 30
0.0
  9
$PLIMMIN
 10
0.0
 20
0.0
  9
$PLIMMAX
 10
12.0
 20
9.0
  9
$UNITMODE
 70
     0
  9
$VISRETAIN
 70
     1
  9
$PLINEGEN
 70
     0
  9
$PSLTSCALE
 70
     1
  0
ENDSEC
  0
SECTION
  2
TABLES
  0
TABLE
  2
VPORT
 70
     1
  0
VPORT
  2
*ACTIVE
 70
     0
 10
0.0
 20
0.0
 11
1.0
 21
1.0
 12
2137.299923710028
 22
1582.771226222168
 13
0.0
 23
0.0
 14
0.5
 24
0.5
 15
0.5
 25
0.5
 16
0.0
 26
0.0
 36
1.0
 17
0.0
 27
0.0
 37
0.0
 40
142.30699148679241
 41
2.1408934707903771
 42
50.0
 43
0.0
 44
0.0
 50
0.0
 51
0.0
 71
     0
 72
  2000
 73
     1
 74
     3
 75
     0
 76
     0
 77
     0
 78
     0
  0
ENDTAB
  0
TABLE
  2
LTYPE
 70
     5
  0
LTYPE
  2
CONTINUOUS
 70
     0
  3
Solid line
 72
    65
 73
     0
 40
0.0
  0
LTYPE
  2
PHANTOM2
 70
     0
  3
Phantom (.5x) ___ _ _ ___ _ _ ___ _ _ ___ _ _
 72
    65
 73
     6
 40
1.25
 49
0.625
 49
-0.125
 49
0.125
 49
-0.125
 49
0.125
 49
-0.125
  0
LTYPE
  2
CENTER
 70
     0
  3
___ _ ___ _ ___ _ ___ _ ___ _ ___ _ ___ _ ___ _
 72
    65
 73
     4
 40
0.95
 49
0.625
 49
-0.125
 49
0.075
 49
-0.125
  0
LTYPE
  2
DASHED2
 70
     0
  3
Dashed (.5x) _ _ _ _ _ _ _ _ _ _ _ _ _ _ _ _ _
 72
    65
 73
     2
 40
0.375
 49
0.25
 49
-0.125
  0
ENDTAB
  0
TABLE
  2
LAYER
 70
     4
  0
LAYER
  2
0
 70
     0
 62
     7
  6
CONTINUOUS
  0
LAYER
  2
HIDE
 70
     0
 62
     1
  6
DASHED2
  0
LAYER
  2
CENTER
 70
     0
 62
     3
  6
CENTER
  0
ENDTAB
  0
TABLE
  2
STYLE
 70
     3
  0
STYLE
  2
STANDARD
 70
     0
 40
5.0
 41
1.0
 50
0.0
 71
     0
 42
5.0
  3
txt.shx
  4
whgtxt.shx
  0
STYLE
  2
BIG
 70
     0
 40
20.0
 41
1.0
 50
0.0
 71
     0
 42
2.5
  3
txt
  4

  0
ENDTAB
  0
TABLE
  2
VIEW
 70
     0
  0
ENDTAB
  0
TABLE
  2
UCS
 70
     0
  0
ENDTAB
  0
TABLE
  2
APPID
 70
    11
  0
APPID
  2
ACAD
 70
     0
  0
APPID
  2
ACADANNOTATIVE
 70
     0
  0
APPID
  2
ACAD_EXEMPT_FROM_CAD_STANDARDS
 70
     0
  0
APPID
  2
ACAD_DSTYLE_DIMJOGGED_JOGA
 70
     0
  0
APPID
  2
ACAD_PSEXT
 70
     0
  0
APPID
  2
ACAECLAYERSTANDARD
 70
     0
  0
APPID
  2
DCO15
 70
     0
  0
APPID
  2
CONTENTBLOCKICON
 70
     0
  0
APPID
  2
ACAD_DSTYLE_DIMRADIAL_EXTENSION
 70
     0
  0
APPID
  2
ACAD_NAV_VCDISPLAY
 70
     0
  0
APPID
  2
ACAD_MLEADERVER
 70
     0
  0
ENDTAB
  0
TABLE
  2
DIMSTYLE
 70
     4
  0
DIMSTYLE
  2
DUKITEC
 70
     0
  3

  4

  5

  6

  7

 40
1.0
 41
3.0
 42
1.0
 43
0.0
 44
1.0
 45
0.0
 46
0.0
 47
0.0
 48
0.0
140
3.0
141
0.0
142
0.0
143
25.399999999999999
144
1.0
145
0.0
146
1.0
147
1.0
 71
     0
 72
     0
 73
     0
 74
     0
 75
     0
 76
     0
 77
     1
 78
     8
170
     0
171
     2
172
     1
173
     0
174
     1
175
     0
176
     5
177
     5
178
     0
  0
ENDTAB
  0
ENDSEC
  0
SECTION
  2
BLOCKS
  0
BLOCK
  8
0
  2
$MODEL_SPACE
 70
     0
 10
0.0
 20
0.0
 30
0.0
  3
$MODEL_SPACE
  1

  0
ENDBLK
  5
14080
  8
0
  0
BLOCK
 67
     1
  8
0
  2
$PAPER_SPACE
 70
     0
 10
0.0
 20
0.0
 30
0.0
  3
$PAPER_SPACE
  1

  0
ENDBLK
  5
1407C
 67
     1
  8
0
  0
ENDSEC
  0
SECTION
  2
ENTITIES
  0
TEXT
  5
13FEE
  8
0
 10
2068.3389525195821
 20
1534.6678680992511
 30
0.0
 40
20.0
  1
FK8 P5
  7
BIG
  0
LINE
  5
1409C
  8
HIDE
 10
2134.732157226184
 20
1590.8049399821639
 30
0.0
 11
2138.732157226184
 21
1590.8049399821639
 31
0.0
  0
LINE
  5
1409D
  8
HIDE
 10
2138.732157226184
 20
1589.2549399821639
 30
0.0
 11
2143.732157226184
 21
1589.2549399821639
 31
0.0
  0
LINE
  5
1409E
  8
HIDE
 10
2134.732157226184
 20
1584.3049399821639
 30
0.0
 11
2138.732157226184
 21
1584.3049399821639
 31
0.0
  0
LINE
  5
1409F
  8
HIDE
 10
2138.732157226184
 20
1585.8549399821641
 30
0.0
 11
2143.732157226184
 21
1585.8549399821641
 31
0.0
  0
LINE
  5
140A0
  8
HIDE
 10
2138.732157226184
 20
1584.3049399821639
 30
0.0
 11
2138.732157226184
 21
1590.8049399821639
 31
0.0
  0
LINE
  5
140A1
  8
HIDE
 10
2138.732157226184
 20
1619.3049399821639
 30
0.0
 11
2138.732157226184
 21
1625.8049399821639
 31
0.0
  0
LINE
  5
140A2
  8
HIDE
 10
2138.732157226184
 20
1620.8549399821641
 30
0.0
 11
2143.732157226184
 21
1620.8549399821641
 31
0.0
  0
LINE
  5
140A3
  8
HIDE
 10
2134.732157226184
 20
1619.3049399821639
 30
0.0
 11
2138.732157226184
 21
1619.3049399821639
 31
0.0
  0
LINE
  5
140A4
  8
HIDE
 10
2138.732157226184
 20
1624.2549399821639
 30
0.0
 11
2143.732157226184
 21
1624.2549399821639
 31
0.0
  0
LINE
  5
140A5
  8
HIDE
 10
2134.732157226184
 20
1625.8049399821639
 30
0.0
 11
2138.732157226184
 21
1625.8049399821639
 31
0.0
  0
LINE
  5
140A6
  8
CENTER
 10
2133.4608462353731
 20
1587.5549399821639
 30
0.0
 11
2145.1242386732738
 21
1587.5549399821639
 31
0.0
  0
LINE
  5
140A7
  8
CENTER
 10
2133.4608462353731
 20
1622.5549399821639
 30
0.0
 11
2145.1242386732738
 21
1622.5549399821639
 31
0.0
  0
LINE
  5
140A8
  8
0
 10
2134.732157226184
 20
1627.0549399821639
 30
0.0
 11
2143.732157226184
 21
1627.0549399821639
 31
0.0
  0
LINE
  5
140A9
  8
0
 10
2134.732157226184
 20
1583.0549399821639
 30
0.0
 11
2143.732157226184
 21
1583.0549399821639
 31
0.0
  0
LINE
  5
140AD
  8
CENTER
 10
2124.554635760177
 20
1605.0549399821639
 30
0.0
 11
2164.624797313345
 21
1605.0549399821639
 31
0.0
  0
LINE
  5
140AE
  8
HIDE
 10
2134.2321572261831
 20
1601.0549399821639
 30
0.0
 11
2139.732157226184
 21
1601.0549399821639
 31
0.0
  0
LINE
  5
140B0
  8
HIDE
 10
2134.2321572261831
 20
1609.054939982163
 30
0.0
 11
2139.732157226184
 21
1609.054939982163
 31
0.0
  0
LINE
  5
140B2
  8
HIDE
 10
2134.732157226184
 20
1599.5549399821639
 30
0.0
 11
2139.732157226184
 21
1599.5549399821639
 31
0.0
  0
LINE
  5
140B3
  8
HIDE
 10
2153.7321572261849
 20
1599.5549399821639
 30
0.0
 11
2157.732157226184
 21
1599.5549399821639
 31
0.0
  0
LINE
  5
140B4
  8
HIDE
 10
2134.732157226184
 20
1610.554939982163
 30
0.0
 11
2139.732157226184
 21
1610.554939982163
 31
0.0
  0
LINE
  5
140B5
  8
HIDE
 10
2153.7321572261849
 20
1610.5549399821639
 30
0.0
 11
2157.732157226184
 21
1610.5549399821639
 31
0.0
  0
LINE
  5
140B6
  8
0
 10
2134.732157226184
 20
1583.0549399821639
 30
0.0
 11
2134.732157226184
 21
1627.0549399821639
 31
0.0
  0
LINE
  5
140B7
  8
0
 10
2143.732157226184
 20
1591.0549399821639
 30
0.0
 11
2157.732157226184
 21
1591.0549399821639
 31
0.0
  0
LINE
  5
140B8
  8
0
 10
2143.732157226184
 20
1619.0549399821639
 30
0.0
 11
2157.732157226184
 21
1619.0549399821639
 31
0.0
  0
LINE
  5
140B9
  8
0
 10
2143.732157226184
 20
1583.0549399821639
 30
0.0
 11
2143.732157226184
 21
1627.0549399821639
 31
0.0
  0
LINE
  5
140BA
  8
0
 10
2157.732157226184
 20
1591.0549399821639
 30
0.0
 11
2157.732157226184
 21
1619.0549399821639
 31
0.0
  0
LINE
  5
140BB
  8
0
 10
2134.732157226184
 20
1601.5123679821641
 30
0.0
 11
2143.732157226184
 21
1601.5123679821641
 31
0.0
  0
LINE
  5
140BC
  8
0
 10
2134.732157226184
 20
1608.597542982164
 30
0.0
 11
2143.732157226184
 21
1608.597542982164
 31
0.0
  0
LINE
  5
140BF
  8
CENTER
 10
2135.8659224667622
 20
1605.0549399821639
 30
0.0
 11
2125.2423660016329
 21
1605.0549399821639
 31
0.0
  0
LINE
  5
140C0
  8
0
 10
2127.732157226184
 20
1613.5549399821639
 30
0.0
 11
2127.7321572261858
 21
1605.0549399821639
 31
0.0
  0
LINE
  5
140C1
  8
0
 10
2134.232157226184
 20
1611.554939982163
 30
0.0
 11
2134.232157226184
 21
1605.0549399821639
 31
0.0
  0
LINE
  5
140C2
  8
CENTER
 10
2130.732157226184
 20
1614.320574671558
 30
0.0
 11
2130.732157226184
 21
1608.1463671054671
 31
0.0
  0
LINE
  5
140C3
  8
0
 10
2133.732157226184
 20
1613.5549399821639
 30
0.0
 11
2133.732157226184
 21
1605.0549399821639
 31
0.0
  0
LINE
  5
140C4
  8
0
 10
2133.732157226184
 20
1613.5549399821639
 30
0.0
 11
2127.732157226184
 21
1613.5549399821639
 31
0.0
  0
LINE
  5
140C5
  8
0
 10
2134.232157226184
 20
1611.5549399821639
 30
0.0
 11
2133.732157226184
 21
1611.843615116758
 31
0.0
  0
LINE
  5
140C6
  8
0
 10
2133.732157226184
 20
1606.5951420262211
 30
0.0
 11
2127.7321572261858
 21
1606.5951420262199
 31
0.0
  0
LINE
  5
140C7
  8
HIDE
 10
2134.232157226184
 20
1608.5549399821609
 30
0.0
 11
2127.7321572261858
 21
1608.5549399821591
 31
0.0
  0
LINE
  5
140C8
  8
HIDE
 10
2134.232157226184
 20
1609.0549399821609
 30
0.0
 11
2127.7321572261858
 21
1609.05493998216
 31
0.0
  0
LINE
  5
140C9
  8
0
 10
2127.732157226184
 20
1596.5549399821639
 30
0.0
 11
2127.7321572261858
 21
1605.0549399821639
 31
0.0
  0
LINE
  5
140CA
  8
0
 10
2134.232157226184
 20
1598.554939982165
 30
0.0
 11
2134.232157226184
 21
1605.0549399821639
 31
0.0
  0
LINE
  5
140CB
  8
0
 10
2133.732157226184
 20
1596.5549399821639
 30
0.0
 11
2133.732157226184
 21
1605.0549399821639
 31
0.0
  0
LINE
  5
140CC
  8
0
 10
2133.732157226184
 20
1596.5549399821639
 30
0.0
 11
2127.732157226184
 21
1596.5549399821639
 31
0.0
  0
LINE
  5
140CD
  8
0
 10
2134.232157226184
 20
1598.5549399821639
 30
0.0
 11
2133.732157226184
 21
1598.26626484757
 31
0.0
  0
LINE
  5
140CE
  8
0
 10
2133.732157226184
 20
1603.5147379381069
 30
0.0
 11
2127.7321572261858
 21
1603.5147379381081
 31
0.0
  0
LINE
  5
140CF
  8
HIDE
 10
2134.232157226184
 20
1601.5549399821671
 30
0.0
 11
2127.7321572261858
 21
1601.554939982168
 31
0.0
  0
LINE
  5
140D0
  8
HIDE
 10
2134.232157226184
 20
1601.0549399821671
 30
0.0
 11
2127.7321572261858
 21
1601.0549399821689
 31
0.0
  0
LINE
  5
140D1
  8
HIDE
 10
2129.232157226184
 20
1613.5549399821639
 30
0.0
 11
2129.2321572261822
 21
1608.5549399821591
 31
0.0
  0
LINE
  5
140D2
  8
HIDE
 10
2129.482157226184
 20
1613.5549399821639
 30
0.0
 11
2129.482157226184
 21
1608.5549399821591
 31
0.0
  0
LINE
  5
140D3
  8
HIDE
 10
2132.2321572261822
 20
1613.5549399821639
 30
0.0
 11
2132.2321572261799
 21
1608.5549399821609
 31
0.0
  0
LINE
  5
140D4
  8
HIDE
 10
2131.982157226184
 20
1613.5549399821639
 30
0.0
 11
2131.982157226184
 21
1608.5549399821609
 31
0.0
  0
LINE
  5
140D5
  8
HIDE
 10
2132.2321572261799
 20
1610.027965116001
 30
0.0
 11
2129.2321572261799
 21
1610.027965116001
 31
0.0
  0
LINE
  5
140D6
  8
HIDE
 10
2132.2321572261799
 20
1613.027965116001
 30
0.0
 11
2129.2321572261799
 21
1613.027965116001
 31
0.0
  0
LINE
  5
140D7
  8
HIDE
 10
2132.2321572261799
 20
1610.027965115999
 30
0.0
 11
2131.982157226184
 21
1609.883627548704
 31
0.0
  0
LINE
  5
140D8
  8
HIDE
 10
2129.232157226184
 20
1610.0279651159999
 30
0.0
 11
2129.482157226184
 21
1609.8836275487031
 31
0.0
  0
LINE
  5
140D9
  8
HIDE
 10
2131.982157226184
 20
1609.883627548704
 30
0.0
 11
2129.482157226184
 21
1609.8836275487031
 31
0.0
  0
CIRCLE
  5
140DA
  8
HIDE
 10
2150.232157226184
 20
1597.5549399821639
 30
0.0
 40
2.0999999999999992
  0
CIRCLE
  5
140DB
  8
HIDE
 10
2150.232157226184
 20
1612.5549399821639
 30
0.0
 40
2.0999999999999992
  0
LINE
  5
140DC
  8
HIDE
 10
2153.732157226184
 20
1596.0649399821641
 30
0.0
 11
2153.732157226184
 21
1598.984939982164
 31
0.0
  0
LINE
  5
140DD
  8
HIDE
 10
2146.732157226184
 20
1598.984939982164
 30
0.0
 11
2146.732157226184
 21
1596.0649399821641
 31
0.0
  0
LINE
  5
140DE
  8
HIDE
 10
2151.711988297624
 20
1596.0649399821641
 30
0.0
 11
2153.732157226184
 21
1596.0649399821641
 31
0.0
  0
LINE
  5
140DF
  8
HIDE
 10
2147.0321572261842
 20
1594.0549399821639
 30
0.0
 11
2153.4321572261838
 21
1594.0549399821639
 31
0.0
  0
ARC
  5
140E0
  8
HIDE
 10
2147.0321572261842
 20
1594.3549399821641
 30
0.0
 40
0.3
 50
180.0
 51
270.0
  0
LINE
  5
140E1
  8
HIDE
 10
2146.732157226184
 20
1596.0649399821641
 30
0.0
 11
2146.732157226184
 21
1594.3549399821641
 31
0.0
  0
ARC
  5
140E2
  8
HIDE
 10
2153.4321572261838
 20
1594.3549399821641
 30
0.0
 40
0.3000000000000007
 50
270.0
 51
0.0
  0
LINE
  5
140E3
  8
HIDE
 10
2153.732157226184
 20
1594.3549399821641
 30
0.0
 11
2153.732157226184
 21
1596.0649399821641
 31
0.0
  0
ARC
  5
140E4
  8
HIDE
 10
2147.0321572261842
 20
1609.3549399821641
 30
0.0
 40
0.3
 50
180.0
 51
270.0
  0
ARC
  5
140E5
  8
HIDE
 10
2153.4321572261838
 20
1609.3549399821641
 30
0.0
 40
0.2999999999999998
 50
270.0
 51
0.0
  0
LINE
  5
140E6
  8
HIDE
 10
2153.732157226184
 20
1609.3549399821641
 30
0.0
 11
2153.732157226184
 21
1605.0549399821639
 31
0.0
  0
LINE
  5
140E7
  8
HIDE
 10
2146.732157226184
 20
1605.0549399821639
 30
0.0
 11
2146.732157226184
 21
1609.3549399821641
 31
0.0
  0
LINE
  5
140E8
  8
HIDE
 10
2146.732157226184
 20
1598.984939982164
 30
0.0
 11
2148.6942690638002
 21
1598.984939982164
 31
0.0
  0
LINE
  5
140E9
  8
HIDE
 10
2151.7700453885682
 20
1598.984939982164
 30
0.0
 11
2153.732157226184
 21
1598.984939982164
 31
0.0
  0
LINE
  5
140EA
  8
HIDE
 10
2147.0321572261842
 20
1601.0549399821639
 30
0.0
 11
2153.4321572261838
 21
1601.0549399821639
 31
0.0
  0
LINE
  5
140EB
  8
HIDE
 10
2147.0321572261842
 20
1609.0549399821639
 30
0.0
 11
2153.4321572261838
 21
1609.0549399821639
 31
0.0
  0
LINE
  5
140EC
  8
HIDE
 10
2146.732157226184
 20
1605.0549399821639
 30
0.0
 11
2146.732157226184
 21
1600.7549399821639
 31
0.0
  0
ARC
  5
140ED
  8
HIDE
 10
2147.0321572261842
 20
1600.7549399821639
 30
0.0
 40
0.2999999999999998
 50
90.0
 51
180.0
  0
LINE
  5
140EE
  8
HIDE
 10
2146.732157226184
 20
1600.7549399821639
 30
0.0
 11
2146.732157226184
 21
1598.984939982164
 31
0.0
  0
LINE
  5
140EF
  8
HIDE
 10
2153.732157226184
 20
1600.7549399821639
 30
0.0
 11
2153.732157226184
 21
1605.0549399821639
 31
0.0
  0
ARC
  5
140F0
  8
HIDE
 10
2153.4321572261838
 20
1600.7549399821639
 30
0.0
 40
0.2999999999999998
 50
0.0
 51
90.0
  0
LINE
  5
140F1
  8
HIDE
 10
2153.732157226184
 20
1598.984939982164
 30
0.0
 11
2153.732157226184
 21
1600.7549399821639
 31
0.0
  0
LINE
  5
140F2
  8
HIDE
 10
2146.732157226184
 20
1611.1249399821641
 30
0.0
 11
2148.6942690638002
 21
1611.1249399821641
 31
0.0
  0
LINE
  5
140F3
  8
HIDE
 10
2151.7700453885682
 20
1611.1249399821641
 30
0.0
 11
2153.732157226184
 21
1611.1249399821641
 31
0.0
  0
LINE
  5
140F4
  8
HIDE
 10
2146.7432239229479
 20
1614.756105135807
 30
0.0
 11
2149.3885991715711
 21
1614.47806499331
 31
0.0
  0
LINE
  5
140F5
  8
HIDE
 10
2151.711988297624
 20
1614.0449399821639
 30
0.0
 11
2153.732157226184
 21
1614.0449399821639
 31
0.0
  0
LINE
  5
140F6
  8
HIDE
 10
2147.0321572261842
 20
1616.0549399821639
 30
0.0
 11
2153.4321572261838
 21
1616.0549399821639
 31
0.0
  0
ARC
  5
140F7
  8
HIDE
 10
2147.0321572261842
 20
1615.7549399821639
 30
0.0
 40
0.3000000000000007
 50
90.0
 51
180.0
  0
LINE
  5
140F8
  8
HIDE
 10
2146.732157226184
 20
1614.0449399821639
 30
0.0
 11
2146.732157226184
 21
1615.7549399821639
 31
0.0
  0
LINE
  5
140F9
  8
HIDE
 10
2146.732157226184
 20
1609.3549399821641
 30
0.0
 11
2146.732157226184
 21
1611.1249399821641
 31
0.0
  0
LINE
  5
140FA
  8
HIDE
 10
2146.732157226184
 20
1611.1249399821641
 30
0.0
 11
2146.732157226184
 21
1614.0449399821639
 31
0.0
  0
LINE
  5
140FB
  8
HIDE
 10
2153.732157226184
 20
1615.7549399821639
 30
0.0
 11
2153.732157226184
 21
1614.0449399821639
 31
0.0
  0
LINE
  5
140FC
  8
HIDE
 10
2153.732157226184
 20
1611.1249399821641
 30
0.0
 11
2153.732157226184
 21
1609.3549399821641
 31
0.0
  0
LINE
  5
140FD
  8
HIDE
 10
2153.732157226184
 20
1614.0449399821639
 30
0.0
 11
2153.732157226184
 21
1611.1249399821641
 31
0.0
  0
ARC
  5
140FE
  8
HIDE
 10
2153.4321572261838
 20
1615.7549399821639
 30
0.0
 40
0.2999999999999998
 50
0.0
 51
90.0
  0
LINE
  5
140FF
  8
HIDE
 10
2146.7432239229479
 20
1595.353774828521
 30
0.0
 11
2149.3885991715711
 21
1595.631814971018
 31
0.0
  0
CIRCLE
  5
14100
  8
HIDE
 10
2143.232157226184
 20
1597.5549399821639
 30
0.0
 40
2.0999999999999992
  0
CIRCLE
  5
14101
  8
HIDE
 10
2143.232157226184
 20
1612.5549399821639
 30
0.0
 40
2.0999999999999992
  0
LINE
  5
14102
  8
HIDE
 10
2139.732157226184
 20
1596.0649399821641
 30
0.0
 11
2139.732157226184
 21
1598.984939982164
 31
0.0
  0
LINE
  5
14103
  8
HIDE
 10
2146.732157226184
 20
1598.984939982164
 30
0.0
 11
2146.732157226184
 21
1596.0649399821641
 31
0.0
  0
LINE
  5
14104
  8
HIDE
 10
2141.752326154744
 20
1596.0649399821641
 30
0.0
 11
2139.732157226184
 21
1596.0649399821641
 31
0.0
  0
LINE
  5
14105
  8
HIDE
 10
2146.4321572261838
 20
1594.0549399821639
 30
0.0
 11
2140.0321572261842
 21
1594.0549399821639
 31
0.0
  0
ARC
  5
14106
  8
HIDE
 10
2146.4321572261838
 20
1594.3549399821641
 30
0.0
 40
0.3
 50
270.0
 51
0.0
  0
LINE
  5
14107
  8
HIDE
 10
2146.732157226184
 20
1596.0649399821641
 30
0.0
 11
2146.732157226184
 21
1594.3549399821641
 31
0.0
  0
ARC
  5
14108
  8
HIDE
 10
2140.0321572261842
 20
1594.3549399821641
 30
0.0
 40
0.3000000000000007
 50
180.0
 51
270.0
  0
LINE
  5
14109
  8
HIDE
 10
2139.732157226184
 20
1594.3549399821641
 30
0.0
 11
2139.732157226184
 21
1596.0649399821641
 31
0.0
  0
ARC
  5
1410A
  8
HIDE
 10
2146.4321572261838
 20
1609.3549399821641
 30
0.0
 40
0.3
 50
270.0
 51
0.0
  0
ARC
  5
1410B
  8
HIDE
 10
2140.0321572261842
 20
1609.3549399821641
 30
0.0
 40
0.2999999999999998
 50
180.0
 51
270.0
  0
LINE
  5
1410C
  8
HIDE
 10
2139.732157226184
 20
1609.3549399821641
 30
0.0
 11
2139.732157226184
 21
1605.0549399821639
 31
0.0
  0
LINE
  5
1410D
  8
HIDE
 10
2146.732157226184
 20
1605.0549399821639
 30
0.0
 11
2146.732157226184
 21
1609.3549399821641
 31
0.0
  0
LINE
  5
1410E
  8
HIDE
 10
2146.732157226184
 20
1598.984939982164
 30
0.0
 11
2144.7700453885682
 21
1598.984939982164
 31
0.0
  0
LINE
  5
1410F
  8
HIDE
 10
2141.6942690638002
 20
1598.984939982164
 30
0.0
 11
2139.732157226184
 21
1598.984939982164
 31
0.0
  0
LINE
  5
14110
  8
HIDE
 10
2146.4321572261838
 20
1601.0549399821639
 30
0.0
 11
2140.0321572261842
 21
1601.0549399821639
 31
0.0
  0
LINE
  5
14111
  8
HIDE
 10
2146.4321572261838
 20
1609.0549399821639
 30
0.0
 11
2140.0321572261842
 21
1609.0549399821639
 31
0.0
  0
LINE
  5
14112
  8
HIDE
 10
2146.732157226184
 20
1605.0549399821639
 30
0.0
 11
2146.732157226184
 21
1600.7549399821639
 31
0.0
  0
ARC
  5
14113
  8
HIDE
 10
2146.4321572261838
 20
1600.7549399821639
 30
0.0
 40
0.2999999999999998
 50
0.0
 51
90.0
  0
LINE
  5
14114
  8
HIDE
 10
2146.732157226184
 20
1600.7549399821639
 30
0.0
 11
2146.732157226184
 21
1598.984939982164
 31
0.0
  0
LINE
  5
14115
  8
HIDE
 10
2139.732157226184
 20
1600.7549399821639
 30
0.0
 11
2139.732157226184
 21
1605.0549399821639
 31
0.0
  0
ARC
  5
14116
  8
HIDE
 10
2140.0321572261842
 20
1600.7549399821639
 30
0.0
 40
0.2999999999999998
 50
90.0
 51
180.0
  0
LINE
  5
14117
  8
HIDE
 10
2139.732157226184
 20
1598.984939982164
 30
0.0
 11
2139.732157226184
 21
1600.7549399821639
 31
0.0
  0
LINE
  5
14118
  8
HIDE
 10
2146.732157226184
 20
1611.1249399821641
 30
0.0
 11
2144.7700453885682
 21
1611.1249399821641
 31
0.0
  0
LINE
  5
14119
  8
HIDE
 10
2141.6942690638002
 20
1611.1249399821641
 30
0.0
 11
2139.732157226184
 21
1611.1249399821641
 31
0.0
  0
LINE
  5
1411A
  8
HIDE
 10
2146.7210905294191
 20
1614.756105135807
 30
0.0
 11
2144.0757152807969
 21
1614.47806499331
 31
0.0
  0
LINE
  5
1411B
  8
HIDE
 10
2141.752326154744
 20
1614.0449399821639
 30
0.0
 11
2139.732157226184
 21
1614.0449399821639
 31
0.0
  0
LINE
  5
1411C
  8
HIDE
 10
2146.4321572261838
 20
1616.0549399821639
 30
0.0
 11
2140.0321572261842
 21
1616.0549399821639
 31
0.0
  0
ARC
  5
1411D
  8
HIDE
 10
2146.4321572261838
 20
1615.7549399821639
 30
0.0
 40
0.3000000000000007
 50
0.0
 51
90.0
  0
LINE
  5
1411E
  8
HIDE
 10
2146.732157226184
 20
1614.0449399821639
 30
0.0
 11
2146.732157226184
 21
1615.7549399821639
 31
0.0
  0
LINE
  5
1411F
  8
HIDE
 10
2146.732157226184
 20
1609.3549399821641
 30
0.0
 11
2146.732157226184
 21
1611.1249399821641
 31
0.0
  0
LINE
  5
14120
  8
HIDE
 10
2146.732157226184
 20
1611.1249399821641
 30
0.0
 11
2146.732157226184
 21
1614.0449399821639
 31
0.0
  0
LINE
  5
14121
  8
HIDE
 10
2139.732157226184
 20
1615.7549399821639
 30
0.0
 11
2139.732157226184
 21
1614.0449399821639
 31
0.0
  0
LINE
  5
14122
  8
HIDE
 10
2139.732157226184
 20
1611.1249399821641
 30
0.0
 11
2139.732157226184
 21
1609.3549399821641
 31
0.0
  0
LINE
  5
14123
  8
HIDE
 10
2139.732157226184
 20
1614.0449399821639
 30
0.0
 11
2139.732157226184
 21
1611.1249399821641
 31
0.0
  0
ARC
  5
14124
  8
HIDE
 10
2140.0321572261842
 20
1615.7549399821639
 30
0.0
 40
0.2999999999999998
 50
90.0
 51
180.0
  0
LINE
  5
14125
  8
HIDE
 10
2146.7210905294191
 20
1595.353774828521
 30
0.0
 11
2144.0757152807969
 21
1595.631814971018
 31
0.0
  0
LINE
  5
14126
  8
0
 10
2134.732157226184
 20
1610.554939982163
 30
0.0
 11
2134.232157226184
 21
1610.554939982163
 31
0.0
  0
LINE
  5
14127
  8
0
 10
2134.732157226184
 20
1599.5549399821639
 30
0.0
 11
2134.232157226184
 21
1599.5549399821639
 31
0.0
  0
ARC
  5
1412A
  8
HIDE
 10
2093.8503795650631
 20
1605.0549399821639
 30
0.0
 40
14.0
 50
270.0
 51
180.0
  0
ARC
  5
1412B
  8
CENTER
 10
2093.8503795650631
 20
1605.0549399821639
 30
0.0
 40
17.5
 50
165.60723000000689
 51
194.62935599999599
  0
ARC
  5
1412C
  8
CENTER
 10
2093.8503795650631
 20
1605.0549399821639
 30
0.0
 40
17.5
 50
75.016573000006574
 51
103.8333330000074
  0
ARC
  5
1412D
  8
CENTER
 10
2093.8503795650631
 20
1605.0549399821639
 30
0.0
 40
17.5
 50
347.03310999999002
 51
13.96929499999872
  0
ARC
  5
1412E
  8
CENTER
 10
2093.8503795650631
 20
1605.0549399821639
 30
0.0
 40
17.5
 50
256.14018500000731
 51
284.19133199999601
  0
CIRCLE
  5
1412F
  8
0
 10
2093.8503795650631
 20
1605.0549399821639
 30
0.0
 40
10.0
  0
CIRCLE
  5
14135
  8
0
 10
2093.8503795650631
 20
1587.5549399821639
 30
0.0
 40
1.7
  0
CIRCLE
  5
14136
  8
0
 10
2093.8503795650631
 20
1587.5549399821639
 30
0.0
 40
3.25
  0
CIRCLE
  5
14137
  8
0
 10
2111.3503795650631
 20
1605.0549399821639
 30
0.0
 40
1.7
  0
CIRCLE
  5
14138
  8
0
 10
2111.3503795650631
 20
1605.0549399821639
 30
0.0
 40
3.25
  0
CIRCLE
  5
14139
  8
0
 10
2093.8503795650631
 20
1622.5549399821639
 30
0.0
 40
1.7
  0
CIRCLE
  5
1413A
  8
0
 10
2093.8503795650631
 20
1622.5549399821639
 30
0.0
 40
3.25
  0
CIRCLE
  5
1413B
  8
0
 10
2076.3503795650631
 20
1605.0549399821639
 30
0.0
 40
1.7
  0
CIRCLE
  5
1413C
  8
0
 10
2076.3503795650631
 20
1605.0549399821639
 30
0.0
 40
3.25
  0
LINE
  5
1413E
  8
0
 10
2096.7973592564508
 20
1583.25321274099
 30
0.0
 11
2115.652106472558
 21
1602.1079578222229
 31
0.0
  0
LINE
  5
1413F
  8
0
 10
2072.0486618740779
 20
1608.001990324899
 30
0.0
 11
2090.9033304566101
 21
1626.856657839993
 31
0.0
  0
LINE
  5
14140
  8
0
 10
2072.048656716102
 20
1602.107927797407
 30
0.0
 11
2090.9033686145822
 21
1583.2532169663621
 31
0.0
  0
LINE
  5
14141
  8
0
 10
2096.7973986876291
 20
1626.8566618933171
 30
0.0
 11
2115.652101643057
 21
1608.001957870451
 31
0.0
  0
LINE
  5
14142
  8
0
 10
2095.3905816091201
 20
1596.6956470896121
 30
0.0
 11
2102.2096724576149
 21
1603.5147379381081
 31
0.0
  0
LINE
  5
14143
  8
0
 10
2085.4910866725108
 20
1606.595142026224
 30
0.0
 11
2092.310177521003
 21
1613.414232874718
 31
0.0
  0
LINE
  5
14144
  8
0
 10
2095.3905816091228
 20
1613.414232874718
 30
0.0
 11
2102.2096724576159
 21
1606.595142026224
 31
0.0
  0
LINE
  5
14145
  8
0
 10
2085.4910866725108
 20
1603.514737938101
 30
0.0
 11
2092.3101775209998
 21
1596.6956470896121
 31
0.0
  0
ARC
  5
14146
  8
0
 10
2093.8503795650631
 20
1605.0549399821639
 30
0.0
 40
8.5
 50
79.560321780045399
 51
100.4396782199546
  0
ARC
  5
14147
  8
0
 10
2093.8503795650631
 20
1605.0549399821639
 30
0.0
 40
8.5
 50
169.5603217799918
 51
190.4396782200082
  0
ARC
  5
14148
  8
0
 10
2093.8503795650631
 20
1605.0549399821639
 30
0.0
 40
8.5
 50
259.5603217800454
 51
280.4396782199546
  0
ARC
  5
14149
  8
0
 10
2093.8503795650631
 20
1605.0549399821639
 30
0.0
 40
8.5
 50
349.5603217799918
 51
10.43967822000821
  0
ARC
  5
1414A
  8
HIDE
 10
2093.8503795650631
 20
1605.0549399821639
 30
0.0
 40
4.0
 50
270.0
 51
180.0
  0
CIRCLE
  5
1414B
  8
0
 10
2093.8503795650631
 20
1605.0549399821639
 30
0.0
 40
3.5
  0
LINE
  5
1414C
  8
HIDE
 10
2095.3503795650631
 20
1613.4215402475049
 30
0.0
 11
2095.350379565064
 21
1608.217217642331
 31
0.0
  0
LINE
  5
1414D
  8
HIDE
 10
2095.1003795650631
 20
1613.462525842564
 30
0.0
 11
2095.1003795650631
 21
1608.32411418982
 31
0.0
  0
LINE
  5
1414E
  8
HIDE
 10
2092.3503795650649
 20
1613.4215402475049
 30
0.0
 11
2092.3503795650672
 21
1608.2172176423339
 31
0.0
  0
LINE
  5
1414F
  8
HIDE
 10
2092.6003795650622
 20
1613.462525842564
 30
0.0
 11
2092.6003795650622
 21
1608.3241141898191
 31
0.0
  0
LINE
  5
14150
  8
HIDE
 10
2092.3503795650672
 20
1610.027965116001
 30
0.0
 11
2095.3503795650672
 21
1610.027965116001
 31
0.0
  0
LINE
  5
14151
  8
HIDE
 10
2092.3503795650672
 20
1613.027965116001
 30
0.0
 11
2095.3503795650672
 21
1613.027965116001
 31
0.0
  0
LINE
  5
14152
  8
HIDE
 10
2092.3503795650672
 20
1610.027965115999
 30
0.0
 11
2092.6003795650622
 21
1609.883627548704
 31
0.0
  0
LINE
  5
14153
  8
HIDE
 10
2095.3503795650631
 20
1610.0279651159999
 30
0.0
 11
2095.1003795650631
 21
1609.8836275487031
 31
0.0
  0
LINE
  5
14154
  8
HIDE
 10
2092.6003795650622
 20
1609.883627548704
 30
0.0
 11
2095.1003795650631
 21
1609.8836275487031
 31
0.0
  0
LINE
  5
14155
  8
CENTER
 10
2069.8503795650631
 20
1605.0549399821639
 30
0.0
 11
2117.8503795650631
 21
1605.0549399821639
 31
0.0
  0
LINE
  5
14156
  8
CENTER
 10
2093.8503795650631
 20
1581.0549399821639
 30
0.0
 11
2093.8503795650631
 21
1629.0549399821639
 31
0.0
  0
CIRCLE
  5
1415E
  8
0
 10
2093.8503795650631
 20
1605.0549399821639
 30
0.0
 40
13.5
  0
ARC
  5
1417A
  8
0
 10
2093.8503795650631
 20
1605.0549399821639
 30
0.0
 40
22.0
 50
352.30187621151663
 51
7.6982176839653933
  0
ARC
  5
1417B
  8
0
 10
2093.8503795650631
 20
1605.0549399821639
 30
0.0
 40
22.0
 50
262.30180054886353
 51
277.6981173010314
  0
ARC
  5
1417C
  8
0
 10
2093.8503795650631
 20
1605.0549399821639
 30
0.0
 40
22.0
 50
172.30169702446719
 51
187.698202694863
  0
ARC
  5
1417D
  8
0
 10
2093.8503795650631
 20
1605.0549399821639
 30
0.0
 40
22.0
 50
82.301779072301969
 51
97.698299731791636
  0
ENDSEC
  0
EOF
