  0
SECTION
  2
HEADER
  9
$ACADVER
  1
AC1009
  9
$INSBASE
 10
0.0
 20
0.0
 30
0.0
  9
$EXTMIN
 10
32.771117244893297
 20
-29.29735709758712
 30
0.0
  9
$EXTMAX
 10
425.61491708053751
 20
249.2303496777387
 30
0.0
  9
$LIMMIN
 10
0.0
 20
0.0
  9
$LIMMAX
 10
12.0
 20
9.0
  9
$ORTHOMODE
 70
     1
  9
$REGENMODE
 70
     1
  9
$FILLMODE
 70
     1
  9
$QTEXTMODE
 70
     0
  9
$MIRRTEXT
 70
     0
  9
$DRAGMODE
 70
     2
  9
$LTSCALE
 40
1.0
  9
$OSMODE
 70
  2239
  9
$ATTMODE
 70
     1
  9
$TEXTSIZE
 40
0.2
  9
$TRACEWID
 40
0.05
  9
$TEXTSTYLE
  7
STANDARD
  9
$CLAYER
  8
0
  9
$CELTYPE
  6
BYLAYER
  9
$CECOLOR
 62
   256
  9
$DIMSCALE
 40
1.0
  9
$DIMASZ
 40
0.18
  9
$DIMEXO
 40
0.0625
  9
$DIMDLI
 40
0.38
  9
$DIMRND
 40
0.0
  9
$DIMDLE
 40
0.0
  9
$DIMEXE
 40
0.18
  9
$DIMTP
 40
0.0
  9
$DIMTM
 40
0.0
  9
$DIMTXT
 40
0.18
  9
$DIMCEN
 40
0.09
  9
$DIMTSZ
 40
0.0
  9
$DIMTOL
 70
     0
  9
$DIMLIM
 70
     0
  9
$DIMTIH
 70
     1
  9
$DIMTOH
 70
     1
  9
$DIMSE1
 70
     0
  9
$DIMSE2
 70
     0
  9
$DIMTAD
 70
     0
  9
$DIMZIN
 70
     0
  9
$DIMBLK
  1

  9
$DIMASO
 70
     1
  9
$DIMSHO
 70
     1
  9
$DIMPOST
  1

  9
$DIMAPOST
  1

  9
$DIMALT
 70
     0
  9
$DIMALTD
 70
     2
  9
$DIMALTF
 40
25.399999999999999
  9
$DIMLFAC
 40
1.0
  9
$DIMTOFL
 70
     0
  9
$DIMTVP
 40
0.0
  9
$DIMTIX
 70
     0
  9
$DIMSOXD
 70
     0
  9
$DIMSAH
 70
     0
  9
$DIMBLK1
  1

  9
$DIMBLK2
  1

  9
$DIMSTYLE
  2
STANDARD
  9
$DIMCLRD
 70
     0
  9
$DIMCLRE
 70
     0
  9
$DIMCLRT
 70
     0
  9
$DIMTFAC
 40
1.0
  9
$DIMGAP
 40
0.09
  9
$LUNITS
 70
     2
  9
$LUPREC
 70
     4
  9
$SKETCHINC
 40
0.1
  9
$FILLETRAD
 40
0.0
  9
$AUNITS
 70
     0
  9
$AUPREC
 70
     0
  9
$MENU
  1
.
  9
$ELEVATION
 40
0.0
  9
$PELEVATION
 40
0.0
  9
$THICKNESS
 40
0.0
  9
$LIMCHECK
 70
     0
  9
$BLIPMODE
 70
     0
  9
$CHAMFERA
 40
1.0
  9
$CHAMFERB
 40
1.0
  9
$SKPOLY
 70
     0
  9
$TDCREATE
 40
2455485.671822188
  9
$TDUPDATE
 40
2456645.6560619329
  9
$TDINDWG
 40
0.2168069097
  9
$TDUSRTIMER
 40
0.2168069097
  9
$USRTIMER
 70
     1
  9
$ANGBASE
 50
0.0
  9
$ANGDIR
 70
     0
  9
$PDMODE
 70
     0
  9
$PDSIZE
 40
0.0
  9
$PLINEWID
 40
0.0
  9
$COORDS
 70
     1
  9
$SPLFRAME
 70
     0
  9
$SPLINETYPE
 70
     6
  9
$SPLINESEGS
 70
     8
  9
$ATTDIA
 70
     0
  9
$ATTREQ
 70
     1
  9
$HANDLING
 70
     1
  9
$HANDSEED
  5
D63
  9
$SURFTAB1
 70
     6
  9
$SURFTAB2
 70
     6
  9
$SURFTYPE
 70
     6
  9
$SURFU
 70
     6
  9
$SURFV
 70
     6
  9
$UCSNAME
  2

  9
$UCSORG
 10
0.0
 20
0.0
 30
0.0
  9
$UCSXDIR
 10
1.0
 20
0.0
 30
0.0
  9
$UCSYDIR
 10
0.0
 20
1.0
 30
0.0
  9
$PUCSNAME
  2

  9
$PUCSORG
 10
0.0
 20
0.0
 30
0.0
  9
$PUCSXDIR
 10
1.0
 20
0.0
 30
0.0
  9
$PUCSYDIR
 10
0.0
 20
1.0
 30
0.0
  9
$USERI1
 70
     0
  9
$USERI2
 70
     0
  9
$USERI3
 70
     0
  9
$USERI4
 70
     0
  9
$USERI5
 70
     0
  9
$USERR1
 40
0.0
  9
$USERR2
 40
0.0
  9
$USERR3
 40
0.0
  9
$USERR4
 40
0.0
  9
$USERR5
 40
0.0
  9
$WORLDVIEW
 70
     1
  9
$SHADEDGE
 70
     3
  9
$SHADEDIF
 70
    70
  9
$TILEMODE
 70
     1
  9
$MAXACTVP
 70
    48
  9
$PLIMCHECK
 70
     0
  9
$PEXTMIN
 10
0.0
 20
0.0
 30
0.0
  9
$PEXTMAX
 10
0.0
 20
0.0
 30
0.0
  9
$PLIMMIN
 10
0.0
 20
0.0
  9
$PLIMMAX
 10
12.0
 20
9.0
  9
$UNITMODE
 70
     0
  9
$VISRETAIN
 70
     1
  9
$PLINEGEN
 70
     0
  9
$PSLTSCALE
 70
     1
  0
ENDSEC
  0
SECTION
  2
TABLES
  0
TABLE
  2
VPORT
 70
     1
  0
VPORT
  2
*ACTIVE
 70
     0
 10
0.0
 20
0.0
 11
1.0
 21
1.0
 12
248.61983677895
 22
66.874305803039988
 13
0.0
 23
0.0
 14
0.5
 24
0.5
 15
0.5
 25
0.5
 16
0.0
 26
0.0
 36
1.0
 17
0.0
 27
0.0
 37
0.0
 40
282.31846377898268
 41
2.1408934707903771
 42
50.0
 43
0.0
 44
0.0
 50
0.0
 51
0.0
 71
     0
 72
  1000
 73
     1
 74
     3
 75
     0
 76
     0
 77
     0
 78
     0
  0
ENDTAB
  0
TABLE
  2
LTYPE
 70
     5
  0
LTYPE
  2
CONTINUOUS
 70
     0
  3
Solid line
 72
    65
 73
     0
 40
0.0
  0
LTYPE
  2
CENTER
 70
     0
  3
____ _ ____ _ ____ _ ____ _ ____ _ ____ _ ____ 
 72
    65
 73
     4
 40
2.0
 49
1.25
 49
-0.25
 49
0.25
 49
-0.25
  0
LTYPE
  2
PHANTOM2
 70
     0
  3
Phantom (.5x) ___ _ _ ___ _ _ ___ _ _ ___ _ _
 72
    65
 73
     6
 40
1.25
 49
0.625
 49
-0.125
 49
0.125
 49
-0.125
 49
0.125
 49
-0.125
  0
ENDTAB
  0
TABLE
  2
LAYER
 70
     3
  0
LAYER
  2
0
 70
     0
 62
     7
  6
CONTINUOUS
  0
LAYER
  2
CENTER
 70
     0
 62
     3
  6
CENTER
  0
LAYER
  2
HIDE
 70
     0
 62
     1
  6
CONTINUOUS
  0
ENDTAB
  0
TABLE
  2
STYLE
 70
     7
  0
STYLE
  2
STANDARD
 70
     0
 40
0.0
 41
1.0
 50
0.0
 71
     0
 42
0.2
  3
txt
  4
whgtxt.shx
  0
STYLE
  2
DUKI7
 70
     0
 40
20.0
 41
1.0
 50
0.0
 71
     0
 42
20.0
  3
txt
  4

  0
ENDTAB
  0
TABLE
  2
VIEW
 70
     0
  0
ENDTAB
  0
TABLE
  2
UCS
 70
     0
  0
ENDTAB
  0
TABLE
  2
APPID
 70
    13
  0
APPID
  2
ACAD
 70
     0
  0
APPID
  2
ACADANNOPO
 70
     0
  0
APPID
  2
ACADANNOTATIVE
 70
     0
  0
APPID
  2
ACAD_DSTYLE_DIMJAG
 70
     0
  0
APPID
  2
ACAD_DSTYLE_DIMTALN
 70
     0
  0
APPID
  2
ACAD_MLEADERVER
 70
     0
  0
APPID
  2
ACAD_PSEXT
 70
     0
  0
APPID
  2
ACAECLAYERSTANDARD
 70
     0
  0
APPID
  2
ACAD_DSTYLE_DIMBREAK
 70
     0
  0
APPID
  2
ACAD_DSTYLE_DIMTEXT_FILL
 70
     0
  0
APPID
  2
ACAD_EXEMPT_FROM_CAD_STANDARDS
 70
     0
  0
APPID
  2
ACAD_NAV_VCDISPLAY
 70
     0
  0
APPID
  2
ACDBDYNAMICBLOCKTRUENAME2
 70
     0
  0
ENDTAB
  0
TABLE
  2
DIMSTYLE
 70
     7
  0
DIMSTYLE
  2
STANDARD
 70
     0
  3

  4

  5

  6

  7

 40
1.0
 41
0.18
 42
0.0625
 43
0.38
 44
0.18
 45
0.0
 46
0.0
 47
0.0
 48
0.0
140
0.18
141
0.09
142
0.0
143
25.399999999999999
144
1.0
145
0.0
146
1.0
147
0.09
 71
     0
 72
     0
 73
     1
 74
     1
 75
     0
 76
     0
 77
     0
 78
     0
170
     0
171
     2
172
     0
173
     0
174
     0
175
     0
176
     0
177
     0
178
     0
  0
ENDTAB
  0
ENDSEC
  0
SECTION
  2
BLOCKS
  0
BLOCK
  8
0
  2
$MODEL_SPACE
 70
     0
 10
0.0
 20
0.0
 30
0.0
  3
$MODEL_SPACE
  1

  0
ENDBLK
  5
21
  8
0
  0
BLOCK
 67
     1
  8
0
  2
$PAPER_SPACE
 70
     0
 10
0.0
 20
0.0
 30
0.0
  3
$PAPER_SPACE
  1

  0
ENDBLK
  5
5B
 67
     1
  8
0
  0
BLOCK
  8
0
  2
*U7
 70
     1
 10
0.0
 20
0.0
 30
0.0
  3
*U7
  1

  0
ARC
  5
C80
  8
CENTER
 10
-0.000000000007276
 20
-16.25
 30
0.0
 40
16.25
 50
75.860571915215814
 51
104.1394280847842
  0
LINE
  5
C81
  8
CENTER
 10
-0.000000000007276
 20
4.0
 30
0.0
 11
-0.000000000007276
 21
-4.0
 31
0.0
  0
LINE
  5
C82
  8
CENTER
 10
-0.000000000007276
 20
-4.0
 30
0.0
 11
-0.000000000007276
 21
4.0
 31
0.0
  0
ENDBLK
  5
C83
  8
0
  0
BLOCK
  8
0
  2
*U9
 70
     1
 10
0.0
 20
0.0
 30
0.0
  3
*U9
  1

  0
INSERT
  5
C89
  8
0
  6
BYBLOCK
 62
     0
  2
*U7
 10
-42145.657432805529
 20
9959.7400511001579
 30
0.0
  0
INSERT
  5
C8A
  8
0
  6
BYBLOCK
 62
     0
  2
*U7
 10
-42159.730345617019
 20
9951.6150511001633
 30
0.0
 41
1.0
 42
1.0
 43
1.0
 50
59.999999999999957
  0
INSERT
  5
C8B
  8
0
  6
BYBLOCK
 62
     0
  2
*U7
 10
-42159.730345617027
 20
9935.3650511001633
 30
0.0
 50
119.9999999999999
  0
INSERT
  5
C8C
  8
0
  6
BYBLOCK
 62
     0
  2
*U7
 10
-42145.657432805543
 20
9927.2400511001579
 30
0.0
 50
180.0
  0
INSERT
  5
C8D
  8
0
  6
BYBLOCK
 62
     0
  2
*U7
 10
-42131.584519994038
 20
9935.3650511001542
 30
0.0
 50
239.99999999999989
  0
INSERT
  5
C8E
  8
0
  6
BYBLOCK
 62
     0
  2
*U7
 10
-42131.584519994038
 20
9951.6150511001524
 30
0.0
 41
0.9999999999999998
 42
0.9999999999999998
 43
0.9999999999999998
 50
300.0
  0
ENDBLK
  5
C8F
  8
0
  0
BLOCK
  8
0
  2
*X12
 70
     1
 10
0.0
 20
0.0
 30
0.0
  3
*X12
  1

  0
LINE
  5
D37
  8
0
 62
     0
 10
89.231404828938025
 20
40.845378426329638
 30
0.0
 11
88.028764739500389
 21
41.167624867079738
 31
0.0
  0
LINE
  5
D38
  8
0
 62
     0
 10
86.609826438852593
 20
40.286085393973117
 30
0.0
 11
86.536106927491559
 21
40.305838477508729
 31
0.0
  0
LINE
  5
D39
  8
0
 62
     0
 10
90.093191218511677
 20
39.352720614320447
 30
0.0
 11
86.609826438852721
 21
40.286085393973082
 31
0.0
  0
LINE
  5
D3A
  8
0
 62
     0
 10
87.47161282841769
 20
38.793427581966263
 30
0.0
 11
85.043449115481295
 21
39.444052087938118
 31
0.0
  0
LINE
  5
D3B
  8
0
 62
     0
 10
90.88260471229917
 20
37.879455061291097
 30
0.0
 11
87.471612828422295
 21
38.79342758196502
 31
0.0
  0
LINE
  5
D3C
  8
0
 62
     0
 10
86.173716309133155
 20
37.879455061292923
 30
0.0
 11
84.850034438339208
 21
38.23413454960788
 31
0.0
  0
LINE
  5
D3D
  8
0
 62
     0
 10
90.197726405039006
 20
37.879455061291083
 30
0.0
 11
90.434216388169403
 21
38.76204769381485
 31
0.0
  0
LINE
  5
D3E
  8
0
 62
     0
 10
88.935983560164246
 20
37.879455061291083
 30
0.0
 11
89.572429998597627
 21
40.254705505820787
 31
0.0
  0
LINE
  5
D3F
  8
0
 62
     0
 10
87.777278829373756
 20
38.26399853816983
 30
0.0
 11
88.65166637818939
 21
41.527257295855371
 31
0.0
  0
LINE
  5
D40
  8
0
 62
     0
 10
87.674240715289926
 20
37.879455061292902
 30
0.0
 11
87.777278829372094
 21
38.263998538163612
 31
0.0
  0
LINE
  5
D41
  8
0
 62
     0
 10
86.91549243980306
 20
39.756656350179867
 30
0.0
 11
87.159008566180958
 21
40.665470906284611
 31
0.0
  0
LINE
  5
D42
  8
0
 62
     0
 10
86.412497870415137
 20
37.879455061292902
 30
0.0
 11
86.915492439802605
 21
39.756656350178162
 31
0.0
  0
LINE
  5
D43
  8
0
 62
     0
 10
85.150755025540349
 20
37.879455061292902
 30
0.0
 11
85.666350754172797
 21
39.803684516714704
 31
0.0
  0
ENDBLK
  5
D45
  8
0
  0
BLOCK
  8
0
  2
*X13
 70
     1
 10
0.0
 20
0.0
 30
0.0
  3
*X13
  1

  0
LINE
  5
D47
  8
0
 62
     0
 10
219.63573049128331
 20
98.482182936485074
 30
0.0
 11
218.4330904018457
 21
98.804429377235152
 31
0.0
  0
LINE
  5
D48
  8
0
 62
     0
 10
217.01415210119791
 20
97.922889904128553
 30
0.0
 11
216.9404325898368
 21
97.942642987664158
 31
0.0
  0
LINE
  5
D49
  8
0
 62
     0
 10
220.49751688085689
 20
96.989525124475904
 30
0.0
 11
217.01415210119799
 21
97.922889904128525
 31
0.0
  0
LINE
  5
D4A
  8
0
 62
     0
 10
217.87593849076291
 20
96.430232092121699
 30
0.0
 11
215.44777477782651
 21
97.080856598093561
 31
0.0
  0
LINE
  5
D4B
  8
0
 62
     0
 10
221.28693037464461
 20
95.516259571446497
 30
0.0
 11
217.8759384907676
 21
96.430232092120463
 31
0.0
  0
LINE
  5
D4C
  8
0
 62
     0
 10
216.5780419714786
 20
95.516259571448302
 30
0.0
 11
215.25436010068449
 21
95.870939059763316
 31
0.0
  0
LINE
  5
D4D
  8
0
 62
     0
 10
220.60205206738431
 20
95.516259571446511
 30
0.0
 11
220.83854205051469
 21
96.398852203970279
 31
0.0
  0
LINE
  5
D4E
  8
0
 62
     0
 10
219.34030922250949
 20
95.516259571446511
 30
0.0
 11
219.9767556609429
 21
97.891510015976252
 31
0.0
  0
LINE
  5
D4F
  8
0
 62
     0
 10
218.18160449171901
 20
95.900803048325244
 30
0.0
 11
219.0559920405347
 21
99.164061806010807
 31
0.0
  0
LINE
  5
D50
  8
0
 62
     0
 10
218.07856637763521
 20
95.516259571448344
 30
0.0
 11
218.18160449171739
 21
95.900803048319034
 31
0.0
  0
LINE
  5
D51
  8
0
 62
     0
 10
217.31981810214839
 20
97.393460860335296
 30
0.0
 11
217.56333422852629
 21
98.302275416440011
 31
0.0
  0
LINE
  5
D52
  8
0
 62
     0
 10
216.8168235327604
 20
95.516259571448344
 30
0.0
 11
217.31981810214791
 21
97.39346086033359
 31
0.0
  0
LINE
  5
D53
  8
0
 62
     0
 10
215.55508068788561
 20
95.516259571448344
 30
0.0
 11
216.0706764165181
 21
97.440489026870125
 31
0.0
  0
ENDBLK
  5
D55
  8
0
  0
BLOCK
  8
0
  2
*U14
 70
     1
 10
0.0
 20
0.0
 30
0.0
  3
*U14
  1

  0
TEXT
  5
D5C
  8
0
 10
1.797130346690486
 20
7.5814666174979797
 30
0.0
 40
20.0
  1
WBK17
  7
DUKI7
  0
ENDBLK
  5
D5E
  8
0
  0
BLOCK
  8
0
  2
*U15
 70
     1
 10
0.0
 20
0.0
 30
0.0
  3
*U15
  1

  0
TEXT
  5
D60
  8
0
 10
161.5178046304643
 20
-22.449531010630601
 30
0.0
 40
20.0
  1
WBK25-DFF
  7
DUKI7
  0
ENDBLK
  5
D62
  8
0
  0
ENDSEC
  0
SECTION
  2
ENTITIES
  0
LINE
  5
2B0
  8
CENTER
  6
CENTER
 10
92.416423499470284
 20
153.86371190533899
 30
0.0
 11
92.416423499470298
 21
13.668848785671109
 31
0.0
  0
LINE
  5
2B4
  8
CENTER
  6
CENTER
 10
152.06172975404729
 20
83.766280345505095
 30
0.0
 11
32.771117244893297
 21
83.766280345505109
 31
0.0
  0
LINE
  5
30E
  8
CENTER
 10
334.74150395118858
 20
83.766259571445588
 30
0.0
 11
194.89191036663669
 21
83.766259571445588
 31
0.0
  0
LINE
  5
41E
  8
CENTER
  6
CENTER
 10
375.61492708053731
 20
143.76628034550509
 30
0.0
 11
375.61492708053731
 21
23.76628034550512
 31
0.0
  0
LINE
  5
41F
  8
CENTER
  6
CENTER
 10
425.61491708053751
 20
83.766280345505109
 30
0.0
 11
375.61492708053743
 21
83.766280345505109
 31
0.0
  0
ARC
  5
5A7
  8
0
 10
92.416423499470284
 20
83.766280345505109
 30
0.0
 40
65.0
 50
219.71513723182619
 51
320.28486276817381
  0
ARC
  5
5B0
  8
0
 10
92.416423499470284
 20
83.766280345505109
 30
0.0
 40
65.0
 50
39.715137231826212
 51
140.28486276817381
  0
LINE
  5
5B1
  8
0
 10
142.41642349947031
 20
125.2993996600954
 30
0.0
 11
142.41642349947031
 21
42.233161030914729
 31
0.0
  0
LINE
  5
5B2
  8
0
 10
42.416423499470277
 20
42.233161030914758
 30
0.0
 11
42.416423499470291
 21
125.2993996600955
 31
0.0
  0
CIRCLE
  5
5B5
  8
CENTER
 10
92.416423499470298
 20
83.766280345505109
 30
0.0
 40
55.0
  0
CIRCLE
  5
5B6
  8
0
 10
92.416423499470298
 20
83.766280345505109
 30
0.0
 40
45.0
  0
CIRCLE
  5
5B7
  8
CENTER
 10
92.416423499470298
 20
83.766280345505109
 30
0.0
 40
36.5
  0
CIRCLE
  5
5B8
  8
0
 10
92.416423499470298
 20
83.766280345505109
 30
0.0
 40
28.5
  0
CIRCLE
  5
5B9
  8
0
 10
92.416423499470298
 20
83.766280345505109
 30
0.0
 40
27.5
  0
CIRCLE
  5
5BA
  8
0
 10
92.416423499470298
 20
83.766280345505109
 30
0.0
 40
24.0
  0
LINE
  5
5BB
  8
CENTER
 10
115.5473956553769
 20
94.552429802374391
 30
0.0
 11
136.5113515269035
 21
104.3280829704907
 31
0.0
  0
CIRCLE
  5
5C2
  8
0
 10
125.496657726308
 20
99.191846899040641
 30
0.0
 40
7.0
  0
CIRCLE
  5
5C3
  8
0
 10
125.496657726308
 20
99.191846899040641
 30
0.0
 40
6.0
  0
LINE
  5
5C8
  8
0
 10
122.471657726308
 20
97.431342709894807
 30
0.0
 11
122.471657726308
 21
100.9523510881864
 31
0.0
  0
LINE
  5
5C9
  8
0
 10
122.471657726308
 20
97.431342709894807
 30
0.0
 11
122.471657726308
 21
100.9523510881864
 31
0.0
  0
LINE
  5
5CA
  8
0
 10
128.52165772630801
 20
97.431342709894864
 30
0.0
 11
128.52165772630801
 21
100.9523510881864
 31
0.0
  0
LINE
  5
5CD
  8
0
 10
122.471657726308
 20
100.9523510881865
 30
0.0
 11
125.496657726308
 21
102.6918468990406
 31
0.0
  0
LINE
  5
5CE
  8
0
 10
125.496657726308
 20
102.6918468990406
 30
0.0
 11
128.52165772630801
 21
100.9523510881864
 31
0.0
  0
LINE
  5
5CF
  8
0
 10
122.471657726308
 20
97.431342709894793
 30
0.0
 11
125.496657726308
 21
95.691846899040641
 31
0.0
  0
LINE
  5
5D0
  8
0
 10
125.496657726308
 20
95.691846899040641
 30
0.0
 11
128.52165772630809
 21
97.431342709894906
 31
0.0
  0
CIRCLE
  5
5D3
  8
0
 10
92.416423499470284
 20
120.26628034550509
 30
0.0
 40
7.0
  0
CIRCLE
  5
5D4
  8
0
 10
92.416423499470284
 20
120.26628034550509
 30
0.0
 40
6.0
  0
LINE
  5
5D5
  8
0
 10
95.441423499470318
 20
118.5057761563593
 30
0.0
 11
95.441423499470275
 21
122.0267845346509
 31
0.0
  0
LINE
  5
5D6
  8
0
 10
89.391423499470278
 20
118.5057761563593
 30
0.0
 11
89.391423499470278
 21
122.0267845346509
 31
0.0
  0
LINE
  5
5D7
  8
0
 10
89.391423499470278
 20
118.5057761563593
 30
0.0
 11
89.391423499470278
 21
122.0267845346509
 31
0.0
  0
LINE
  5
5D8
  8
0
 10
89.391423499470307
 20
122.0267845346509
 30
0.0
 11
92.416423499470284
 21
123.76628034550509
 31
0.0
  0
LINE
  5
5D9
  8
0
 10
92.416423499470284
 20
123.76628034550509
 30
0.0
 11
95.441423499470318
 21
122.0267845346509
 31
0.0
  0
LINE
  5
5DA
  8
0
 10
89.391423499470307
 20
118.5057761563592
 30
0.0
 11
92.416423499470284
 21
116.76628034550509
 31
0.0
  0
LINE
  5
5DB
  8
0
 10
92.416423499470284
 20
116.76628034550509
 30
0.0
 11
95.441423499470346
 21
118.5057761563593
 31
0.0
  0
CIRCLE
  5
5DC
  8
0
 10
92.416423499470284
 20
47.266280345505102
 30
0.0
 40
7.0
  0
CIRCLE
  5
5DD
  8
0
 10
92.416423499470284
 20
47.266280345505102
 30
0.0
 40
6.0
  0
LINE
  5
5DE
  8
0
 10
95.441423499470318
 20
49.026784534650893
 30
0.0
 11
95.441423499470275
 21
45.505776156359268
 31
0.0
  0
LINE
  5
5DF
  8
0
 10
89.391423499470278
 20
49.026784534650943
 30
0.0
 11
89.391423499470278
 21
45.505776156359268
 31
0.0
  0
LINE
  5
5E0
  8
0
 10
89.391423499470278
 20
49.026784534650943
 30
0.0
 11
89.391423499470278
 21
45.505776156359268
 31
0.0
  0
LINE
  5
5E1
  8
0
 10
89.391423499470307
 20
45.505776156359254
 30
0.0
 11
92.416423499470284
 21
43.766280345505109
 31
0.0
  0
LINE
  5
5E2
  8
0
 10
92.416423499470284
 20
43.766280345505109
 30
0.0
 11
95.441423499470318
 21
45.505776156359317
 31
0.0
  0
LINE
  5
5E3
  8
0
 10
89.391423499470307
 20
49.026784534650957
 30
0.0
 11
92.416423499470284
 21
50.766280345505109
 31
0.0
  0
LINE
  5
5E4
  8
0
 10
92.416423499470284
 20
50.766280345505109
 30
0.0
 11
95.441423499470346
 21
49.026784534650837
 31
0.0
  0
LINE
  5
5E5
  8
CENTER
 10
115.5473956553769
 20
72.980130888635813
 30
0.0
 11
136.5113515269035
 21
63.204477720519492
 31
0.0
  0
CIRCLE
  5
5E6
  8
0
 10
125.496657726308
 20
68.340713791969563
 30
0.0
 40
7.0
  0
CIRCLE
  5
5E7
  8
0
 10
125.496657726308
 20
68.340713791969563
 30
0.0
 40
6.0
  0
LINE
  5
5E8
  8
0
 10
128.52165772630801
 20
70.10121798111534
 30
0.0
 11
128.52165772630801
 21
66.580209602823729
 31
0.0
  0
LINE
  5
5E9
  8
0
 10
122.471657726308
 20
70.101217981115397
 30
0.0
 11
122.471657726308
 21
66.580209602823729
 31
0.0
  0
LINE
  5
5EA
  8
0
 10
122.471657726308
 20
70.101217981115397
 30
0.0
 11
122.471657726308
 21
66.580209602823729
 31
0.0
  0
LINE
  5
5EB
  8
0
 10
122.471657726308
 20
66.580209602823714
 30
0.0
 11
125.496657726308
 21
64.840713791969563
 31
0.0
  0
LINE
  5
5EC
  8
0
 10
125.496657726308
 20
64.840713791969563
 30
0.0
 11
128.52165772630801
 21
66.580209602823771
 31
0.0
  0
LINE
  5
5ED
  8
0
 10
122.471657726308
 20
70.101217981115411
 30
0.0
 11
125.496657726308
 21
71.840713791969563
 31
0.0
  0
LINE
  5
5EE
  8
0
 10
125.496657726308
 20
71.840713791969563
 30
0.0
 11
128.52165772630809
 21
70.101217981115298
 31
0.0
  0
LINE
  5
5EF
  8
CENTER
 10
69.285451343563679
 20
94.552429802374363
 30
0.0
 11
48.321495472037071
 21
104.3280829704906
 31
0.0
  0
CIRCLE
  5
5F0
  8
0
 10
59.336189272632573
 20
99.191846899040627
 30
0.0
 40
7.0
  0
CIRCLE
  5
5F1
  8
0
 10
59.336189272632573
 20
99.191846899040627
 30
0.0
 40
6.0
  0
LINE
  5
5F2
  8
0
 10
56.311189272632532
 20
97.431342709894835
 30
0.0
 11
56.311189272632561
 21
100.9523510881864
 31
0.0
  0
LINE
  5
5F3
  8
0
 10
62.361189272632572
 20
97.431342709894793
 30
0.0
 11
62.361189272632572
 21
100.9523510881864
 31
0.0
  0
LINE
  5
5F4
  8
0
 10
62.361189272632572
 20
97.431342709894793
 30
0.0
 11
62.361189272632572
 21
100.9523510881864
 31
0.0
  0
LINE
  5
5F5
  8
0
 10
62.361189272632537
 20
100.9523510881864
 30
0.0
 11
59.336189272632573
 21
102.6918468990406
 31
0.0
  0
LINE
  5
5F6
  8
0
 10
59.336189272632573
 20
102.6918468990406
 30
0.0
 11
56.311189272632532
 21
100.9523510881864
 31
0.0
  0
LINE
  5
5F7
  8
0
 10
62.361189272632537
 20
97.431342709894764
 30
0.0
 11
59.336189272632573
 21
95.691846899040598
 31
0.0
  0
LINE
  5
5F8
  8
0
 10
59.336189272632573
 20
95.691846899040598
 30
0.0
 11
56.311189272632497
 21
97.431342709894878
 31
0.0
  0
LINE
  5
5F9
  8
CENTER
 10
69.285451343563707
 20
72.980130888635784
 30
0.0
 11
48.3214954720371
 21
63.204477720519449
 31
0.0
  0
CIRCLE
  5
5FA
  8
0
 10
59.336189272632573
 20
68.340713791969534
 30
0.0
 40
7.0
  0
CIRCLE
  5
5FB
  8
0
 10
59.336189272632573
 20
68.340713791969534
 30
0.0
 40
6.0
  0
LINE
  5
5FC
  8
0
 10
56.311189272632532
 20
70.101217981115312
 30
0.0
 11
56.311189272632582
 21
66.5802096028237
 31
0.0
  0
LINE
  5
5FD
  8
0
 10
62.361189272632572
 20
70.101217981115369
 30
0.0
 11
62.3611892726326
 21
66.5802096028237
 31
0.0
  0
LINE
  5
5FE
  8
0
 10
62.361189272632572
 20
70.101217981115369
 30
0.0
 11
62.3611892726326
 21
66.5802096028237
 31
0.0
  0
LINE
  5
5FF
  8
0
 10
62.361189272632572
 20
66.580209602823686
 30
0.0
 11
59.336189272632602
 21
64.840713791969534
 31
0.0
  0
LINE
  5
600
  8
0
 10
59.336189272632602
 20
64.840713791969534
 30
0.0
 11
56.311189272632561
 21
66.580209602823743
 31
0.0
  0
LINE
  5
601
  8
0
 10
62.361189272632537
 20
70.101217981115383
 30
0.0
 11
59.336189272632573
 21
71.840713791969534
 31
0.0
  0
LINE
  5
602
  8
0
 10
59.336189272632573
 20
71.840713791969534
 30
0.0
 11
56.311189272632497
 21
70.101217981115255
 31
0.0
  0
LINE
  5
603
  8
CENTER
 10
113.35881109391821
 20
104.7086679399531
 30
0.0
 11
141.9749231728012
 21
133.32478001883601
 31
0.0
  0
LINE
  5
609
  8
CENTER
 10
113.35881109391821
 20
62.823892751057123
 30
0.0
 11
141.9749231728012
 21
34.207780672174209
 31
0.0
  0
LINE
  5
60A
  8
CENTER
 10
71.474035905022319
 20
104.7086679399531
 30
0.0
 11
42.857923826139398
 21
133.32478001883601
 31
0.0
  0
LINE
  5
60B
  8
CENTER
 10
71.474035905022319
 20
62.82389275105713
 30
0.0
 11
42.857923826139427
 21
34.207780672174188
 31
0.0
  0
CIRCLE
  5
60C
  8
0
 10
131.3072964647304
 20
122.6571533107652
 30
0.0
 40
8.75
  0
CIRCLE
  5
60D
  8
0
 10
131.3072964647304
 20
122.6571533107652
 30
0.0
 40
5.5
  0
CIRCLE
  5
60E
  8
0
 10
92.416423499470284
 20
138.76628034550509
 30
0.0
 40
8.75
  0
CIRCLE
  5
60F
  8
0
 10
92.416423499470284
 20
138.76628034550509
 30
0.0
 40
5.5
  0
CIRCLE
  5
610
  8
0
 10
53.525550534210183
 20
122.6571533107652
 30
0.0
 40
8.75
  0
CIRCLE
  5
611
  8
0
 10
53.525550534210183
 20
122.6571533107652
 30
0.0
 40
5.5
  0
CIRCLE
  5
612
  8
0
 10
53.525550534210211
 20
44.87540738024498
 30
0.0
 40
8.75
  0
CIRCLE
  5
613
  8
0
 10
53.525550534210211
 20
44.87540738024498
 30
0.0
 40
5.5
  0
CIRCLE
  5
614
  8
0
 10
92.416423499470298
 20
28.766280345505109
 30
0.0
 40
8.75
  0
CIRCLE
  5
615
  8
0
 10
92.416423499470298
 20
28.766280345505109
 30
0.0
 40
5.5
  0
CIRCLE
  5
616
  8
0
 10
131.3072964647304
 20
44.87540738024498
 30
0.0
 40
8.75
  0
CIRCLE
  5
617
  8
0
 10
131.3072964647304
 20
44.87540738024498
 30
0.0
 40
5.5
  0
ARC
  5
618
  8
HIDE
 10
118.22582101277921
 20
109.5756778588141
 30
0.0
 40
3.0
 50
214.2163797337563
 51
120.1909666333014
  0
CIRCLE
  5
61C
  8
0
 10
118.22582101277921
 20
109.5756778588141
 30
0.0
 40
2.5
  0
ARC
  5
61D
  8
HIDE
 10
118.22582101277921
 20
57.956882832196108
 30
0.0
 40
3.0
 50
239.80903336669829
 51
145.78362026624319
  0
CIRCLE
  5
61E
  8
0
 10
118.22582101277921
 20
57.956882832196108
 30
0.0
 40
2.5
  0
ARC
  5
61F
  8
HIDE
 10
66.60702598616129
 20
109.5756778588141
 30
0.0
 40
3.0
 50
59.809033366699012
 51
325.7836202662437
  0
CIRCLE
  5
620
  8
0
 10
66.60702598616129
 20
109.5756778588141
 30
0.0
 40
2.5
  0
ARC
  5
621
  8
HIDE
 10
66.60702598616129
 20
57.956882832196108
 30
0.0
 40
3.0
 50
34.216379733756654
 51
300.190966633301
  0
CIRCLE
  5
622
  8
0
 10
66.60702598616129
 20
57.956882832196108
 30
0.0
 40
2.5
  0
LINE
  5
63D
  8
0
 10
261.46505457025052
 20
148.76628034550509
 30
0.0
 11
277.46505457025057
 21
148.76628034550509
 31
0.0
  0
LINE
  5
640
  8
HIDE
 10
230.46505457025049
 20
96.266280345505081
 30
0.0
 11
248.46505457025049
 21
96.266280345505081
 31
0.0
  0
LINE
  5
643
  8
0
 10
260.46505457025052
 20
128.7662595714456
 30
0.0
 11
260.46505457025052
 21
147.76628034550509
 31
0.0
  0
LINE
  5
644
  8
0
 10
278.46505457025057
 20
126.2662595714456
 30
0.0
 11
278.46505457025057
 21
147.76628034550509
 31
0.0
  0
LINE
  5
645
  8
0
 10
260.46505457025052
 20
147.76628034550509
 30
0.0
 11
261.46505457025052
 21
148.76628034550509
 31
0.0
  0
LINE
  5
646
  8
0
 10
278.46505457025057
 20
147.76628034550509
 30
0.0
 11
277.46505457025057
 21
148.76628034550509
 31
0.0
  0
LINE
  5
648
  8
0
 10
325.46505457025057
 20
126.2662595714456
 30
0.0
 11
278.46505457025052
 21
126.2662595714456
 31
0.0
  0
LINE
  5
649
  8
0
 10
326.46505457025057
 20
83.766259571445659
 30
0.0
 11
326.46505457025057
 21
125.2662595714456
 31
0.0
  0
LINE
  5
64A
  8
0
 10
325.46505457025057
 20
126.2662595714456
 30
0.0
 11
326.46505457025057
 21
125.2662595714456
 31
0.0
  0
LINE
  5
64C
  8
0
 10
260.46505457025057
 20
128.7662595714456
 30
0.0
 11
231.46505457025049
 21
128.7662595714456
 31
0.0
  0
LINE
  5
64D
  8
0
 10
230.4650545702506
 20
83.766259571445588
 30
0.0
 11
230.46505457025049
 21
127.7662595714456
 31
0.0
  0
LINE
  5
64E
  8
0
 10
230.46505457025049
 20
127.7662595714456
 30
0.0
 11
231.46505457025049
 21
128.7662595714456
 31
0.0
  0
LINE
  5
64F
  8
HIDE
 10
245.46505457025049
 20
128.7662595714456
 30
0.0
 11
245.46505457025049
 21
114.7662595714456
 31
0.0
  0
LINE
  5
650
  8
CENTER
 10
255.46505457025049
 20
138.76628034550501
 30
0.0
 11
283.46505457025057
 21
138.76628034550501
 31
0.0
  0
LINE
  5
653
  8
HIDE
 10
260.46505457025052
 20
147.51628034550509
 30
0.0
 11
271.46505457025052
 21
147.51628034550509
 31
0.0
  0
LINE
  5
654
  8
HIDE
 10
260.46505457025052
 20
130.01628034550509
 30
0.0
 11
271.46505457025052
 21
130.01628034550509
 31
0.0
  0
LINE
  5
655
  8
HIDE
 10
271.46505457025052
 20
144.26628034550509
 30
0.0
 11
278.46505457025057
 21
144.26628034550509
 31
0.0
  0
LINE
  5
656
  8
HIDE
 10
271.46505457025052
 20
133.26628034550509
 30
0.0
 11
278.46505457025057
 21
133.26628034550509
 31
0.0
  0
LINE
  5
659
  8
HIDE
 10
271.46505457025052
 20
147.51628034550509
 30
0.0
 11
271.46505457025052
 21
130.01628034550509
 31
0.0
  0
LINE
  5
65A
  8
HIDE
 10
308.46505457025069
 20
114.7662595714456
 30
0.0
 11
245.46505457025069
 21
114.7662595714456
 31
0.0
  0
LINE
  5
674
  8
CENTER
  6
CENTER
 10
261.63751457025228
 20
102.6173680923303
 30
0.0
 11
250.2925845702494
 21
109.16736809233321
 31
0.0
  0
CIRCLE
  5
675
  8
HIDE
 10
255.96505457025069
 20
105.8924180923304
 30
0.0
 40
3.1749990000000001
  0
LINE
  5
676
  8
HIDE
 10
263.46505457025069
 20
109.3924180923304
 30
0.0
 11
257.36705457024891
 21
109.3924180923304
 31
0.0
  0
LINE
  5
677
  8
CENTER
  6
CENTER
 10
291.63745457025021
 20
109.1673780923329
 30
0.0
 11
280.29253457025061
 21
102.6173880923334
 31
0.0
  0
ARC
  5
678
  8
HIDE
 10
284.56304457024908
 20
108.8924180923305
 30
0.0
 40
0.5
 50
5.003720000016588
 51
90.000018000116455
  0
CIRCLE
  5
679
  8
HIDE
 10
285.96505457025069
 20
105.8924180923304
 30
0.0
 40
3.1749990000000001
  0
LINE
  5
67A
  8
HIDE
 10
292.96505457025069
 20
102.8924180923304
 30
0.0
 11
287.00457457024908
 21
102.8924180923304
 31
0.0
  0
LINE
  5
67E
  8
HIDE
 10
282.79004457025172
 20
105.8924180923304
 30
0.0
 11
278.96505457025069
 21
105.8924180923304
 31
0.0
  0
LINE
  5
67F
  8
HIDE
 10
284.56304457024908
 20
109.3924180923304
 30
0.0
 11
278.46505457025069
 21
109.3924180923304
 31
0.0
  0
LINE
  5
680
  8
HIDE
 10
262.96505457025069
 20
105.8924180923304
 30
0.0
 11
259.14005457025002
 21
105.8924180923304
 31
0.0
  0
LINE
  5
681
  8
HIDE
 10
254.9255345702523
 20
102.8924180923304
 30
0.0
 11
248.96505457025069
 21
102.8924180923304
 31
0.0
  0
LINE
  5
682
  8
HIDE
 10
252.79006457025119
 20
105.8924180923304
 30
0.0
 11
248.96505457025069
 21
105.8924180923304
 31
0.0
  0
ARC
  5
683
  8
HIDE
 10
257.36705457024891
 20
108.8924180923305
 30
0.0
 40
0.5
 50
90.000018000116455
 51
174.9962780000819
  0
ARC
  5
684
  8
HIDE
 10
263.96505457025052
 20
102.3924180923305
 30
0.0
 40
0.5
 50
90.000018000116455
 51
179.99996399997551
  0
ARC
  5
685
  8
HIDE
 10
263.96505457025052
 20
106.3924180923304
 30
0.0
 40
0.5
 50
179.99995999999589
 51
269.9999800001022
  0
ARC
  5
68E
  8
HIDE
 10
262.96505472733139
 20
105.3924180923305
 30
0.0
 40
0.5
 50
0.0000400000040257
 51
90.000018000116455
  0
ARC
  5
68F
  8
HIDE
 10
278.96505472733128
 20
105.3924180923305
 30
0.0
 40
0.5
 50
90.000018000116455
 51
180.0
  0
LINE
  5
690
  8
HIDE
 10
278.46505457025069
 20
113.7662595714457
 30
0.0
 11
278.46505457025069
 21
97.266280345505095
 31
0.0
  0
LINE
  5
692
  8
HIDE
 10
263.46505457025069
 20
113.7662595714457
 30
0.0
 11
263.46505457025069
 21
97.266279647373253
 31
0.0
  0
LINE
  5
69D
  8
HIDE
 10
263.46505457025052
 20
114.7662595714456
 30
0.0
 11
263.46505457025052
 21
97.266279647373253
 31
0.0
  0
ARC
  5
6B1
  8
HIDE
 10
279.46505457025069
 20
97.266280345505095
 30
0.0
 40
1.0
 50
180.0
 51
269.9999800001022
  0
ARC
  5
6B2
  8
HIDE
 10
262.46505457025052
 20
97.266280345504995
 30
0.0
 40
1.0
 50
269.9999800001022
 51
359.99995999999589
  0
ARC
  5
6B6
  8
HIDE
 10
279.46505457025069
 20
113.7662595714457
 30
0.0
 40
1.0
 50
90.000018000116455
 51
180.0
  0
ARC
  5
6B7
  8
HIDE
 10
262.46505457025052
 20
113.7662595714457
 30
0.0
 40
1.0
 50
0.0000400000040257
 51
90.000018000116455
  0
ARC
  5
6B8
  8
HIDE
 10
264.4650545702504
 20
97.266280345504995
 30
0.0
 40
1.0
 50
180.0
 51
269.9999800001022
  0
ARC
  5
6B9
  8
HIDE
 10
264.4650545702504
 20
113.7662595714457
 30
0.0
 40
1.0
 50
90.000018000116455
 51
179.99996399997551
  0
ARC
  5
6BA
  8
HIDE
 10
277.46505457025029
 20
97.266279647373253
 30
0.0
 40
1.0
 50
270.0
 51
0.0000400000040257
  0
ARC
  5
6BB
  8
HIDE
 10
264.46505457025029
 20
97.266279647373253
 30
0.0
 40
1.0
 50
180.0
 51
269.9999800001022
  0
ARC
  5
6BC
  8
HIDE
 10
277.46505457025029
 20
113.7662588733138
 30
0.0
 40
1.0
 50
0.0000400000040257
 51
90.000018000116455
  0
ARC
  5
6BD
  8
HIDE
 10
264.46505457025029
 20
113.7662588733138
 30
0.0
 40
1.0
 50
90.000018000116455
 51
180.0
  0
LINE
  5
6BE
  8
HIDE
 10
307.46505457025069
 20
96.266280345505095
 30
0.0
 11
326.46505457025069
 21
96.266280345505095
 31
0.0
  0
LINE
  5
6BF
  8
HIDE
 10
279.46505457025069
 20
96.266280345505095
 30
0.0
 11
292.46505457025069
 21
96.266280345505095
 31
0.0
  0
LINE
  5
6C0
  8
HIDE
 10
264.46387293442979
 20
96.266280345505095
 30
0.0
 11
277.46623620607818
 21
96.266280345505095
 31
0.0
  0
LINE
  5
6C3
  8
HIDE
 10
249.46505457025049
 20
96.266280345505095
 30
0.0
 11
262.46505457025052
 21
96.266280345505095
 31
0.0
  0
LINE
  5
6C8
  8
HIDE
 10
230.4650545702506
 20
101.5162595714456
 30
0.0
 11
248.46505457025049
 21
101.5162595714456
 31
0.0
  0
LINE
  5
6C9
  8
HIDE
 10
230.4650545702506
 20
112.26628034550509
 30
0.0
 11
234.46505457025049
 21
112.26628034550509
 31
0.0
  0
LINE
  5
6CA
  8
HIDE
 10
234.46505457025049
 20
111.26628034550509
 30
0.0
 11
244.46505457025049
 21
111.26628034550509
 31
0.0
  0
LINE
  5
6CB
  8
HIDE
 10
244.46505457025049
 20
107.76628034550509
 30
0.0
 11
248.46505457025049
 21
107.76628034550509
 31
0.0
  0
LINE
  5
6CC
  8
HIDE
 10
234.46505457025049
 20
101.5162595714456
 30
0.0
 11
234.46505457025049
 21
112.26628034550509
 31
0.0
  0
LINE
  5
6CD
  8
HIDE
 10
244.46505457025049
 20
101.5162595714456
 30
0.0
 11
244.46505457025049
 21
111.26628034550509
 31
0.0
  0
LINE
  5
6D1
  8
HIDE
 10
322.46505457025057
 20
101.5162595714457
 30
0.0
 11
322.46505457025057
 21
112.26628034550519
 31
0.0
  0
LINE
  5
6D2
  8
HIDE
 10
312.46505457025057
 20
101.5162595714456
 30
0.0
 11
312.46505457025057
 21
111.26628034550519
 31
0.0
  0
LINE
  5
6D3
  8
HIDE
 10
326.46505457025057
 20
101.5162595714457
 30
0.0
 11
308.46505457025069
 21
101.5162595714456
 31
0.0
  0
LINE
  5
6D4
  8
HIDE
 10
326.46505457025052
 20
112.26628034550519
 30
0.0
 11
322.46505457025057
 21
112.26628034550519
 31
0.0
  0
LINE
  5
6D5
  8
HIDE
 10
322.46505457025057
 20
111.26628034550519
 30
0.0
 11
312.46505457025057
 21
111.26628034550519
 31
0.0
  0
LINE
  5
6D6
  8
HIDE
 10
312.46505457025057
 20
107.76628034550519
 30
0.0
 11
308.46505457025057
 21
107.76628034550509
 31
0.0
  0
ARC
  5
6E8
  8
0
 10
375.61492708053731
 20
83.766280345505109
 30
0.0
 40
12.5
 50
270.0
 51
90.0
  0
ARC
  5
6E9
  8
0
 10
375.61492708053731
 20
83.766280345505109
 30
0.0
 40
28.5
 50
270.0
 51
90.0
  0
ARC
  5
6EA
  8
CENTER
 10
375.61492708053731
 20
83.766280345505109
 30
0.0
 40
35.0
 50
270.0
 51
90.0
  0
ARC
  5
6EB
  8
0
 10
375.61492708053731
 20
83.766280345505109
 30
0.0
 40
42.5
 50
270.0
 51
90.0
  0
ARC
  5
6EF
  8
0
 10
375.61492708053731
 20
83.766280345505109
 30
0.0
 40
27.500000000000099
 50
270.0
 51
90.0
  0
ARC
  5
6F0
  8
0
 10
375.61492708053731
 20
83.766280345505109
 30
0.0
 40
24.000000000000071
 50
270.0
 51
90.0
  0
ARC
  5
6F2
  8
0
 10
375.61492708053743
 20
83.766280345505109
 30
0.0
 40
17.749979225940582
 50
269.99999999999977
 51
90.000000000000185
  0
LINE
  5
6F3
  8
CENTER
 10
397.01021758943659
 20
105.1615708544043
 30
0.0
 11
404.34441705189153
 21
112.49577031685931
 31
0.0
  0
ARC
  5
6F4
  8
HIDE
 10
400.36366442206651
 20
108.5150176870342
 30
0.0
 40
3.0
 50
215.24317242610809
 51
123.5778353936285
  0
CIRCLE
  5
6F9
  8
0
 10
400.36366442206651
 20
108.5150176870342
 30
0.0
 40
2.5
  0
LINE
  5
6FA
  8
CENTER
 10
397.01021758943659
 20
62.370989836605901
 30
0.0
 11
404.34441705189153
 21
55.036790374150947
 31
0.0
  0
ARC
  5
6FB
  8
HIDE
 10
400.36366442206651
 20
59.01754300397598
 30
0.0
 40
3.0
 50
236.4221646063715
 51
144.75682757389251
  0
CIRCLE
  5
6FC
  8
0
 10
400.36366442206651
 20
59.01754300397603
 30
0.0
 40
2.5
  0
LINE
  5
6FD
  8
CENTER
 10
330.22728625887078
 20
118.76628034550509
 30
0.0
 11
309.19069028073773
 21
118.76628034550509
 31
0.0
  0
LINE
  5
6FE
  8
HIDE
 10
326.46505457025052
 20
121.76628034550509
 30
0.0
 11
318.33107997403499
 21
121.76628034550509
 31
0.0
  0
LINE
  5
6FF
  8
HIDE
 10
326.46505457025052
 20
115.76628034550509
 30
0.0
 11
318.33107997403499
 21
115.76628034550509
 31
0.0
  0
LINE
  5
700
  8
HIDE
 10
317.46505457025069
 20
116.26628034550509
 30
0.0
 11
317.46505457025057
 21
121.26628034550509
 31
0.0
  0
LINE
  5
701
  8
HIDE
 10
313.46505457025057
 20
116.26628034550509
 30
0.0
 11
313.46505457025057
 21
121.26628034550509
 31
0.0
  0
LINE
  5
702
  8
HIDE
 10
326.46505457025057
 20
121.26628034550509
 30
0.0
 11
313.46505457025057
 21
121.26628034550509
 31
0.0
  0
LINE
  5
703
  8
HIDE
 10
326.46505457025052
 20
116.26628034550509
 30
0.0
 11
313.46505457025057
 21
116.26628034550509
 31
0.0
  0
LINE
  5
706
  8
HIDE
 10
317.46505457025057
 20
121.26628034550509
 30
0.0
 11
318.33107997403499
 21
121.76628034550509
 31
0.0
  0
LINE
  5
709
  8
HIDE
 10
313.46505457025057
 20
121.26628034550509
 30
0.0
 11
312.0216788972765
 21
118.76628034550509
 31
0.0
  0
LINE
  5
72A
  8
HIDE
 10
313.46505457025057
 20
116.26628034550509
 30
0.0
 11
312.0216788972765
 21
118.76628034550509
 31
0.0
  0
LINE
  5
72B
  8
HIDE
 10
317.46505457025057
 20
116.26628034550509
 30
0.0
 11
318.33107997403499
 21
115.76628034550509
 31
0.0
  0
LINE
  5
730
  8
HIDE
 10
307.46505457025069
 20
52.766259571445559
 30
0.0
 11
245.46505457025069
 21
52.766259571445531
 31
0.0
  0
LINE
  5
731
  8
0
 10
261.46505457025057
 20
18.766238797386048
 30
0.0
 11
277.46505457025057
 21
18.766238797386048
 31
0.0
  0
LINE
  5
732
  8
0
 10
278.46505457025057
 20
19.766238797386048
 30
0.0
 11
277.46505457025057
 21
18.766238797386048
 31
0.0
  0
LINE
  5
733
  8
0
 10
260.46505457025057
 20
19.766238797386048
 30
0.0
 11
261.46505457025057
 21
18.766238797386048
 31
0.0
  0
LINE
  5
734
  8
HIDE
 10
230.4650545702506
 20
71.26623879738608
 30
0.0
 11
248.46505457025049
 21
71.266238797386094
 31
0.0
  0
LINE
  5
735
  8
HIDE
 10
249.46505457025049
 20
71.26623879738608
 30
0.0
 11
262.46505457025052
 21
71.26623879738608
 31
0.0
  0
LINE
  5
736
  8
HIDE
 10
264.46387293442979
 20
71.26623879738608
 30
0.0
 11
277.46623620607818
 21
71.266238797386094
 31
0.0
  0
LINE
  5
737
  8
HIDE
 10
279.46505457025069
 20
71.266238797386094
 30
0.0
 11
292.46505457025069
 21
71.266238797386094
 31
0.0
  0
LINE
  5
738
  8
HIDE
 10
307.46505457025069
 20
71.266238797386109
 30
0.0
 11
326.46505457025069
 21
71.266238797386109
 31
0.0
  0
LINE
  5
73A
  8
0
 10
260.46505457025057
 20
38.76625957144558
 30
0.0
 11
260.46505457025057
 21
19.766238797386048
 31
0.0
  0
LINE
  5
73B
  8
0
 10
230.4650545702506
 20
83.766259571445573
 30
0.0
 11
230.4650545702506
 21
39.766259571445559
 31
0.0
  0
LINE
  5
73E
  8
HIDE
 10
234.46505457025049
 20
66.016259571445545
 30
0.0
 11
234.46505457025049
 21
55.266238797386052
 31
0.0
  0
LINE
  5
73F
  8
HIDE
 10
244.46505457025049
 20
66.016259571445545
 30
0.0
 11
244.46505457025049
 21
56.266238797386038
 31
0.0
  0
LINE
  5
740
  8
0
 10
326.46505457025057
 20
83.766259571445545
 30
0.0
 11
326.46505457025057
 21
42.26625957144558
 31
0.0
  0
LINE
  5
741
  8
HIDE
 10
313.46505457025057
 20
51.26623879738608
 30
0.0
 11
313.46505457025057
 21
46.266238797386009
 31
0.0
  0
LINE
  5
742
  8
HIDE
 10
317.46505457025069
 20
51.266238797386059
 30
0.0
 11
317.46505457025057
 21
46.266238797386059
 31
0.0
  0
LINE
  5
743
  8
0
 10
325.46505457025057
 20
41.26625957144558
 30
0.0
 11
326.46505457025057
 21
42.26625957144558
 31
0.0
  0
LINE
  5
744
  8
0
 10
278.46505457025057
 20
41.266259571445573
 30
0.0
 11
278.46505457025057
 21
19.766238797386048
 31
0.0
  0
LINE
  5
745
  8
0
 10
325.46505457025057
 20
41.26625957144558
 30
0.0
 11
278.46505457025057
 21
41.266259571445559
 31
0.0
  0
LINE
  5
746
  8
0
 10
260.46505457025057
 20
38.766259571445602
 30
0.0
 11
231.4650545702506
 21
38.766259571445538
 31
0.0
  0
LINE
  5
747
  8
0
 10
230.4650545702506
 20
39.766259571445559
 30
0.0
 11
231.4650545702506
 21
38.766259571445538
 31
0.0
  0
LINE
  5
748
  8
HIDE
 10
245.46505457025049
 20
38.76625957144558
 30
0.0
 11
245.46505457025049
 21
52.766259571445531
 31
0.0
  0
LINE
  5
74A
  8
HIDE
 10
278.46505457025069
 20
53.766259571445509
 30
0.0
 11
278.46505457025069
 21
70.266238797386094
 31
0.0
  0
LINE
  5
74B
  8
HIDE
 10
263.46505457025069
 20
53.766259571445502
 30
0.0
 11
263.46505457025069
 21
70.266239495517937
 31
0.0
  0
LINE
  5
74C
  8
HIDE
 10
263.46505457025052
 20
52.766259571445538
 30
0.0
 11
263.46505457025052
 21
70.266239495517937
 31
0.0
  0
LINE
  5
74D
  8
CENTER
 10
255.46505457025049
 20
28.766238797386109
 30
0.0
 11
283.46505457025057
 21
28.766238797386109
 31
0.0
  0
LINE
  5
74E
  8
HIDE
 10
260.46505457025057
 20
20.016238797386048
 30
0.0
 11
271.46505457025057
 21
20.016238797386048
 31
0.0
  0
LINE
  5
74F
  8
HIDE
 10
260.46505457025057
 20
37.51623879738608
 30
0.0
 11
271.46505457025057
 21
37.51623879738608
 31
0.0
  0
LINE
  5
750
  8
HIDE
 10
271.46505457025057
 20
23.26623879738608
 30
0.0
 11
278.46505457025057
 21
23.26623879738608
 31
0.0
  0
LINE
  5
751
  8
HIDE
 10
271.46505457025057
 20
34.26623879738608
 30
0.0
 11
278.46505457025057
 21
34.26623879738608
 31
0.0
  0
LINE
  5
752
  8
HIDE
 10
271.46505457025057
 20
20.016238797386048
 30
0.0
 11
271.46505457025057
 21
37.51623879738608
 31
0.0
  0
LINE
  5
753
  8
CENTER
  6
CENTER
 10
261.63751457025228
 20
64.915151050560894
 30
0.0
 11
250.2925845702494
 21
58.365151050557991
 31
0.0
  0
CIRCLE
  5
754
  8
HIDE
 10
255.96505457025069
 20
61.640101050560702
 30
0.0
 40
3.1749990000000001
  0
LINE
  5
755
  8
HIDE
 10
263.46505457025069
 20
58.140101050560702
 30
0.0
 11
257.36705457024891
 21
58.140101050560702
 31
0.0
  0
LINE
  5
756
  8
CENTER
  6
CENTER
 10
291.63745457025021
 20
58.36514105055825
 30
0.0
 11
280.29253457025061
 21
64.915131050557775
 31
0.0
  0
ARC
  5
757
  8
HIDE
 10
284.56304457024908
 20
58.640101050560709
 30
0.0
 40
0.5
 50
269.99998199988352
 51
354.99627999998268
  0
CIRCLE
  5
758
  8
HIDE
 10
285.96505457025069
 20
61.640101050560709
 30
0.0
 40
3.1749990000000001
  0
LINE
  5
759
  8
HIDE
 10
292.96505457025069
 20
64.640101050560716
 30
0.0
 11
287.00457457024908
 21
64.640101050560716
 31
0.0
  0
LINE
  5
75D
  8
HIDE
 10
282.79004457025172
 20
61.640101050560709
 30
0.0
 11
278.96505457025069
 21
61.640101050560709
 31
0.0
  0
LINE
  5
75E
  8
HIDE
 10
284.56304457024908
 20
58.140101050560709
 30
0.0
 11
278.46505457025069
 21
58.140101050560709
 31
0.0
  0
LINE
  5
75F
  8
HIDE
 10
262.96505457025069
 20
61.640101050560702
 30
0.0
 11
259.14005457025002
 21
61.640101050560702
 31
0.0
  0
LINE
  5
760
  8
HIDE
 10
254.9255345702523
 20
64.640101050560702
 30
0.0
 11
248.96505457025069
 21
64.640101050560702
 31
0.0
  0
LINE
  5
761
  8
HIDE
 10
267.79006457025099
 20
61.640101050560702
 30
0.0
 11
263.96505457025052
 21
61.640101050560702
 31
0.0
  0
ARC
  5
762
  8
HIDE
 10
257.36705457024891
 20
58.640101050560702
 30
0.0
 40
0.5
 50
185.0037219999179
 51
269.99998199988352
  0
ARC
  5
763
  8
HIDE
 10
263.96505457025052
 20
65.140101050560702
 30
0.0
 40
0.5
 50
180.00003600002449
 51
269.99998199988352
  0
ARC
  5
764
  8
HIDE
 10
263.96505457025052
 20
61.140101050560702
 30
0.0
 40
0.5
 50
90.000019999897788
 51
180.00004000000399
  0
ARC
  5
765
  8
HIDE
 10
262.96505472733139
 20
62.140101050560673
 30
0.0
 40
0.5
 50
269.99998199988352
 51
359.99995999999589
  0
ARC
  5
766
  8
HIDE
 10
278.96505472733128
 20
62.140101050560681
 30
0.0
 40
0.5
 50
180.0
 51
269.99998199988352
  0
ARC
  5
772
  8
HIDE
 10
279.46505457025069
 20
70.266238797386094
 30
0.0
 40
1.0
 50
90.000019999897788
 51
180.0
  0
ARC
  5
773
  8
HIDE
 10
262.46505457025052
 20
70.266238797386166
 30
0.0
 40
1.0
 50
0.0000400000040257
 51
90.000019999897788
  0
ARC
  5
775
  8
HIDE
 10
279.46505457025069
 20
53.766259571445509
 30
0.0
 40
1.0
 50
180.0
 51
269.99998199988352
  0
ARC
  5
776
  8
HIDE
 10
262.46505457025052
 20
53.766259571445502
 30
0.0
 40
1.0
 50
269.99998199988352
 51
359.99995999999589
  0
ARC
  5
777
  8
HIDE
 10
264.4650545702504
 20
70.266238797386166
 30
0.0
 40
1.0
 50
90.000019999897788
 51
180.0
  0
ARC
  5
778
  8
HIDE
 10
264.4650545702504
 20
53.766259571445502
 30
0.0
 40
1.0
 50
180.00003600002449
 51
269.99998199988352
  0
ARC
  5
779
  8
HIDE
 10
277.46505457025029
 20
70.266239495517951
 30
0.0
 40
1.0
 50
359.99995999999589
 51
90.0
  0
ARC
  5
77A
  8
HIDE
 10
264.46505457025029
 20
70.266239495517937
 30
0.0
 40
1.0
 50
90.000019999897788
 51
180.0
  0
ARC
  5
77B
  8
HIDE
 10
277.46505457025029
 20
53.766260269577373
 30
0.0
 40
1.0
 50
269.99998199988352
 51
359.99995999999589
  0
ARC
  5
77C
  8
HIDE
 10
264.46505457025029
 20
53.766260269577359
 30
0.0
 40
1.0
 50
180.0
 51
269.99998199988352
  0
LINE
  5
77D
  8
HIDE
 10
230.4650545702506
 20
66.016259571445545
 30
0.0
 11
248.46505457025049
 21
66.016259571445573
 31
0.0
  0
LINE
  5
77E
  8
HIDE
 10
230.4650545702506
 20
55.266238797386052
 30
0.0
 11
234.46505457025049
 21
55.266238797386052
 31
0.0
  0
LINE
  5
77F
  8
HIDE
 10
234.46505457025049
 20
56.266238797386038
 30
0.0
 11
244.46505457025049
 21
56.266238797386038
 31
0.0
  0
LINE
  5
780
  8
HIDE
 10
244.46505457025049
 20
59.766238797386031
 30
0.0
 11
248.46505457025049
 21
59.766238797386052
 31
0.0
  0
LINE
  5
781
  8
HIDE
 10
322.46505457025057
 20
66.016259571445502
 30
0.0
 11
322.46505457025057
 21
55.266238797386002
 31
0.0
  0
LINE
  5
782
  8
HIDE
 10
312.46505457025057
 20
66.016259571445516
 30
0.0
 11
312.46505457025057
 21
56.266238797385988
 31
0.0
  0
LINE
  5
783
  8
HIDE
 10
326.46505457025057
 20
66.016259571445502
 30
0.0
 11
308.46505457025069
 21
66.016259571445531
 31
0.0
  0
LINE
  5
784
  8
HIDE
 10
326.46505457025052
 20
55.266238797386002
 30
0.0
 11
322.46505457025057
 21
55.266238797386002
 31
0.0
  0
LINE
  5
785
  8
HIDE
 10
322.46505457025057
 20
56.266238797385981
 30
0.0
 11
312.46505457025057
 21
56.266238797385988
 31
0.0
  0
LINE
  5
786
  8
HIDE
 10
312.46505457025057
 20
59.766238797386002
 30
0.0
 11
308.46505457025057
 21
59.766238797386009
 31
0.0
  0
LINE
  5
78F
  8
CENTER
 10
330.22728625887078
 20
48.766238797386059
 30
0.0
 11
309.19069028073773
 21
48.766238797386059
 31
0.0
  0
LINE
  5
790
  8
HIDE
 10
326.46505457025052
 20
51.76623879738608
 30
0.0
 11
318.33107997403499
 21
51.76623879738608
 31
0.0
  0
LINE
  5
791
  8
HIDE
 10
326.46505457025052
 20
51.26623879738608
 30
0.0
 11
313.46505457025057
 21
51.26623879738608
 31
0.0
  0
LINE
  5
792
  8
HIDE
 10
326.46505457025052
 20
45.766238797386073
 30
0.0
 11
318.33107997403499
 21
45.766238797386073
 31
0.0
  0
LINE
  5
793
  8
HIDE
 10
326.46505457025057
 20
46.266238797386038
 30
0.0
 11
313.46505457025057
 21
46.266238797386059
 31
0.0
  0
LINE
  5
794
  8
HIDE
 10
317.46505457025057
 20
46.26623879738608
 30
0.0
 11
318.33107997403499
 21
45.766238797386059
 31
0.0
  0
LINE
  5
795
  8
HIDE
 10
313.46505457025057
 20
46.266238797386052
 30
0.0
 11
312.0216788972765
 21
48.766238797386059
 31
0.0
  0
LINE
  5
796
  8
HIDE
 10
313.46505457025057
 20
51.26623879738608
 30
0.0
 11
312.0216788972765
 21
48.766238797386059
 31
0.0
  0
LINE
  5
797
  8
HIDE
 10
317.46505457025057
 20
51.26623879738608
 30
0.0
 11
318.33107997403499
 21
51.766238797386102
 31
0.0
  0
LINE
  5
7AD
  8
HIDE
 10
294.46505457025069
 20
96.266280345505095
 30
0.0
 11
307.46505457025069
 21
96.266280345505095
 31
0.0
  0
LINE
  5
7AE
  8
HIDE
 10
293.46505457025069
 20
113.7662595714457
 30
0.0
 11
293.46505457025069
 21
97.266280345505095
 31
0.0
  0
LINE
  5
7AF
  8
CENTER
  6
CENTER
 10
306.63745457025021
 20
109.1673780923329
 30
0.0
 11
295.29253457025061
 21
102.6173880923334
 31
0.0
  0
ARC
  5
7B0
  8
HIDE
 10
299.56304457024908
 20
108.8924180923305
 30
0.0
 40
0.5
 50
5.0037200000165889
 51
90.000018000116455
  0
CIRCLE
  5
7B1
  8
HIDE
 10
300.96505457025069
 20
105.8924180923304
 30
0.0
 40
3.1749990000000001
  0
LINE
  5
7B2
  8
HIDE
 10
307.96505457025069
 20
102.8924180923304
 30
0.0
 11
302.00457457024908
 21
102.8924180923304
 31
0.0
  0
LINE
  5
7B3
  8
HIDE
 10
297.79004457025172
 20
105.8924180923304
 30
0.0
 11
293.96505457025069
 21
105.8924180923304
 31
0.0
  0
LINE
  5
7B4
  8
HIDE
 10
299.56304457024908
 20
109.3924180923304
 30
0.0
 11
293.46505457025069
 21
109.3924180923304
 31
0.0
  0
ARC
  5
7B5
  8
HIDE
 10
293.96505472733128
 20
105.3924180923305
 30
0.0
 40
0.5
 50
90.000018000116455
 51
180.0
  0
ARC
  5
7B6
  8
HIDE
 10
294.46505457025069
 20
97.266280345505095
 30
0.0
 40
1.0
 50
180.0
 51
269.9999800001022
  0
ARC
  5
7B7
  8
HIDE
 10
294.46505457025069
 20
113.7662595714457
 30
0.0
 40
1.0
 50
90.000018000116455
 51
180.0
  0
LINE
  5
7B8
  8
HIDE
 10
294.46505457025069
 20
71.266238797386094
 30
0.0
 11
307.46505457025069
 21
71.266238797386094
 31
0.0
  0
LINE
  5
7B9
  8
HIDE
 10
293.46505457025069
 20
53.766259571445509
 30
0.0
 11
293.46505457025069
 21
70.266238797386094
 31
0.0
  0
LINE
  5
7BA
  8
CENTER
  6
CENTER
 10
306.63745457025021
 20
58.36514105055825
 30
0.0
 11
295.29253457025061
 21
64.915131050557775
 31
0.0
  0
ARC
  5
7BB
  8
HIDE
 10
299.56304457024908
 20
58.640101050560709
 30
0.0
 40
0.5
 50
269.99998199988352
 51
354.99627999998268
  0
CIRCLE
  5
7BC
  8
HIDE
 10
300.96505457025069
 20
61.640101050560709
 30
0.0
 40
3.1749990000000001
  0
LINE
  5
7BD
  8
HIDE
 10
307.96505457025069
 20
64.640101050560716
 30
0.0
 11
302.00457457024908
 21
64.640101050560716
 31
0.0
  0
LINE
  5
7BE
  8
HIDE
 10
297.79004457025172
 20
61.640101050560709
 30
0.0
 11
293.96505457025069
 21
61.640101050560709
 31
0.0
  0
LINE
  5
7BF
  8
HIDE
 10
299.56304457024908
 20
58.140101050560709
 30
0.0
 11
293.46505457025069
 21
58.140101050560709
 31
0.0
  0
ARC
  5
7C0
  8
HIDE
 10
293.96505472733128
 20
62.140101050560681
 30
0.0
 40
0.5
 50
180.0
 51
269.99998199988352
  0
ARC
  5
7C1
  8
HIDE
 10
294.46505457025069
 20
70.266238797386094
 30
0.0
 40
1.0
 50
90.000019999897788
 51
180.0
  0
ARC
  5
7C2
  8
HIDE
 10
294.46505457025069
 20
53.766259571445509
 30
0.0
 40
1.0
 50
180.0
 51
269.99998199988352
  0
ARC
  5
7C3
  8
HIDE
 10
292.46505457025069
 20
70.266238797386094
 30
0.0
 40
1.0
 50
359.99995999999589
 51
90.0
  0
ARC
  5
7C4
  8
HIDE
 10
292.46505457025069
 20
53.766259571445509
 30
0.0
 40
1.0
 50
269.99998199988352
 51
359.99995999999589
  0
LINE
  5
7C5
  8
HIDE
 10
292.96505457025069
 20
61.640101050560709
 30
0.0
 11
289.14003457025052
 21
61.640101050560709
 31
0.0
  0
ARC
  5
7C6
  8
HIDE
 10
292.96505457025069
 20
61.140101050560709
 30
0.0
 40
0.5
 50
359.99995999999589
 51
90.0
  0
LINE
  5
7C7
  8
HIDE
 10
307.96505457025069
 20
61.640101050560709
 30
0.0
 11
304.14003457025052
 21
61.640101050560709
 31
0.0
  0
ARC
  5
7C8
  8
HIDE
 10
307.96505457025069
 20
61.140101050560709
 30
0.0
 40
0.5
 50
359.99995999999589
 51
90.0
  0
ARC
  5
7C9
  8
HIDE
 10
292.96505472733128
 20
65.140101050560688
 30
0.0
 40
0.5
 50
269.99998199988352
 51
359.99995999999589
  0
ARC
  5
7CA
  8
HIDE
 10
307.96505472733128
 20
65.140101050560688
 30
0.0
 40
0.5
 50
269.99998199988352
 51
359.99995999999589
  0
ARC
  5
7CB
  8
HIDE
 10
307.46505457025069
 20
70.266238797386094
 30
0.0
 40
1.0
 50
359.99995999999589
 51
90.0
  0
ARC
  5
7CC
  8
HIDE
 10
292.46505457025052
 20
97.266279647373253
 30
0.0
 40
1.0
 50
270.0
 51
0.0000400000040257
  0
ARC
  5
7CD
  8
HIDE
 10
307.46505457025069
 20
97.266280345505095
 30
0.0
 40
1.0
 50
270.0
 51
0.0000400000040257
  0
ARC
  5
7CE
  8
HIDE
 10
292.96505472733128
 20
102.3924180923305
 30
0.0
 40
0.5
 50
0.0000400000040257
 51
90.000018000116455
  0
ARC
  5
7CF
  8
HIDE
 10
307.96505472733128
 20
102.3924180923305
 30
0.0
 40
0.5
 50
0.0000400000040257
 51
90.000018000116455
  0
LINE
  5
7D0
  8
HIDE
 10
292.96505457025069
 20
105.8924180923304
 30
0.0
 11
289.14003457025052
 21
105.8924180923304
 31
0.0
  0
ARC
  5
7D1
  8
HIDE
 10
292.96505457025069
 20
106.3924180923304
 30
0.0
 40
0.5
 50
270.0
 51
0.0000400000040257
  0
LINE
  5
7D2
  8
HIDE
 10
307.96505457025069
 20
105.8924180923304
 30
0.0
 11
304.14003457025052
 21
105.8924180923304
 31
0.0
  0
ARC
  5
7D3
  8
HIDE
 10
307.96505457025069
 20
106.3924180923304
 30
0.0
 40
0.5
 50
270.0
 51
0.0000400000040257
  0
ARC
  5
7D4
  8
HIDE
 10
292.46505457025091
 20
113.7662588733138
 30
0.0
 40
1.0
 50
0.0000400000040257
 51
90.000018000116455
  0
ARC
  5
7D5
  8
HIDE
 10
307.46505457025091
 20
113.7662588733138
 30
0.0
 40
1.0
 50
0.0000400000040257
 51
90.000018000116455
  0
LINE
  5
7D7
  8
HIDE
 10
308.46505457025069
 20
53.766259571445509
 30
0.0
 11
308.46505457025069
 21
71.266238797386094
 31
0.0
  0
LINE
  5
7D8
  8
HIDE
 10
308.46505457025069
 20
113.7662595714457
 30
0.0
 11
308.46505457025069
 21
97.266280345505095
 31
0.0
  0
ARC
  5
7DA
  8
HIDE
 10
307.46505457025069
 20
53.766259571445509
 30
0.0
 40
1.0
 50
269.99998199988352
 51
359.99995999999589
  0
LINE
  5
7E8
  8
CENTER
  6
CENTER
 10
265.2926545702511
 20
109.1673780923329
 30
0.0
 11
276.63757457025059
 21
102.6173880923334
 31
0.0
  0
ARC
  5
7E9
  8
HIDE
 10
272.36706457025218
 20
108.8924180923305
 30
0.0
 40
0.5
 50
89.999981999883545
 51
174.9962799999833
  0
CIRCLE
  5
7EA
  8
HIDE
 10
270.96505457025057
 20
105.8924180923304
 30
0.0
 40
3.1749990000000001
  0
LINE
  5
7EB
  8
HIDE
 10
263.96505457025057
 20
102.8924180923304
 30
0.0
 11
269.92553457025213
 21
102.8924180923304
 31
0.0
  0
LINE
  5
7EC
  8
HIDE
 10
274.14006457024959
 20
105.8924180923304
 30
0.0
 11
277.96505457025057
 21
105.8924180923304
 31
0.0
  0
LINE
  5
7ED
  8
HIDE
 10
272.36706457025218
 20
109.3924180923304
 30
0.0
 11
278.46505457025057
 21
109.3924180923304
 31
0.0
  0
ARC
  5
7EE
  8
HIDE
 10
277.96505441316992
 20
105.3924180923305
 30
0.0
 40
0.5
 50
0.000000000000007
 51
89.999981999883545
  0
ARC
  5
7EF
  8
HIDE
 10
263.96505441316992
 20
102.3924180923305
 30
0.0
 40
0.5
 50
89.999981999883545
 51
179.99995999999601
  0
LINE
  5
7F0
  8
HIDE
 10
263.96505457025057
 20
105.8924180923304
 30
0.0
 11
267.79007457025079
 21
105.8924180923304
 31
0.0
  0
ARC
  5
7F1
  8
HIDE
 10
263.96505457025057
 20
106.3924180923304
 30
0.0
 40
0.5
 50
179.99995999999601
 51
270.0
  0
LINE
  5
7F3
  8
CENTER
  6
CENTER
 10
265.29265457025087
 20
58.365141050558343
 30
0.0
 11
276.63757457025048
 21
64.91513105055779
 31
0.0
  0
ARC
  5
7F4
  8
HIDE
 10
272.36706457025201
 20
58.640101050560759
 30
0.0
 40
0.5
 50
185.00372000001701
 51
270.00001800011643
  0
CIRCLE
  5
7F5
  8
HIDE
 10
270.9650545702504
 20
61.640101050560773
 30
0.0
 40
3.1749990000000001
  0
LINE
  5
7F6
  8
HIDE
 10
263.9650545702504
 20
64.640101050560816
 30
0.0
 11
269.9255345702519
 21
64.640101050560773
 31
0.0
  0
LINE
  5
7F7
  8
HIDE
 10
274.14006457024942
 20
61.640101050560752
 30
0.0
 11
277.9650545702504
 21
61.640101050560723
 31
0.0
  0
LINE
  5
7F8
  8
HIDE
 10
272.36706457025201
 20
58.140101050560759
 30
0.0
 11
278.4650545702504
 21
58.140101050560723
 31
0.0
  0
ARC
  5
7F9
  8
HIDE
 10
277.96505441316981
 20
62.140101050560688
 30
0.0
 40
0.5
 50
270.00001800011643
 51
359.9999999999996
  0
LINE
  5
7FA
  8
HIDE
 10
263.9650545702504
 20
61.640101050560823
 30
0.0
 11
267.79007457025062
 21
61.640101050560787
 31
0.0
  0
ARC
  5
7FB
  8
HIDE
 10
263.9650545702504
 20
61.140101050560808
 30
0.0
 40
0.5
 50
90.0
 51
180.00004000000371
  0
ARC
  5
7FC
  8
HIDE
 10
263.9650544131697
 20
65.140101050560787
 30
0.0
 40
0.5
 50
180.00004000000371
 51
270.00001800011643
  0
LINE
  5
80E
  8
HIDE
 10
248.46505457025049
 20
96.266280345505081
 30
0.0
 11
248.46505457025049
 21
114.7662595714456
 31
0.0
  0
LINE
  5
80F
  8
HIDE
 10
248.46505457025049
 20
71.266238797386094
 30
0.0
 11
248.46505457025049
 21
52.766259571445531
 31
0.0
  0
ARC
  5
810
  8
HIDE
 10
249.4662362060713
 20
70.266239495517937
 30
0.0
 40
1.0
 50
90.000019999897788
 51
180.0
  0
ARC
  5
811
  8
HIDE
 10
249.4662362060713
 20
97.266279647373253
 30
0.0
 40
1.0
 50
180.0
 51
269.9999800001022
  0
ARC
  5
C3D
  8
HIDE
 10
92.416423499470284
 20
83.766280345505095
 30
0.0
 40
12.5
 50
300.00000000000961
 51
210.0000000001522
  0
CIRCLE
  5
C3F
  8
0
 10
92.416423499470284
 20
83.766280345505095
 30
0.0
 40
21.0
  0
CIRCLE
  5
C40
  8
0
 10
84.291423499470284
 20
97.839193157001375
 30
0.0
 40
2.0
  0
CIRCLE
  5
C41
  8
0
 10
76.16642349947756
 20
83.766280345506914
 30
0.0
 40
1.9999999999999989
  0
CIRCLE
  5
C42
  8
0
 10
84.29142349947756
 20
69.693367534010633
 30
0.0
 40
2.0
  0
CIRCLE
  5
C43
  8
0
 10
100.5414234994703
 20
69.693367534006995
 30
0.0
 40
2.0
  0
CIRCLE
  5
C44
  8
0
 10
108.66642349946299
 20
83.766280345501457
 30
0.0
 40
2.0
  0
CIRCLE
  5
C45
  8
0
 10
100.54142349946299
 20
97.839193156997737
 30
0.0
 40
2.0
  0
CIRCLE
  5
C46
  8
0
 10
92.416423499470284
 20
83.766280345505095
 30
0.0
 40
11.75
  0
INSERT
  5
C47
  8
0
  2
*U9
 10
41563.3714450556
 20
12545.280010217701
 30
0.0
 50
30.0
  0
LINE
  5
C49
  8
0
 10
210.4650545702506
 20
104.7662595714465
 30
0.0
 11
210.4650545702506
 21
62.766259571446511
 31
0.0
  0
LINE
  5
C4A
  8
0
 10
230.4650545702506
 20
101.2662595714465
 30
0.0
 11
230.4650545702506
 21
66.266259571444692
 31
0.0
  0
LINE
  5
C4B
  8
0
 10
228.4650545702506
 20
101.2662595714465
 30
0.0
 11
228.4650545702506
 21
66.266259571444692
 31
0.0
  0
LINE
  5
C4C
  8
0
 10
210.4650545702506
 20
104.7662595714465
 30
0.0
 11
226.44432862807739
 21
104.7662595714465
 31
0.0
  0
LINE
  5
C4D
  8
0
 10
228.4650545702506
 20
101.2662595714465
 30
0.0
 11
230.4650545702433
 21
101.2662595714465
 31
0.0
  0
LINE
  5
C4E
  8
0
 10
228.4650545702506
 20
101.26625957144471
 30
0.0
 11
226.44432862808469
 21
104.7662595714465
 31
0.0
  0
LINE
  5
C4F
  8
0
 10
210.4650545702506
 20
62.766259571446511
 30
0.0
 11
226.44432862807739
 21
62.766259571446511
 31
0.0
  0
LINE
  5
C50
  8
0
 10
228.4650545702506
 20
66.26625957144833
 30
0.0
 11
226.44432862808469
 21
62.766259571446511
 31
0.0
  0
LINE
  5
C51
  8
0
 10
228.4650545702506
 20
66.266259571444692
 30
0.0
 11
230.4650545702506
 21
66.266259571444692
 31
0.0
  0
LINE
  5
C52
  8
0
 10
210.4650545702506
 20
62.766259571446511
 30
0.0
 11
226.44432862807739
 21
62.766259571446511
 31
0.0
  0
LINE
  5
C53
  8
HIDE
 10
210.69769293335131
 20
65.366259571448694
 30
0.0
 11
214.32244751486439
 21
65.366259571448694
 31
0.0
  0
LINE
  5
C54
  8
HIDE
 10
210.69769293335131
 20
69.666259571449785
 30
0.0
 11
214.32244751486439
 21
69.666259571449785
 31
0.0
  0
LINE
  5
C55
  8
HIDE
 10
214.32105959288751
 20
69.66857737629843
 30
0.0
 11
215.60988646716291
 21
67.51625957144833
 31
0.0
  0
LINE
  5
C56
  8
HIDE
 10
214.32244751486439
 20
65.366259571448694
 30
0.0
 11
215.60988646716291
 21
67.51625957144833
 31
0.0
  0
LINE
  5
C57
  8
HIDE
 10
214.32244751486439
 20
65.366259571448694
 30
0.0
 11
214.32244751486439
 21
69.666259571449785
 31
0.0
  0
LINE
  5
C58
  8
HIDE
 10
210.4650545702506
 20
65.176422461836495
 30
0.0
 11
210.69769293335131
 21
65.366259571448694
 31
0.0
  0
LINE
  5
C59
  8
HIDE
 10
210.4650545702506
 20
69.856096681060166
 30
0.0
 11
210.69769293335131
 21
69.666259571449785
 31
0.0
  0
LINE
  5
C5A
  8
HIDE
 10
210.69769293335131
 20
65.366259571448694
 30
0.0
 11
210.69769293335131
 21
69.666259571449785
 31
0.0
  0
POINT
  5
C5B
  8
HIDE
 10
210.69769293335131
 20
65.366259571448694
 30
0.0
  0
POINT
  5
C5C
  8
HIDE
 10
210.69769293335131
 20
69.666259571449785
 30
0.0
  0
LINE
  5
C5D
  8
CENTER
 10
207.69269736992729
 20
67.516259571446511
 30
0.0
 11
217.33105151596541
 21
67.516259571446511
 31
0.0
  0
LINE
  5
C5E
  8
CENTER
 10
219.4650545702506
 20
68.930302172306341
 30
0.0
 11
219.4650545702506
 21
61.552091370867942
 31
0.0
  0
LINE
  5
C5F
  8
HIDE
 10
217.4650545702506
 20
67.603733227049901
 30
0.0
 11
217.4650545702506
 21
63.10267717066025
 31
0.0
  0
LINE
  5
C60
  8
HIDE
 10
221.4650545702506
 20
67.603733227049901
 30
0.0
 11
221.4650545702506
 21
63.10267717066025
 31
0.0
  0
LINE
  5
C61
  8
HIDE
 10
221.4650545702506
 20
67.603733227049901
 30
0.0
 11
217.4650545702506
 21
67.603733227049901
 31
0.0
  0
LINE
  5
C62
  8
HIDE
 10
217.4650545702506
 20
67.603733227049901
 30
0.0
 11
219.4650545702506
 21
68.508407869460001
 31
0.0
  0
LINE
  5
C63
  8
HIDE
 10
221.4650545702506
 20
67.603733227049901
 30
0.0
 11
219.4650545702506
 21
68.508407869460001
 31
0.0
  0
LINE
  5
C64
  8
HIDE
 10
217.1870393852995
 20
62.766259571446511
 30
0.0
 11
217.4650545702506
 21
63.10267717066025
 31
0.0
  0
LINE
  5
C65
  8
HIDE
 10
221.74306975520159
 20
62.766259571446511
 30
0.0
 11
221.4650545702506
 21
63.10267717066025
 31
0.0
  0
LINE
  5
C66
  8
HIDE
 10
217.4650545702506
 20
63.10267717066025
 30
0.0
 11
221.4650545702506
 21
63.10267717066025
 31
0.0
  0
POINT
  5
C67
  8
HIDE
 10
221.4650545702506
 20
63.10267717066025
 30
0.0
  0
POINT
  5
C68
  8
HIDE
 10
217.4650545702506
 20
63.10267717066025
 30
0.0
  0
LINE
  5
C69
  8
HIDE
 10
210.6525545702506
 20
100.37451274691929
 30
0.0
 11
218.1722641514688
 21
104.7160190978648
 31
0.0
  0
LINE
  5
C6A
  8
HIDE
 10
216.9602450986321
 20
104.0162595714465
 30
0.0
 11
219.3977450986321
 21
99.794385727997081
 31
0.0
  0
LINE
  5
C6B
  8
HIDE
 10
211.76409267592399
 20
101.0162595714465
 30
0.0
 11
214.20159267592399
 21
96.794385727997096
 31
0.0
  0
LINE
  5
C6C
  8
HIDE
 10
216.57053366693151
 20
103.7912595714516
 30
0.0
 11
221.34810714448111
 21
95.516259571448344
 31
0.0
  0
LINE
  5
C6D
  8
HIDE
  6
CONTINUOUS
 10
212.1538041076318
 20
101.24125957144869
 30
0.0
 11
215.4591343987457
 21
95.516259571446511
 31
0.0
  0
LINE
  5
C6E
  8
HIDE
 10
214.71385220234961
 20
96.657126201576915
 30
0.0
 11
219.260485572221
 21
99.282126201576915
 31
0.0
  0
LINE
  5
C6F
  8
HIDE
 10
219.260485572221
 20
99.282126201576915
 30
0.0
 11
219.3977450986321
 21
99.794385727997081
 31
0.0
  0
LINE
  5
C70
  8
HIDE
 10
214.71385220234961
 20
96.657126201576915
 30
0.0
 11
214.20159267592399
 21
96.794385727997096
 31
0.0
  0
LINE
  5
C71
  8
HIDE
 10
214.20159267592399
 20
96.794385727997096
 30
0.0
 11
219.3977450986321
 21
99.794385727997081
 31
0.0
  0
ARC
  5
C72
  8
HIDE
 10
218.3597641514688
 20
104.3912595714465
 30
0.0
 40
0.375
 50
90.0
 51
120.00000000000961
  0
ARC
  5
C73
  8
HIDE
 10
210.8400545702506
 20
100.0497532204991
 30
0.0
 40
0.375
 50
120.00000000000961
 51
180.0
  0
INSERT
  5
C74
  8
HIDE
  6
CONTINUOUS
  2
*X13
 10
0.0
 20
0.0
 30
0.0
1001
ACAD
1000
HATCH
1002
{
1070
    19
1000
ANSI37
1040
9.75
1040
0.5235987755982988
1000
R14_HATCH_DATA
1000
C74
1011
1.0
1021
0.0
1031
0.0
1021
0.0
1031
0.0
1011
0.0
1021
0.0
1031
0.0
1021
1.0
1031
0.0
1011
0.0
1021
0.0
1031
0.0
1021
0.0
1031
1.0
1040
0.0
1010
0.0
1020
0.0
1030
1.0
1000
ANSI37
1070
     0
1070
     0
1071
        2
1071
        1
1071
        4
1070
     1
1040
215.45913439873851
1040
95.516259571448344
1040
218.4036207716025
1040
95.516259571448344
1070
     1
1040
218.4036207716025
1040
95.516259571448344
1040
216.98716888728529
1040
97.969626201576915
1070
     1
1040
216.98716888728529
1040
97.969626201576915
1040
214.7788041076318
1040
96.694626201577279
1070
     1
1040
214.7788041076318
1040
96.694626201577279
1040
215.45913439873851
1040
95.516259571448344
1071
        0
1071
        1
1071
        4
1070
     1
1040
218.40362077160981
1040
95.516259571446511
1040
221.34810714448841
1040
95.516259571446511
1070
     1
1040
221.34810714448841
1040
95.516259571446511
1040
219.19553366693879
1040
99.244626201578384
1070
     1
1040
219.19553366693879
1040
99.244626201578384
1040
216.98716888728529
1040
97.969626201576915
1070
     1
1040
216.98716888728529
1040
97.969626201576915
1040
218.40362077160981
1040
95.516259571446511
1071
        0
1070
     0
1070
     1
1040
0.5235987755982988
1040
9.75
1070
     0
1070
     2
1040
1.3089969389957461
1040
72.761570500272569
1040
-84.229745202886903
1040
-1.1772221007898021
1040
0.3154357112186975
1070
     0
1040
2.8797932657906431
1040
72.761570500272569
1040
-84.229745202886903
1040
-0.3154357112186975
1040
-1.1772221007898021
1070
     0
1071
        4
1040
216.26168489197599
1040
95.654962084099765
1040
0.0
1040
218.78854714877241
1040
96.676796470452331
1040
0.0
1040
217.88609566425009
1040
94.152266168685031
1040
0.0
1040
220.2324680991122
1040
93.971943569688008
1040
0.0
1002
}
  0
LINE
  5
C75
  8
HIDE
 10
210.4650545702506
 20
96.266259571446525
 30
0.0
 11
230.4650545702506
 21
96.266259571446525
 31
0.0
  0
LINE
  5
C76
  8
HIDE
 10
210.4650545702506
 20
95.516259571448344
 30
0.0
 11
230.4650545702506
 21
95.516259571446511
 31
0.0
  0
LINE
  5
C77
  8
CENTER
  6
CENTER
 10
213.8990408538929
 20
103.3184208556832
 30
0.0
 11
220.11881174408049
 21
92.545461662439351
 31
0.0
  0
LINE
  5
C79
  8
HIDE
 10
210.4650545702506
 20
71.266259571446511
 30
0.0
 11
230.4650545702506
 21
71.266259571446511
 31
0.0
  0
LINE
  5
C7A
  8
HIDE
 10
210.4650545702506
 20
72.016259571444692
 30
0.0
 11
230.4650545702506
 21
72.016259571446511
 31
0.0
  0
ARC
  5
C7B
  8
0
 10
92.416423499470284
 20
104.8140558267724
 30
0.0
 40
4.7392728971135512
 50
187.0452408327053
 51
352.9547591672947
  0
ARC
  5
C7C
  8
0
 10
74.188515239535946
 20
73.242392604864165
 30
0.0
 40
4.7392728971135512
 50
307.04524083284798
 51
112.9547591670574
  0
ARC
  5
C7D
  8
0
 10
110.64433175940459
 20
73.242392604867803
 30
0.0
 40
4.7392728971135512
 50
67.045240832942554
 51
232.95475916715199
  0
INSERT
  5
CA8
  8
0
  2
*U15
 10
0.0
 20
0.0
 30
0.0
  0
ENDSEC
  0
EOF
