  0
SECTION
  2
HEADER
  9
$ACADVER
  1
AC1009
  9
$INSBASE
 10
0.0
 20
0.0
 30
0.0
  9
$EXTMIN
 10
30.384413861941781
 20
-25.214845509569059
 30
0.0
  9
$EXTMAX
 10
2273.7410948065722
 20
889.07548490957095
 30
0.0
  9
$LIMMIN
 10
0.0
 20
0.0
  9
$LIMMAX
 10
12.0
 20
9.0
  9
$ORTHOMODE
 70
     0
  9
$REGENMODE
 70
     1
  9
$FILLMODE
 70
     1
  9
$QTEXTMODE
 70
     0
  9
$MIRRTEXT
 70
     0
  9
$DRAGMODE
 70
     2
  9
$LTSCALE
 40
1.0
  9
$OSMODE
 70
  2239
  9
$ATTMODE
 70
     1
  9
$TEXTSIZE
 40
0.2
  9
$TRACEWID
 40
0.05
  9
$TEXTSTYLE
  7
STANDARD
  9
$CLAYER
  8
HIDE
  9
$CELTYPE
  6
BYLAYER
  9
$CECOLOR
 62
   256
  9
$DIMSCALE
 40
1.0
  9
$DIMASZ
 40
0.18
  9
$DIMEXO
 40
0.0625
  9
$DIMDLI
 40
0.38
  9
$DIMRND
 40
0.0
  9
$DIMDLE
 40
0.0
  9
$DIMEXE
 40
0.18
  9
$DIMTP
 40
0.0
  9
$DIMTM
 40
0.0
  9
$DIMTXT
 40
0.18
  9
$DIMCEN
 40
0.09
  9
$DIMTSZ
 40
0.0
  9
$DIMTOL
 70
     0
  9
$DIMLIM
 70
     0
  9
$DIMTIH
 70
     1
  9
$DIMTOH
 70
     1
  9
$DIMSE1
 70
     0
  9
$DIMSE2
 70
     0
  9
$DIMTAD
 70
     0
  9
$DIMZIN
 70
     0
  9
$DIMBLK
  1

  9
$DIMASO
 70
     1
  9
$DIMSHO
 70
     1
  9
$DIMPOST
  1

  9
$DIMAPOST
  1

  9
$DIMALT
 70
     0
  9
$DIMALTD
 70
     2
  9
$DIMALTF
 40
25.399999999999999
  9
$DIMLFAC
 40
1.0
  9
$DIMTOFL
 70
     0
  9
$DIMTVP
 40
0.0
  9
$DIMTIX
 70
     0
  9
$DIMSOXD
 70
     0
  9
$DIMSAH
 70
     0
  9
$DIMBLK1
  1

  9
$DIMBLK2
  1

  9
$DIMSTYLE
  2
STANDARD
  9
$DIMCLRD
 70
     0
  9
$DIMCLRE
 70
     0
  9
$DIMCLRT
 70
     0
  9
$DIMTFAC
 40
1.0
  9
$DIMGAP
 40
0.09
  9
$LUNITS
 70
     2
  9
$LUPREC
 70
     4
  9
$SKETCHINC
 40
0.1
  9
$FILLETRAD
 40
0.0
  9
$AUNITS
 70
     0
  9
$AUPREC
 70
     0
  9
$MENU
  1
.
  9
$ELEVATION
 40
0.0
  9
$PELEVATION
 40
0.0
  9
$THICKNESS
 40
0.0
  9
$LIMCHECK
 70
     0
  9
$BLIPMODE
 70
     0
  9
$CHAMFERA
 40
1.0
  9
$CHAMFERB
 40
1.0
  9
$SKPOLY
 70
     0
  9
$TDCREATE
 40
2455485.671822188
  9
$TDUPDATE
 40
2456648.4334202199
  9
$TDINDWG
 40
0.3253235648
  9
$TDUSRTIMER
 40
0.3253235648
  9
$USRTIMER
 70
     1
  9
$ANGBASE
 50
0.0
  9
$ANGDIR
 70
     0
  9
$PDMODE
 70
     0
  9
$PDSIZE
 40
0.0
  9
$PLINEWID
 40
0.0
  9
$COORDS
 70
     1
  9
$SPLFRAME
 70
     0
  9
$SPLINETYPE
 70
     6
  9
$SPLINESEGS
 70
     8
  9
$ATTDIA
 70
     0
  9
$ATTREQ
 70
     1
  9
$HANDLING
 70
     1
  9
$HANDSEED
  5
E3A
  9
$SURFTAB1
 70
     6
  9
$SURFTAB2
 70
     6
  9
$SURFTYPE
 70
     6
  9
$SURFU
 70
     6
  9
$SURFV
 70
     6
  9
$UCSNAME
  2

  9
$UCSORG
 10
0.0
 20
0.0
 30
0.0
  9
$UCSXDIR
 10
1.0
 20
0.0
 30
0.0
  9
$UCSYDIR
 10
0.0
 20
1.0
 30
0.0
  9
$PUCSNAME
  2

  9
$PUCSORG
 10
0.0
 20
0.0
 30
0.0
  9
$PUCSXDIR
 10
1.0
 20
0.0
 30
0.0
  9
$PUCSYDIR
 10
0.0
 20
1.0
 30
0.0
  9
$USERI1
 70
     0
  9
$USERI2
 70
     0
  9
$USERI3
 70
     0
  9
$USERI4
 70
     0
  9
$USERI5
 70
     0
  9
$USERR1
 40
0.0
  9
$USERR2
 40
0.0
  9
$USERR3
 40
0.0
  9
$USERR4
 40
0.0
  9
$USERR5
 40
0.0
  9
$WORLDVIEW
 70
     1
  9
$SHADEDGE
 70
     3
  9
$SHADEDIF
 70
    70
  9
$TILEMODE
 70
     1
  9
$MAXACTVP
 70
    48
  9
$PLIMCHECK
 70
     0
  9
$PEXTMIN
 10
0.0
 20
0.0
 30
0.0
  9
$PEXTMAX
 10
0.0
 20
0.0
 30
0.0
  9
$PLIMMIN
 10
0.0
 20
0.0
  9
$PLIMMAX
 10
12.0
 20
9.0
  9
$UNITMODE
 70
     0
  9
$VISRETAIN
 70
     1
  9
$PLINEGEN
 70
     0
  9
$PSLTSCALE
 70
     1
  0
ENDSEC
  0
SECTION
  2
TABLES
  0
TABLE
  2
VPORT
 70
     1
  0
VPORT
  2
*ACTIVE
 70
     0
 10
0.0
 20
0.0
 11
1.0
 21
1.0
 12
218.50552762715961
 22
74.438488932871337
 13
0.0
 23
0.0
 14
0.5
 24
0.5
 15
0.5
 25
0.5
 16
0.0
 26
0.0
 36
1.0
 17
0.0
 27
0.0
 37
0.0
 40
199.4407315161381
 41
2.1408934707903771
 42
50.0
 43
0.0
 44
0.0
 50
0.0
 51
0.0
 71
     0
 72
  1000
 73
     1
 74
     3
 75
     0
 76
     0
 77
     0
 78
     0
  0
ENDTAB
  0
TABLE
  2
LTYPE
 70
     4
  0
LTYPE
  2
CONTINUOUS
 70
     0
  3
Solid line
 72
    65
 73
     0
 40
0.0
  0
LTYPE
  2
CENTER
 70
     0
  3
____ _ ____ _ ____ _ ____ _ ____ _ ____ _ ____ 
 72
    65
 73
     4
 40
2.0
 49
1.25
 49
-0.25
 49
0.25
 49
-0.25
  0
LTYPE
  2
PHANTOM2
 70
     0
  3
Phantom (.5x) ___ _ _ ___ _ _ ___ _ _ ___ _ _
 72
    65
 73
     6
 40
1.25
 49
0.625
 49
-0.125
 49
0.125
 49
-0.125
 49
0.125
 49
-0.125
  0
ENDTAB
  0
TABLE
  2
LAYER
 70
     4
  0
LAYER
  2
0
 70
     0
 62
     7
  6
CONTINUOUS
  0
LAYER
  2
CENTER
 70
     0
 62
     3
  6
CENTER
  0
LAYER
  2
HIDE
 70
     0
 62
     1
  6
CONTINUOUS
  0
ENDTAB
  0
TABLE
  2
STYLE
 70
     7
  0
STYLE
  2
STANDARD
 70
     0
 40
0.0
 41
1.0
 50
0.0
 71
     0
 42
0.2
  3
txt
  4
whgtxt.shx
  0
STYLE
  2
DUKI7
 70
     0
 40
20.0
 41
1.0
 50
0.0
 71
     0
 42
20.0
  3
txt
  4

  0
ENDTAB
  0
TABLE
  2
VIEW
 70
     0
  0
ENDTAB
  0
TABLE
  2
UCS
 70
     0
  0
ENDTAB
  0
TABLE
  2
APPID
 70
    13
  0
APPID
  2
ACAD
 70
     0
  0
APPID
  2
ACADANNOPO
 70
     0
  0
APPID
  2
ACADANNOTATIVE
 70
     0
  0
APPID
  2
ACAD_DSTYLE_DIMJAG
 70
     0
  0
APPID
  2
ACAD_DSTYLE_DIMTALN
 70
     0
  0
APPID
  2
ACAD_MLEADERVER
 70
     0
  0
APPID
  2
ACAD_PSEXT
 70
     0
  0
APPID
  2
ACAECLAYERSTANDARD
 70
     0
  0
APPID
  2
ACAD_DSTYLE_DIMBREAK
 70
     0
  0
APPID
  2
ACAD_DSTYLE_DIMTEXT_FILL
 70
     0
  0
APPID
  2
ACAD_EXEMPT_FROM_CAD_STANDARDS
 70
     0
  0
APPID
  2
ACAD_NAV_VCDISPLAY
 70
     0
  0
APPID
  2
ACDBDYNAMICBLOCKTRUENAME2
 70
     0
  0
ENDTAB
  0
TABLE
  2
DIMSTYLE
 70
     6
  0
DIMSTYLE
  2
STANDARD
 70
     0
  3

  4

  5

  6

  7

 40
1.0
 41
0.18
 42
0.0625
 43
0.38
 44
0.18
 45
0.0
 46
0.0
 47
0.0
 48
0.0
140
0.18
141
0.09
142
0.0
143
25.399999999999999
144
1.0
145
0.0
146
1.0
147
0.09
 71
     0
 72
     0
 73
     1
 74
     1
 75
     0
 76
     0
 77
     0
 78
     0
170
     0
171
     2
172
     0
173
     0
174
     0
175
     0
176
     0
177
     0
178
     0
  0
ENDTAB
  0
ENDSEC
  0
SECTION
  2
BLOCKS
  0
BLOCK
  8
0
  2
$MODEL_SPACE
 70
     0
 10
0.0
 20
0.0
 30
0.0
  3
$MODEL_SPACE
  1

  0
ENDBLK
  5
21
  8
0
  0
BLOCK
 67
     1
  8
0
  2
$PAPER_SPACE
 70
     0
 10
0.0
 20
0.0
 30
0.0
  3
$PAPER_SPACE
  1

  0
ENDBLK
  5
5B
 67
     1
  8
0
  0
BLOCK
  8
0
  2
*U9
 70
     1
 10
0.0
 20
0.0
 30
0.0
  3
*U9
  1

  0
CIRCLE
  5
C00
  8
0
 10
-0.000000000007276
 20
0.0
 30
0.0
 40
2.5
  0
ENDBLK
  5
C01
  8
0
  0
BLOCK
  8
0
  2
*U11
 70
     1
 10
0.0
 20
0.0
 30
0.0
  3
*U11
  1

  0
INSERT
  5
C07
  8
0
  6
BYBLOCK
 62
     0
  2
*U9
 10
-42145.657432805529
 20
9905.6143382640785
 30
0.0
  0
INSERT
  5
C08
  8
0
  6
BYBLOCK
 62
     0
  2
*U9
 10
-42167.524574251082
 20
9892.9893382640785
 30
0.0
 50
59.999999999999993
  0
INSERT
  5
C09
  8
0
  6
BYBLOCK
 62
     0
  2
*U9
 10
-42167.524574251082
 20
9867.7393382640785
 30
0.0
 50
120.0
  0
INSERT
  5
C0A
  8
0
  6
BYBLOCK
 62
     0
  2
*U9
 10
-42145.657432805529
 20
9855.1143382640785
 30
0.0
 50
180.0
  0
INSERT
  5
C0B
  8
0
  6
BYBLOCK
 62
     0
  2
*U9
 10
-42123.790291359968
 20
9867.7393382640785
 30
0.0
 50
240.0
  0
INSERT
  5
C0C
  8
0
  6
BYBLOCK
 62
     0
  2
*U9
 10
-42123.790291359968
 20
9892.9893382640785
 30
0.0
 50
300.0
  0
ENDBLK
  5
C0D
  8
0
  0
BLOCK
  8
0
  2
*U12
 70
     1
 10
0.0
 20
0.0
 30
0.0
  3
*U12
  1

  0
ARC
  5
C10
  8
CENTER
 10
-0.000000000007276
 20
-25.25
 30
0.0
 40
25.25
 50
78.282506638421367
 51
101.7174933615786
  0
LINE
  5
C11
  8
CENTER
 10
-0.000000000007276
 20
5.1548540571220647
 30
0.0
 11
0.0
 21
-5.1548540571220647
 31
0.0
  0
LINE
  5
C12
  8
CENTER
 10
0.0
 20
-5.1548540571220647
 30
0.0
 11
0.0
 21
5.1548540571220647
 31
0.0
  0
LINE
  5
C13
  8
CENTER
 10
-0.000000000007276
 20
5.1548540571220647
 30
0.0
 11
0.0
 21
-5.1548540571220647
 31
0.0
  0
ENDBLK
  5
C14
  8
0
  0
BLOCK
  8
0
  2
*U13
 70
     1
 10
0.0
 20
0.0
 30
0.0
  3
*U13
  1

  0
INSERT
  5
C18
  8
0
  6
BYBLOCK
 62
     0
  2
*U12
 10
-42149.967676557237
 20
9756.4111875885283
 30
0.0
  0
INSERT
  5
C19
  8
0
  6
BYBLOCK
 62
     0
  2
*U12
 10
-42171.834818002797
 20
9743.7861875885355
 30
0.0
 41
0.9999999999999998
 42
0.9999999999999998
 43
0.9999999999999998
 50
59.999999999999993
  0
INSERT
  5
C1A
  8
0
  6
BYBLOCK
 62
     0
  2
*U12
 10
-42171.834818002797
 20
9718.5361875885374
 30
0.0
 41
0.9999999999999998
 42
0.9999999999999998
 43
0.9999999999999998
 50
119.9999999999999
  0
INSERT
  5
C1B
  8
0
  6
BYBLOCK
 62
     0
  2
*U12
 10
-42149.967676557237
 20
9705.9111875885337
 30
0.0
 50
180.0
  0
INSERT
  5
C1C
  8
0
  6
BYBLOCK
 62
     0
  2
*U12
 10
-42128.100535111676
 20
9718.5361875885264
 30
0.0
 41
0.9999999999999998
 42
0.9999999999999998
 43
0.9999999999999998
 50
240.0
  0
INSERT
  5
C1D
  8
0
  6
BYBLOCK
 62
     0
  2
*U12
 10
-42128.100535111676
 20
9743.7861875885246
 30
0.0
 41
0.9999999999999998
 42
0.9999999999999998
 43
0.9999999999999998
 50
300.0
  0
ENDBLK
  5
C1E
  8
0
  0
BLOCK
  8
0
  2
*U14
 70
     1
 10
0.0
 20
0.0
 30
0.0
  3
*U14
  1

  0
ARC
  5
C21
  8
0
 10
-0.000000000007276
 20
2.7337045651402141
 30
0.0
 40
4.7392728971135512
 50
188.8378600469801
 51
351.1621399530199
  0
ENDBLK
  5
C22
  8
0
  0
BLOCK
  8
0
  2
*U15
 70
     1
 10
0.0
 20
0.0
 30
0.0
  3
*U15
  1

  0
INSERT
  5
C26
  8
0
  6
BYBLOCK
 62
     0
  2
*U14
 10
-43885.708367284918
 20
10258.125317387179
 30
0.0
  0
INSERT
  5
C27
  8
0
  6
BYBLOCK
 62
     0
  2
*U14
 10
-43908.756612802172
 20
10218.204585126021
 30
0.0
 41
0.9999999999999998
 42
0.9999999999999998
 43
0.9999999999999998
 50
120.0
  0
INSERT
  5
C28
  8
0
  6
BYBLOCK
 62
     0
  2
*U14
 10
-43862.660121767702
 20
10218.20458512601
 30
0.0
 50
239.99999999999989
  0
ENDBLK
  5
C29
  8
0
  0
BLOCK
  8
0
  2
*U24
 70
     1
 10
0.0
 20
0.0
 30
0.0
  3
*U24
  1

  0
CIRCLE
  5
D0B
  8
0
 10
-0.000000000007276
 20
0.0
 30
0.0
 40
2.5
  0
ENDBLK
  5
D0C
  8
0
  0
BLOCK
  8
0
  2
*U26
 70
     1
 10
0.0
 20
0.0
 30
0.0
  3
*U26
  1

  0
INSERT
  5
D12
  8
0
  6
BYBLOCK
 62
     0
  2
*U24
 10
-42145.657432805529
 20
9905.6143382640785
 30
0.0
  0
INSERT
  5
D13
  8
0
  6
BYBLOCK
 62
     0
  2
*U24
 10
-42167.524574251082
 20
9892.9893382640785
 30
0.0
 50
59.999999999999993
  0
INSERT
  5
D14
  8
0
  6
BYBLOCK
 62
     0
  2
*U24
 10
-42167.524574251082
 20
9867.7393382640785
 30
0.0
 50
120.0
  0
INSERT
  5
D15
  8
0
  6
BYBLOCK
 62
     0
  2
*U24
 10
-42145.657432805529
 20
9855.1143382640785
 30
0.0
 50
180.0
  0
INSERT
  5
D16
  8
0
  6
BYBLOCK
 62
     0
  2
*U24
 10
-42123.790291359968
 20
9867.7393382640785
 30
0.0
 50
240.0
  0
INSERT
  5
D17
  8
0
  6
BYBLOCK
 62
     0
  2
*U24
 10
-42123.790291359968
 20
9892.9893382640785
 30
0.0
 50
300.0
  0
ENDBLK
  5
D18
  8
0
  0
BLOCK
  8
0
  2
*U27
 70
     1
 10
0.0
 20
0.0
 30
0.0
  3
*U27
  1

  0
ARC
  5
D1B
  8
CENTER
 10
-0.000000000007276
 20
-25.25
 30
0.0
 40
25.25
 50
78.282506638421367
 51
101.7174933615786
  0
LINE
  5
D1C
  8
CENTER
 10
-0.000000000007276
 20
5.1548540571220647
 30
0.0
 11
0.0
 21
-5.1548540571220647
 31
0.0
  0
LINE
  5
D1D
  8
CENTER
 10
0.0
 20
-5.1548540571220647
 30
0.0
 11
0.0
 21
5.1548540571220647
 31
0.0
  0
LINE
  5
D1E
  8
CENTER
 10
-0.000000000007276
 20
5.1548540571220647
 30
0.0
 11
0.0
 21
-5.1548540571220647
 31
0.0
  0
ENDBLK
  5
D1F
  8
0
  0
BLOCK
  8
0
  2
*U28
 70
     1
 10
0.0
 20
0.0
 30
0.0
  3
*U28
  1

  0
INSERT
  5
D23
  8
0
  6
BYBLOCK
 62
     0
  2
*U27
 10
-42149.967676557237
 20
9756.4111875885283
 30
0.0
  0
INSERT
  5
D24
  8
0
  6
BYBLOCK
 62
     0
  2
*U27
 10
-42171.834818002797
 20
9743.7861875885355
 30
0.0
 41
0.9999999999999998
 42
0.9999999999999998
 43
0.9999999999999998
 50
59.999999999999993
  0
INSERT
  5
D25
  8
0
  6
BYBLOCK
 62
     0
  2
*U27
 10
-42171.834818002797
 20
9718.5361875885374
 30
0.0
 41
0.9999999999999998
 42
0.9999999999999998
 43
0.9999999999999998
 50
119.9999999999999
  0
INSERT
  5
D26
  8
0
  6
BYBLOCK
 62
     0
  2
*U27
 10
-42149.967676557237
 20
9705.9111875885337
 30
0.0
 50
180.0
  0
INSERT
  5
D27
  8
0
  6
BYBLOCK
 62
     0
  2
*U27
 10
-42128.100535111676
 20
9718.5361875885264
 30
0.0
 41
0.9999999999999998
 42
0.9999999999999998
 43
0.9999999999999998
 50
240.0
  0
INSERT
  5
D28
  8
0
  6
BYBLOCK
 62
     0
  2
*U27
 10
-42128.100535111676
 20
9743.7861875885246
 30
0.0
 41
0.9999999999999998
 42
0.9999999999999998
 43
0.9999999999999998
 50
300.0
  0
ENDBLK
  5
D29
  8
0
  0
BLOCK
  8
0
  2
*U29
 70
     1
 10
0.0
 20
0.0
 30
0.0
  3
*U29
  1

  0
ARC
  5
D2C
  8
0
 10
-0.000000000007276
 20
2.7337045651402141
 30
0.0
 40
4.7392728971135512
 50
188.8378600469801
 51
351.1621399530199
  0
ENDBLK
  5
D2D
  8
0
  0
BLOCK
  8
0
  2
*U30
 70
     1
 10
0.0
 20
0.0
 30
0.0
  3
*U30
  1

  0
INSERT
  5
D31
  8
0
  6
BYBLOCK
 62
     0
  2
*U29
 10
-43885.708367284918
 20
10258.125317387179
 30
0.0
  0
INSERT
  5
D32
  8
0
  6
BYBLOCK
 62
     0
  2
*U29
 10
-43908.756612802172
 20
10218.204585126021
 30
0.0
 41
0.9999999999999998
 42
0.9999999999999998
 43
0.9999999999999998
 50
120.0
  0
INSERT
  5
D33
  8
0
  6
BYBLOCK
 62
     0
  2
*U29
 10
-43862.660121767702
 20
10218.20458512601
 30
0.0
 50
239.99999999999989
  0
ENDBLK
  5
D34
  8
0
  0
BLOCK
  8
0
  2
*X31
 70
     1
 10
0.0
 20
0.0
 30
0.0
  3
*X31
  1

  0
LINE
  5
DE7
  8
0
 62
     0
 10
101.779035306013
 20
56.188811621084227
 30
0.0
 11
100.5763952165786
 21
56.511058061833481
 31
0.0
  0
LINE
  5
DE8
  8
0
 62
     0
 10
99.157456915930936
 20
55.629518588726832
 30
0.0
 11
99.08373740456976
 21
55.649271672262472
 31
0.0
  0
LINE
  5
DE9
  8
0
 62
     0
 10
102.6408216955804
 20
54.696153809076719
 30
0.0
 11
99.15745691593105
 21
55.629518588726789
 31
0.0
  0
LINE
  5
DEA
  8
0
 62
     0
 10
100.01924330550089
 20
54.136860776718628
 30
0.0
 11
97.591079592559495
 21
54.787485282691861
 31
0.0
  0
LINE
  5
DEB
  8
0
 62
     0
 10
103.5026080851478
 20
53.20349599706924
 30
0.0
 11
100.0192433055054
 21
54.136860776717441
 31
0.0
  0
LINE
  5
DEC
  8
0
 62
     0
 10
100.5873721899958
 20
52.722888256046652
 30
0.0
 11
97.397664915421814
 21
53.577567744360437
 31
0.0
  0
LINE
  5
DED
  8
0
 62
     0
 10
102.6113822859021
 20
52.722888256046609
 30
0.0
 11
102.98184686524441
 21
54.105480888556677
 31
0.0
  0
LINE
  5
DEE
  8
0
 62
     0
 10
101.34963944102731
 20
52.722888256046609
 30
0.0
 11
102.12006047567429
 21
55.598138700568938
 31
0.0
  0
LINE
  5
DEF
  8
0
 62
     0
 10
100.3249093064537
 20
53.607431732930223
 30
0.0
 11
101.1992968552676
 21
56.870690490609121
 31
0.0
  0
LINE
  5
DF0
  8
0
 62
     0
 10
100.0878965961525
 20
52.722888256046609
 30
0.0
 11
100.3249093064521
 21
53.607431732924191
 31
0.0
  0
LINE
  5
DF1
  8
0
 62
     0
 10
99.463122916881758
 20
55.100089544935493
 30
0.0
 11
99.706639043259173
 21
56.00890410103829
 31
0.0
  0
LINE
  5
DF2
  8
0
 62
     0
 10
98.826153751277772
 20
52.722888256046609
 30
0.0
 11
99.463122916881304
 21
55.10008954493378
 31
0.0
  0
LINE
  5
DF3
  8
0
 62
     0
 10
97.667971747660076
 20
53.109382577292699
 30
0.0
 11
98.213981231250983
 21
55.147117711468411
 31
0.0
  0
ENDBLK
  5
DF5
  8
0
  0
BLOCK
  8
0
  2
*X32
 70
     1
 10
0.0
 20
0.0
 30
0.0
  3
*X32
  1

  0
LINE
  5
DF7
  8
0
 62
     0
 10
228.11995923073991
 20
106.482182936485
 30
0.0
 11
226.9173191413054
 21
106.8044293772342
 31
0.0
  0
LINE
  5
DF8
  8
0
 62
     0
 10
225.49838084065769
 20
105.9228899041276
 30
0.0
 11
225.42466132929661
 21
105.94264298766321
 31
0.0
  0
LINE
  5
DF9
  8
0
 62
     0
 10
228.98174562030729
 20
104.9895251244775
 30
0.0
 11
225.49838084065789
 21
105.9228899041275
 31
0.0
  0
LINE
  5
DFA
  8
0
 62
     0
 10
226.3601672302278
 20
104.4302320921194
 30
0.0
 11
223.9320035172864
 21
105.08085659809259
 31
0.0
  0
LINE
  5
DFB
  8
0
 62
     0
 10
229.84353200987471
 20
103.49686731247
 30
0.0
 11
226.36016723023229
 21
104.4302320921182
 31
0.0
  0
LINE
  5
DFC
  8
0
 62
     0
 10
226.92829611472271
 20
103.01625957144741
 30
0.0
 11
223.73858884014859
 21
103.8709390597612
 31
0.0
  0
LINE
  5
DFD
  8
0
 62
     0
 10
228.95230621062899
 20
103.01625957144741
 30
0.0
 11
229.32277078997129
 21
104.3988522039574
 31
0.0
  0
LINE
  5
DFE
  8
0
 62
     0
 10
227.6905633657542
 20
103.01625957144741
 30
0.0
 11
228.4609844004012
 21
105.8915100159697
 31
0.0
  0
LINE
  5
DFF
  8
0
 62
     0
 10
226.66583323118061
 20
103.900803048331
 30
0.0
 11
227.5402207799944
 21
107.1640618060099
 31
0.0
  0
LINE
  5
E00
  8
0
 62
     0
 10
226.42882052087941
 20
103.01625957144741
 30
0.0
 11
226.66583323117899
 21
103.9008030483249
 31
0.0
  0
LINE
  5
E01
  8
0
 62
     0
 10
225.8040468416086
 20
105.39346086033621
 30
0.0
 11
226.04756296798601
 21
106.3022754164391
 31
0.0
  0
LINE
  5
E02
  8
0
 62
     0
 10
225.1670776760046
 20
103.01625957144741
 30
0.0
 11
225.80404684160811
 21
105.3934608603345
 31
0.0
  0
LINE
  5
E03
  8
0
 62
     0
 10
224.0088956723869
 20
103.4027538926935
 30
0.0
 11
224.55490515597779
 21
105.4404890268692
 31
0.0
  0
ENDBLK
  5
E05
  8
0
  0
BLOCK
  8
0
  2
*X33
 70
     1
 10
0.0
 20
0.0
 30
0.0
  3
*X33
  1

  0
LINE
  5
E0D
  8
0
 62
     0
 10
1747.4527132337689
 20
884.85918347110544
 30
0.0
 11
1746.2500731443349
 21
885.18142991185471
 31
0.0
  0
LINE
  5
E0E
  8
0
 62
     0
 10
1744.8311348436871
 20
884.29989043874798
 30
0.0
 11
1744.757415332326
 21
884.31964352228363
 31
0.0
  0
LINE
  5
E0F
  8
0
 62
     0
 10
1748.314499623337
 20
883.36652565909787
 30
0.0
 11
1744.8311348436871
 21
884.29989043874775
 31
0.0
  0
LINE
  5
E10
  8
0
 62
     0
 10
1745.692921233257
 20
882.80723262673973
 30
0.0
 11
1743.2647575203159
 21
883.457857132713
 31
0.0
  0
LINE
  5
E11
  8
0
 62
     0
 10
1749.176286012904
 20
881.87386784709042
 30
0.0
 11
1745.692921233262
 21
882.80723262673871
 31
0.0
  0
LINE
  5
E12
  8
0
 62
     0
 10
1746.2610501177519
 20
881.39326010606794
 30
0.0
 11
1743.0713428431779
 21
882.24793959438148
 31
0.0
  0
LINE
  5
E13
  8
0
 62
     0
 10
1748.285060213658
 20
881.39326010606771
 30
0.0
 11
1748.655524793
 21
882.77585273857801
 31
0.0
  0
LINE
  5
E14
  8
0
 62
     0
 10
1747.0233173687841
 20
881.39326010606771
 30
0.0
 11
1747.793738403431
 21
884.26851055059024
 31
0.0
  0
LINE
  5
E15
  8
0
 62
     0
 10
1745.9985872342099
 20
882.27780358295126
 30
0.0
 11
1746.8729747830239
 21
885.54106234063033
 31
0.0
  0
LINE
  5
E16
  8
0
 62
     0
 10
1745.7615745239091
 20
881.39326010606771
 30
0.0
 11
1745.9985872342079
 21
882.27780358294535
 31
0.0
  0
LINE
  5
E17
  8
0
 62
     0
 10
1745.1368008446379
 20
883.77046139495656
 30
0.0
 11
1745.380316971015
 21
884.67927595105948
 31
0.0
  0
LINE
  5
E18
  8
0
 62
     0
 10
1744.4998316790341
 20
881.39326010606771
 30
0.0
 11
1745.1368008446379
 21
883.77046139495485
 31
0.0
  0
LINE
  5
E19
  8
0
 62
     0
 10
1743.341649675416
 20
881.77975442731395
 30
0.0
 11
1743.8876591590069
 21
883.81748956148977
 31
0.0
  0
ENDBLK
  5
E1B
  8
0
  0
BLOCK
  8
0
  2
*U34
 70
     1
 10
0.0
 20
0.0
 30
0.0
  3
*U34
  1

  0
TEXT
  5
E1D
  8
0
 10
1.796961047846074
 20
7.5649477821703917
 30
0.0
 40
20.0
  1
WBK17
  7
DUKI7
  0
ENDBLK
  5
E1F
  8
0
  0
BLOCK
  8
0
  2
*X35
 70
     1
 10
0.0
 20
0.0
 30
0.0
  3
*X35
  1

  0
LINE
  5
E21
  8
0
 62
     0
 10
2258.4953834820399
 20
878.31854702988164
 30
0.0
 11
2257.2927433926061
 21
878.64079347063091
 31
0.0
  0
LINE
  5
E22
  8
0
 62
     0
 10
2255.8738050919578
 20
877.75925399752407
 30
0.0
 11
2255.8000855805972
 21
877.77900708105972
 31
0.0
  0
LINE
  5
E23
  8
0
 62
     0
 10
2259.3571698716082
 20
876.82588921787385
 30
0.0
 11
2255.8738050919578
 21
877.75925399752407
 31
0.0
  0
LINE
  5
E24
  8
0
 62
     0
 10
2256.735591481528
 20
876.26659618551605
 30
0.0
 11
2254.3074277685869
 21
876.91722069148909
 31
0.0
  0
LINE
  5
E25
  8
0
 62
     0
 10
2260.2189562611752
 20
875.33323140586651
 30
0.0
 11
2256.735591481533
 21
876.2665961855148
 31
0.0
  0
LINE
  5
E26
  8
0
 62
     0
 10
2257.3037203660228
 20
874.85262366484415
 30
0.0
 11
2254.1140130914491
 21
875.70730315315768
 31
0.0
  0
LINE
  5
E27
  8
0
 62
     0
 10
2259.3277304619291
 20
874.85262366484415
 30
0.0
 11
2259.6981950412719
 21
876.23521629735399
 31
0.0
  0
LINE
  5
E28
  8
0
 62
     0
 10
2258.0659876170548
 20
874.85262366484415
 30
0.0
 11
2258.8364086517008
 21
877.7278741093661
 31
0.0
  0
LINE
  5
E29
  8
0
 62
     0
 10
2257.0412574824809
 20
875.73716714172735
 30
0.0
 11
2257.9156450312948
 21
879.00042589940665
 31
0.0
  0
LINE
  5
E2A
  8
0
 62
     0
 10
2256.80424477218
 20
874.85262366484415
 30
0.0
 11
2257.04125748248
 21
875.73716714172144
 31
0.0
  0
LINE
  5
E2B
  8
0
 62
     0
 10
2256.1794710929089
 20
877.22982495373265
 30
0.0
 11
2256.4229872192859
 21
878.1386395098358
 31
0.0
  0
LINE
  5
E2C
  8
0
 62
     0
 10
2255.5425019273048
 20
874.85262366484415
 30
0.0
 11
2256.1794710929089
 21
877.22982495373105
 31
0.0
  0
LINE
  5
E2D
  8
0
 62
     0
 10
2254.3843199236871
 20
875.23911798608981
 30
0.0
 11
2254.9303294072779
 21
877.27685312026586
 31
0.0
  0
ENDBLK
  5
E2F
  8
0
  0
BLOCK
  8
0
  2
*U36
 70
     1
 10
0.0
 20
0.0
 30
0.0
  3
*U36
  1

  0
TEXT
  5
E31
  8
0
 10
169.4142126830348
 20
-18.489302031308188
 30
0.0
 40
20.0
  1
WBK40
  7
DUKI7
  0
ENDBLK
  5
E33
  8
0
  0
ENDSEC
  0
SECTION
  2
ENTITIES
  0
LINE
  5
2B0
  8
CENTER
  6
CENTER
 10
100.7017789407852
 20
159.26628034550509
 30
0.0
 11
100.7017789407852
 21
8.266280345505109
 31
0.0
  0
LINE
  5
2B4
  8
CENTER
  6
CENTER
 10
171.0191440196287
 20
83.766280345505109
 30
0.0
 11
30.384413861941781
 21
83.766280345505109
 31
0.0
  0
LINE
  5
30E
  8
CENTER
 10
318.54388791587371
 20
83.766259571445588
 30
0.0
 11
207.017590348558
 21
83.766259571445588
 31
0.0
  0
LINE
  5
41E
  8
CENTER
  6
CENTER
 10
370.28791338936861
 20
143.76628034550509
 30
0.0
 11
370.28791338936861
 21
23.76628034550512
 31
0.0
  0
LINE
  5
41F
  8
CENTER
  6
CENTER
 10
420.28790338936881
 20
83.766280345505109
 30
0.0
 11
370.28791338936861
 21
83.766280345505109
 31
0.0
  0
CIRCLE
  5
5D3
  8
0
 10
100.7017789407852
 20
126.26628034550519
 30
0.0
 40
7.0
  0
CIRCLE
  5
5D4
  8
0
 10
100.7017789407852
 20
126.26628034550519
 30
0.0
 40
6.0
  0
LINE
  5
5D5
  8
0
 10
103.72677894078529
 20
124.5057761563594
 30
0.0
 11
103.7267789407852
 21
128.026784534651
 31
0.0
  0
LINE
  5
5D6
  8
0
 10
97.676778940785255
 20
124.5057761563594
 30
0.0
 11
97.676778940785255
 21
128.026784534651
 31
0.0
  0
LINE
  5
5D7
  8
0
 10
97.676778940785255
 20
124.5057761563594
 30
0.0
 11
97.676778940785255
 21
128.026784534651
 31
0.0
  0
LINE
  5
5D8
  8
0
 10
97.676778940785283
 20
128.02678453465111
 30
0.0
 11
100.7017789407852
 21
129.76628034550521
 31
0.0
  0
LINE
  5
5D9
  8
0
 10
100.7017789407852
 20
129.76628034550521
 30
0.0
 11
103.72677894078529
 21
128.026784534651
 31
0.0
  0
LINE
  5
5DA
  8
0
 10
97.676778940785283
 20
124.5057761563594
 30
0.0
 11
100.7017789407852
 21
122.76628034550519
 31
0.0
  0
LINE
  5
5DB
  8
0
 10
100.7017789407852
 20
122.76628034550519
 30
0.0
 11
103.72677894078529
 21
124.5057761563595
 31
0.0
  0
LINE
  5
5EF
  8
CENTER
 10
70.762182236267464
 20
97.727343570893893
 30
0.0
 11
53.236557020275647
 21
105.89967682306521
 31
0.0
  0
CIRCLE
  5
5F0
  8
0
 10
62.183697991727591
 20
101.7275564694848
 30
0.0
 40
7.0
  0
CIRCLE
  5
5F1
  8
0
 10
62.183697991727591
 20
101.7275564694848
 30
0.0
 40
6.0
  0
LINE
  5
5F2
  8
0
 10
59.158697991727557
 20
99.967052280339061
 30
0.0
 11
59.158697991727578
 21
103.4880606586306
 31
0.0
  0
LINE
  5
5F3
  8
0
 10
65.208697991727604
 20
99.967052280339004
 30
0.0
 11
65.208697991727604
 21
103.4880606586306
 31
0.0
  0
LINE
  5
5F4
  8
0
 10
65.208697991727604
 20
99.967052280339004
 30
0.0
 11
65.208697991727604
 21
103.4880606586306
 31
0.0
  0
LINE
  5
5F5
  8
0
 10
65.208697991727576
 20
103.4880606586307
 30
0.0
 11
62.183697991727591
 21
105.2275564694848
 31
0.0
  0
LINE
  5
5F6
  8
0
 10
62.183697991727591
 20
105.2275564694848
 30
0.0
 11
59.158697991727557
 21
103.4880606586306
 31
0.0
  0
LINE
  5
5F7
  8
0
 10
65.208697991727576
 20
99.96705228033899
 30
0.0
 11
62.183697991727591
 21
98.227556469484838
 31
0.0
  0
LINE
  5
5F8
  8
0
 10
62.183697991727591
 20
98.227556469484838
 30
0.0
 11
59.158697991727529
 21
99.967052280339104
 31
0.0
  0
CIRCLE
  5
60E
  8
0
 10
85.043226712082756
 20
142.20479283599369
 30
0.0
 40
8.75
  0
CIRCLE
  5
60F
  8
0
 10
85.043226712082756
 20
142.20479283599369
 30
0.0
 40
5.5
  0
ARC
  5
61F
  8
HIDE
 10
72.417507693323415
 20
112.0505515929669
 30
0.0
 40
3.0
 50
239.80903336669891
 51
145.78362026624319
  0
CIRCLE
  5
620
  8
0
 10
72.417507693323415
 20
112.0505515929669
 30
0.0
 40
2.5
  0
LINE
  5
674
  8
CENTER
  6
CENTER
 10
272.12174330971197
 20
108.52601519663941
 30
0.0
 11
260.77681330970898
 21
115.0760151966423
 31
0.0
  0
CIRCLE
  5
675
  8
HIDE
 10
266.44928330971038
 20
111.8010651966396
 30
0.0
 40
3.1749990000000001
  0
LINE
  5
676
  8
HIDE
 10
273.94928330971038
 20
115.3010651966396
 30
0.0
 11
267.85128330970861
 21
115.3010651966396
 31
0.0
  0
LINE
  5
680
  8
HIDE
 10
273.44928330971038
 20
111.8010651966396
 30
0.0
 11
269.6242833097096
 21
111.8010651966396
 31
0.0
  0
LINE
  5
681
  8
HIDE
 10
265.40976330971188
 20
108.8010651966396
 30
0.0
 11
259.44928330971038
 21
108.8010651966396
 31
0.0
  0
LINE
  5
682
  8
HIDE
 10
263.27429330971091
 20
111.8010651966396
 30
0.0
 11
259.44928330971038
 21
111.8010651966396
 31
0.0
  0
ARC
  5
683
  8
HIDE
 10
267.85128330970861
 20
114.8010651966396
 30
0.0
 40
0.5
 50
90.000018000116427
 51
174.99627800008199
  0
ARC
  5
684
  8
HIDE
 10
259.44928330971038
 20
108.3010651966396
 30
0.0
 40
0.5
 50
90.000018000116427
 51
179.99996399997551
  0
ARC
  5
685
  8
HIDE
 10
259.44928330971038
 20
112.3010651966396
 30
0.0
 40
0.5
 50
179.99995999999589
 51
269.9999800001022
  0
ARC
  5
68E
  8
HIDE
 10
273.44928346679097
 20
111.3010651966396
 30
0.0
 40
0.5
 50
0.0000400000040257
 51
90.000018000116427
  0
LINE
  5
690
  8
HIDE
 10
288.94928330971038
 20
118.7662595714456
 30
0.0
 11
288.94928330971038
 21
104.76628034550509
 31
0.0
  0
LINE
  5
692
  8
HIDE
 10
273.94928330971038
 20
118.7662595714456
 30
0.0
 11
273.94928330971038
 21
104.7662796473732
 31
0.0
  0
LINE
  5
693
  8
CENTER
  6
CENTER
 10
287.12168330970979
 20
115.07602519664199
 30
0.0
 11
275.7767633097103
 21
108.5260351966425
 31
0.0
  0
ARC
  5
694
  8
HIDE
 10
280.04727330970871
 20
114.8010651966396
 30
0.0
 40
0.5
 50
5.003720000016469
 51
90.000018000116427
  0
CIRCLE
  5
695
  8
HIDE
 10
281.44928330971038
 20
111.8010651966396
 30
0.0
 40
3.1749990000000001
  0
LINE
  5
696
  8
HIDE
 10
288.44928330971038
 20
108.8010651966396
 30
0.0
 11
282.48880330970883
 21
108.8010651966396
 31
0.0
  0
LINE
  5
697
  8
HIDE
 10
288.44928330971038
 20
111.8010651966396
 30
0.0
 11
284.62426330971022
 21
111.8010651966396
 31
0.0
  0
ARC
  5
698
  8
HIDE
 10
288.44928330971038
 20
108.3010651966396
 30
0.0
 40
0.5
 50
0.0000400000040257
 51
90.000018000116427
  0
ARC
  5
699
  8
HIDE
 10
288.44928330971038
 20
112.3010651966396
 30
0.0
 40
0.5
 50
270.0
 51
0.0000400000040257
  0
LINE
  5
69A
  8
HIDE
 10
278.2742733097113
 20
111.8010651966396
 30
0.0
 11
274.44928330971038
 21
111.8010651966396
 31
0.0
  0
LINE
  5
69B
  8
HIDE
 10
280.04727330970871
 20
115.3010651966396
 30
0.0
 11
273.94928330971038
 21
115.3010651966396
 31
0.0
  0
ARC
  5
69C
  8
HIDE
 10
274.44928346679097
 20
111.3010651966396
 30
0.0
 40
0.5
 50
90.000018000116427
 51
180.0
  0
LINE
  5
69D
  8
HIDE
 10
258.94928330971038
 20
119.7662595714456
 30
0.0
 11
258.94928330971038
 21
104.766280345505
 31
0.0
  0
ARC
  5
6B2
  8
HIDE
 10
272.94928330971021
 20
104.766280345505
 30
0.0
 40
1.0
 50
269.9999800001022
 51
359.99995999999589
  0
ARC
  5
6B7
  8
HIDE
 10
272.94928330971021
 20
118.7662595714456
 30
0.0
 40
1.0
 50
0.0000400000040257
 51
90.000018000116427
  0
ARC
  5
6B8
  8
HIDE
 10
259.94928330971021
 20
104.766280345505
 30
0.0
 40
1.0
 50
180.0
 51
269.9999800001022
  0
ARC
  5
6B9
  8
HIDE
 10
259.94928330971021
 20
118.7662595714456
 30
0.0
 40
1.0
 50
90.000018000116427
 51
179.99996399997551
  0
ARC
  5
6BA
  8
HIDE
 10
287.94928330970998
 20
104.7662796473732
 30
0.0
 40
1.0
 50
270.0
 51
0.0000400000040257
  0
ARC
  5
6BB
  8
HIDE
 10
274.94928330970998
 20
104.7662796473732
 30
0.0
 40
1.0
 50
180.0
 51
269.9999800001022
  0
ARC
  5
6BC
  8
HIDE
 10
287.94928330970998
 20
118.7662588733137
 30
0.0
 40
1.0
 50
0.0000400000040257
 51
90.000018000116427
  0
ARC
  5
6BD
  8
HIDE
 10
274.94928330970998
 20
118.7662588733137
 30
0.0
 40
1.0
 50
90.000018000116427
 51
180.0
  0
LINE
  5
6C0
  8
HIDE
 10
274.94810167388948
 20
103.76628034550509
 30
0.0
 11
287.95046494553787
 21
103.76628034550509
 31
0.0
  0
LINE
  5
6C3
  8
HIDE
 10
259.94928330971021
 20
103.76628034550509
 30
0.0
 11
272.94928330971021
 21
103.76628034550509
 31
0.0
  0
LINE
  5
6F3
  8
CENTER
 10
395.2187378042006
 20
108.6971047603371
 30
0.0
 11
402.55293726665548
 21
116.0313042227921
 31
0.0
  0
ARC
  5
6F4
  8
HIDE
 10
398.57218463683051
 20
112.050551592967
 30
0.0
 40
3.0
 50
215.24317242610829
 51
123.57783539362831
  0
CIRCLE
  5
6F9
  8
0
 10
398.57218463683051
 20
112.050551592967
 30
0.0
 40
2.5
  0
LINE
  5
6FA
  8
CENTER
 10
395.2187378042006
 20
58.835455930673099
 30
0.0
 11
402.55293726665548
 21
51.501256468218152
 31
0.0
  0
ARC
  5
6FB
  8
HIDE
 10
398.57218463683051
 20
55.482009098043179
 30
0.0
 40
3.0
 50
236.42216460637161
 51
144.75682757389271
  0
CIRCLE
  5
6FC
  8
0
 10
398.57218463683051
 20
55.482009098043228
 30
0.0
 40
2.5
  0
LINE
  5
6FD
  8
CENTER
 10
310.7115149983307
 20
123.76628034550509
 30
0.0
 11
289.67491902019748
 21
123.76628034550509
 31
0.0
  0
LINE
  5
6FE
  8
HIDE
 10
306.94928330971038
 20
126.76628034550509
 30
0.0
 11
298.81530871349491
 21
126.76628034550509
 31
0.0
  0
LINE
  5
6FF
  8
HIDE
 10
306.94928330971038
 20
120.76628034550509
 30
0.0
 11
298.81530871349491
 21
120.76628034550509
 31
0.0
  0
LINE
  5
700
  8
HIDE
 10
297.94928330971061
 20
121.26628034550509
 30
0.0
 11
297.94928330971049
 21
126.26628034550509
 31
0.0
  0
LINE
  5
701
  8
HIDE
 10
293.94928330971049
 20
121.266280345505
 30
0.0
 11
293.94928330971049
 21
126.26628034550509
 31
0.0
  0
LINE
  5
702
  8
HIDE
 10
306.94928330971038
 20
126.26628034550509
 30
0.0
 11
293.94928330971049
 21
126.26628034550509
 31
0.0
  0
LINE
  5
703
  8
HIDE
 10
306.94928330971038
 20
121.26628034550509
 30
0.0
 11
293.94928330971049
 21
121.266280345505
 31
0.0
  0
LINE
  5
706
  8
HIDE
 10
297.94928330971038
 20
126.26628034550509
 30
0.0
 11
298.81530871349491
 21
126.76628034550509
 31
0.0
  0
LINE
  5
709
  8
HIDE
 10
293.94928330971049
 20
126.26628034550509
 30
0.0
 11
292.50590763673642
 21
123.76628034550509
 31
0.0
  0
LINE
  5
72A
  8
HIDE
 10
293.94928330971049
 20
121.266280345505
 30
0.0
 11
292.50590763673642
 21
123.76628034550509
 31
0.0
  0
LINE
  5
72B
  8
HIDE
 10
297.94928330971038
 20
121.26628034550509
 30
0.0
 11
298.81530871349491
 21
120.766280345505
 31
0.0
  0
CIRCLE
  5
7D5
  8
0
 10
100.7017789407853
 20
83.766280345505109
 30
0.0
 40
51.0
  0
LINE
  5
7D6
  8
CENTER
 10
88.925512388620604
 20
127.7159054416577
 30
0.0
 11
81.160941035544937
 21
156.6936802303297
 31
0.0
  0
LINE
  5
7D7
  8
CENTER
 10
80.195682286375416
 20
104.2723769999149
 30
0.0
 11
47.315216961200917
 21
137.15284232508941
 31
0.0
  0
CIRCLE
  5
7D9
  8
0
 10
57.921818678999152
 20
126.5462406072912
 30
0.0
 40
8.75
  0
CIRCLE
  5
7DA
  8
0
 10
57.921818678999152
 20
126.5462406072912
 30
0.0
 40
5.5
  0
CIRCLE
  5
7E0
  8
CENTER
 10
100.7017789407852
 20
83.766280345505237
 30
0.0
 40
42.5
  0
CIRCLE
  5
7E1
  8
0
 10
100.7017789407853
 20
83.766280345505066
 30
0.0
 40
34.5
  0
CIRCLE
  5
7E8
  8
0
 10
100.7017789407853
 20
83.766280345505066
 30
0.0
 40
32.0
  0
CIRCLE
  5
7E9
  8
0
 10
100.7017789407852
 20
83.766280345505109
 30
0.0
 40
34.0
  0
ARC
  5
7F3
  8
CENTER
 10
100.7017789407853
 20
83.766280345505066
 30
0.0
 40
40.0
 50
126.08132804524431
 51
142.2985917028945
  0
ARC
  5
808
  8
HIDE
 10
72.417507693323358
 20
55.482009098043207
 30
0.0
 40
3.0
 50
239.809033366699
 51
145.7836202662431
  0
CIRCLE
  5
809
  8
0
 10
72.417507693323358
 20
55.482009098043207
 30
0.0
 40
2.5
  0
ARC
  5
80A
  8
HIDE
 10
128.98605018824719
 20
55.482009098043157
 30
0.0
 40
3.0
 50
239.8090333666992
 51
145.78362026624299
  0
CIRCLE
  5
80B
  8
0
 10
128.98605018824719
 20
55.482009098043157
 30
0.0
 40
2.5
  0
ARC
  5
80C
  8
HIDE
 10
128.98605018824711
 20
112.050551592967
 30
0.0
 40
3.0
 50
239.80903336669911
 51
145.7836202662431
  0
CIRCLE
  5
80D
  8
0
 10
128.98605018824711
 20
112.050551592967
 30
0.0
 40
2.5
  0
ARC
  5
812
  8
CENTER
 10
100.7017789407853
 20
83.766280345505066
 30
0.0
 40
40.0
 50
215.8064009745741
 51
233.77143524715211
  0
ARC
  5
813
  8
CENTER
 10
100.7017789407853
 20
83.766280345505066
 30
0.0
 40
40.0
 50
306.8071802159796
 51
323.43207062774923
  0
ARC
  5
814
  8
CENTER
 10
100.7017789407853
 20
83.766280345505066
 30
0.0
 40
40.0
 50
36.45532321061048
 51
53.637268795765443
  0
CIRCLE
  5
815
  8
0
 10
100.7017789407852
 20
41.266280345504981
 30
0.0
 40
7.0
  0
CIRCLE
  5
816
  8
0
 10
100.7017789407852
 20
41.266280345504981
 30
0.0
 40
6.0
  0
LINE
  5
817
  8
0
 10
103.72677894078529
 20
43.026784534650737
 30
0.0
 11
103.7267789407852
 21
39.505776156359161
 31
0.0
  0
LINE
  5
818
  8
0
 10
97.676778940785255
 20
43.026784534650787
 30
0.0
 11
97.676778940785255
 21
39.505776156359161
 31
0.0
  0
LINE
  5
819
  8
0
 10
97.676778940785255
 20
43.026784534650787
 30
0.0
 11
97.676778940785255
 21
39.505776156359161
 31
0.0
  0
LINE
  5
81A
  8
0
 10
97.676778940785283
 20
39.505776156359133
 30
0.0
 11
100.7017789407852
 21
37.766280345504981
 31
0.0
  0
LINE
  5
81B
  8
0
 10
100.7017789407852
 20
37.766280345504981
 30
0.0
 11
103.72677894078529
 21
39.50577615635919
 31
0.0
  0
LINE
  5
81C
  8
0
 10
97.676778940785283
 20
43.02678453465083
 30
0.0
 11
100.7017789407852
 21
44.766280345504981
 31
0.0
  0
LINE
  5
81D
  8
0
 10
100.7017789407852
 20
44.766280345504981
 30
0.0
 11
103.72677894078529
 21
43.026784534650709
 31
0.0
  0
LINE
  5
81E
  8
CENTER
 10
70.762182236267464
 20
69.805217120116325
 30
0.0
 11
53.236557020275647
 21
61.632883867944969
 31
0.0
  0
CIRCLE
  5
81F
  8
0
 10
62.183697991727591
 20
65.80500422152538
 30
0.0
 40
7.0
  0
CIRCLE
  5
820
  8
0
 10
62.183697991727591
 20
65.80500422152538
 30
0.0
 40
6.0
  0
LINE
  5
821
  8
0
 10
59.158697991727557
 20
67.565508410671157
 30
0.0
 11
59.158697991727578
 21
64.044500032379545
 31
0.0
  0
LINE
  5
822
  8
0
 10
65.208697991727604
 20
67.565508410671214
 30
0.0
 11
65.208697991727604
 21
64.044500032379545
 31
0.0
  0
LINE
  5
823
  8
0
 10
65.208697991727604
 20
67.565508410671214
 30
0.0
 11
65.208697991727604
 21
64.044500032379545
 31
0.0
  0
LINE
  5
824
  8
0
 10
65.208697991727576
 20
64.044500032379531
 30
0.0
 11
62.183697991727591
 21
62.305004221525373
 31
0.0
  0
LINE
  5
825
  8
0
 10
62.183697991727591
 20
62.305004221525373
 30
0.0
 11
59.158697991727557
 21
64.044500032379574
 31
0.0
  0
LINE
  5
826
  8
0
 10
65.208697991727576
 20
67.565508410671228
 30
0.0
 11
62.183697991727591
 21
69.30500422152538
 31
0.0
  0
LINE
  5
827
  8
0
 10
62.183697991727591
 20
69.30500422152538
 30
0.0
 11
59.158697991727529
 21
67.565508410671114
 31
0.0
  0
LINE
  5
828
  8
CENTER
 10
130.64137564530299
 20
97.727343570893893
 30
0.0
 11
148.16700086129481
 21
105.89967682306521
 31
0.0
  0
CIRCLE
  5
829
  8
0
 10
139.21985988984289
 20
101.7275564694848
 30
0.0
 40
7.0
  0
CIRCLE
  5
82A
  8
0
 10
139.21985988984289
 20
101.7275564694848
 30
0.0
 40
6.0
  0
LINE
  5
82B
  8
0
 10
142.2448598898429
 20
99.967052280339061
 30
0.0
 11
142.2448598898429
 21
103.4880606586306
 31
0.0
  0
LINE
  5
82C
  8
0
 10
136.19485988984289
 20
99.967052280339004
 30
0.0
 11
136.19485988984289
 21
103.4880606586306
 31
0.0
  0
LINE
  5
82D
  8
0
 10
136.19485988984289
 20
99.967052280339004
 30
0.0
 11
136.19485988984289
 21
103.4880606586306
 31
0.0
  0
LINE
  5
82E
  8
0
 10
136.19485988984289
 20
103.4880606586307
 30
0.0
 11
139.21985988984289
 21
105.2275564694848
 31
0.0
  0
LINE
  5
82F
  8
0
 10
139.21985988984289
 20
105.2275564694848
 30
0.0
 11
142.2448598898429
 21
103.4880606586306
 31
0.0
  0
LINE
  5
830
  8
0
 10
136.19485988984289
 20
99.96705228033899
 30
0.0
 11
139.21985988984289
 21
98.227556469484838
 31
0.0
  0
LINE
  5
831
  8
0
 10
139.21985988984289
 20
98.227556469484838
 30
0.0
 11
142.24485988984301
 21
99.967052280339104
 31
0.0
  0
LINE
  5
832
  8
CENTER
 10
130.64137564530299
 20
69.805217120116325
 30
0.0
 11
148.16700086129481
 21
61.632883867944969
 31
0.0
  0
CIRCLE
  5
833
  8
0
 10
139.21985988984289
 20
65.80500422152538
 30
0.0
 40
7.0
  0
CIRCLE
  5
834
  8
0
 10
139.21985988984289
 20
65.80500422152538
 30
0.0
 40
6.0
  0
LINE
  5
835
  8
0
 10
142.2448598898429
 20
67.565508410671157
 30
0.0
 11
142.2448598898429
 21
64.044500032379545
 31
0.0
  0
LINE
  5
836
  8
0
 10
136.19485988984289
 20
67.565508410671214
 30
0.0
 11
136.19485988984289
 21
64.044500032379545
 31
0.0
  0
LINE
  5
837
  8
0
 10
136.19485988984289
 20
67.565508410671214
 30
0.0
 11
136.19485988984289
 21
64.044500032379545
 31
0.0
  0
LINE
  5
838
  8
0
 10
136.19485988984289
 20
64.044500032379531
 30
0.0
 11
139.21985988984289
 21
62.305004221525373
 31
0.0
  0
LINE
  5
839
  8
0
 10
139.21985988984289
 20
62.305004221525373
 30
0.0
 11
142.2448598898429
 21
64.044500032379574
 31
0.0
  0
LINE
  5
83A
  8
0
 10
136.19485988984289
 20
67.565508410671228
 30
0.0
 11
139.21985988984289
 21
69.30500422152538
 31
0.0
  0
LINE
  5
83B
  8
0
 10
139.21985988984289
 20
69.30500422152538
 30
0.0
 11
142.24485988984301
 21
67.565508410671114
 31
0.0
  0
LINE
  5
85D
  8
0
 10
256.94928330971038
 20
154.76628034550509
 30
0.0
 11
272.94928330971032
 21
154.76628034550501
 31
0.0
  0
LINE
  5
85E
  8
0
 10
241.94928330971041
 20
134.76628034550509
 30
0.0
 11
255.9492833097103
 21
134.76628034550509
 31
0.0
  0
LINE
  5
860
  8
0
 10
273.94928330971032
 20
131.2662595714456
 30
0.0
 11
273.94928330971032
 21
153.76628034550501
 31
0.0
  0
LINE
  5
861
  8
0
 10
255.94928330971041
 20
153.76628034550509
 30
0.0
 11
256.94928330971038
 21
154.76628034550509
 31
0.0
  0
LINE
  5
862
  8
0
 10
272.94928330971032
 20
154.76628034550501
 30
0.0
 11
273.94928330971032
 21
153.76628034550509
 31
0.0
  0
LINE
  5
864
  8
CENTER
 10
284.53113671266658
 20
144.2662595714456
 30
0.0
 11
243.725490209106
 21
144.2662595714456
 31
0.0
  0
ARC
  5
865
  8
0
 10
100.7017789407853
 20
83.766280345505066
 30
0.0
 40
71.0
 50
41.713719322368597
 51
138.28628067763159
  0
CIRCLE
  5
866
  8
CENTER
 10
100.7017789407852
 20
83.766280345505109
 30
0.0
 40
60.5
  0
ARC
  5
86E
  8
0
 10
100.7017789407853
 20
83.766280345505066
 30
0.0
 40
71.0
 50
221.71371932236841
 51
318.2862806776314
  0
LINE
  5
86F
  8
0
 10
153.7017789407852
 20
131.01032758957601
 30
0.0
 11
153.7017789407852
 21
36.522233101434111
 31
0.0
  0
LINE
  5
870
  8
0
 10
47.701778940785239
 20
36.522233101434267
 30
0.0
 11
47.701778940785253
 21
131.01032758957581
 31
0.0
  0
CIRCLE
  5
871
  8
0
 10
116.36033116948769
 20
142.20479283599369
 30
0.0
 40
8.75
  0
CIRCLE
  5
872
  8
0
 10
116.36033116948769
 20
142.20479283599369
 30
0.0
 40
5.5
  0
LINE
  5
873
  8
CENTER
 10
112.4780454929499
 20
127.7159054416577
 30
0.0
 11
120.2426168460255
 21
156.69368023032979
 31
0.0
  0
LINE
  5
874
  8
CENTER
 10
121.20787559519511
 20
104.2723769999149
 30
0.0
 11
154.08834092036949
 21
137.15284232508941
 31
0.0
  0
CIRCLE
  5
875
  8
0
 10
143.4817392025713
 20
126.5462406072912
 30
0.0
 40
8.75
  0
CIRCLE
  5
876
  8
0
 10
143.4817392025713
 20
126.5462406072912
 30
0.0
 40
5.5
  0
CIRCLE
  5
877
  8
0
 10
85.043226712082756
 20
25.327767855016479
 30
0.0
 40
8.75
  0
CIRCLE
  5
878
  8
0
 10
85.043226712082756
 20
25.327767855016479
 30
0.0
 40
5.5
  0
LINE
  5
879
  8
CENTER
 10
88.925512388620604
 20
39.8166552493525
 30
0.0
 11
81.160941035544937
 21
10.838880460680439
 31
0.0
  0
LINE
  5
87A
  8
CENTER
 10
80.195682286375416
 20
63.260183691095278
 30
0.0
 11
47.315216961200917
 21
30.37971836592078
 31
0.0
  0
CIRCLE
  5
87B
  8
0
 10
57.921818678999152
 20
40.986320083718958
 30
0.0
 40
8.75
  0
CIRCLE
  5
87C
  8
0
 10
57.921818678999152
 20
40.986320083718958
 30
0.0
 40
5.5
  0
CIRCLE
  5
87D
  8
0
 10
116.36033116948769
 20
25.327767855016479
 30
0.0
 40
8.75
  0
CIRCLE
  5
87E
  8
0
 10
116.36033116948769
 20
25.327767855016479
 30
0.0
 40
5.5
  0
LINE
  5
87F
  8
CENTER
 10
112.4780454929499
 20
39.8166552493525
 30
0.0
 11
120.2426168460255
 21
10.838880460680439
 31
0.0
  0
LINE
  5
880
  8
CENTER
 10
121.20787559519511
 20
63.260183691095278
 30
0.0
 11
154.08834092036949
 21
30.37971836592077
 31
0.0
  0
CIRCLE
  5
881
  8
0
 10
143.4817392025713
 20
40.986320083718958
 30
0.0
 40
8.75
  0
CIRCLE
  5
882
  8
0
 10
143.4817392025713
 20
40.986320083718958
 30
0.0
 40
5.5
  0
LINE
  5
886
  8
HIDE
 10
273.94928330971032
 20
148.76625957144549
 30
0.0
 11
262.94928330971049
 21
148.76625957144549
 31
0.0
  0
LINE
  5
887
  8
HIDE
 10
273.94928330971032
 20
139.7662595714456
 30
0.0
 11
262.94928330971038
 21
139.7662595714456
 31
0.0
  0
LINE
  5
888
  8
HIDE
 10
262.94928330971049
 20
151.2662595714456
 30
0.0
 11
255.9492833097103
 21
151.2662595714456
 31
0.0
  0
LINE
  5
889
  8
HIDE
 10
262.94928330971038
 20
137.2662595714456
 30
0.0
 11
255.9492833097103
 21
137.2662595714456
 31
0.0
  0
LINE
  5
88A
  8
HIDE
 10
262.94928330971038
 20
137.2662595714456
 30
0.0
 11
262.94928330971049
 21
151.2662595714456
 31
0.0
  0
LINE
  5
88C
  8
0
 10
240.9492833097103
 20
83.766259571445616
 30
0.0
 11
240.94928330971041
 21
133.76628034550509
 31
0.0
  0
LINE
  5
88D
  8
0
 10
240.94928330971041
 20
133.76628034550509
 30
0.0
 11
241.94928330971041
 21
134.76628034550509
 31
0.0
  0
LINE
  5
88E
  8
HIDE
 10
240.94928330971041
 20
118.26628034550509
 30
0.0
 11
244.94928330971041
 21
118.266280345505
 31
0.0
  0
LINE
  5
88F
  8
HIDE
 10
244.94928330971041
 20
117.76628034550581
 30
0.0
 11
256.9492833097114
 21
117.76628034550581
 31
0.0
  0
LINE
  5
890
  8
HIDE
 10
256.9492833097114
 20
115.76628034550571
 30
0.0
 11
258.94928330971038
 21
115.76628034550571
 31
0.0
  0
LINE
  5
891
  8
HIDE
 10
244.94928330971101
 20
108.2662595714456
 30
0.0
 11
244.94928330971041
 21
118.266280345505
 31
0.0
  0
LINE
  5
893
  8
HIDE
 10
256.94928330971118
 20
108.2662595714456
 30
0.0
 11
256.9492833097114
 21
117.76628034550581
 31
0.0
  0
LINE
  5
894
  8
HIDE
 10
240.94928330971041
 20
103.76628034550509
 30
0.0
 11
258.94928330971021
 21
103.76628034550509
 31
0.0
  0
LINE
  5
896
  8
0
 10
306.94928330971049
 20
83.766259571445644
 30
0.0
 11
306.94928330971038
 21
130.26625957144549
 31
0.0
  0
LINE
  5
899
  8
HIDE
 10
258.94928330971038
 20
108.2662595714456
 30
0.0
 11
240.9492833097103
 21
108.2662595714456
 31
0.0
  0
LINE
  5
89A
  8
0
 10
255.94928330971041
 20
134.76628034550509
 30
0.0
 11
255.94928330971041
 21
153.76628034550509
 31
0.0
  0
LINE
  5
8AA
  8
0
 10
305.94928330971038
 20
131.26625957144549
 30
0.0
 11
273.94928330971032
 21
131.2662595714456
 31
0.0
  0
LINE
  5
8AB
  8
0
 10
306.94928330971038
 20
130.26625957144549
 30
0.0
 11
305.94928330971038
 21
131.26625957144549
 31
0.0
  0
LINE
  5
8AD
  8
HIDE
 10
287.94928299554869
 20
119.7662595714456
 30
0.0
 11
255.94928330971041
 21
119.7662595714456
 31
0.0
  0
LINE
  5
8ED
  8
HIDE
 10
290.94928330970959
 20
108.2662595714456
 30
0.0
 11
290.94928330970941
 21
117.76628034550581
 31
0.0
  0
LINE
  5
8EE
  8
HIDE
 10
302.94928330970981
 20
108.2662595714456
 30
0.0
 11
302.94928330971038
 21
118.266280345505
 31
0.0
  0
LINE
  5
8EF
  8
HIDE
 10
306.94928330971038
 20
118.26628034550509
 30
0.0
 11
302.94928330971038
 21
118.266280345505
 31
0.0
  0
LINE
  5
8F0
  8
HIDE
 10
302.94928330971038
 20
117.76628034550581
 30
0.0
 11
290.94928330970941
 21
117.76628034550581
 31
0.0
  0
LINE
  5
8F1
  8
HIDE
 10
290.94928330970941
 20
115.76628034550571
 30
0.0
 11
288.94928330971038
 21
115.76628034550571
 31
0.0
  0
LINE
  5
8F2
  8
HIDE
 10
288.94928330971038
 20
108.2662595714456
 30
0.0
 11
306.94928330971038
 21
108.2662595714456
 31
0.0
  0
LINE
  5
8F3
  8
HIDE
 10
255.94928330971041
 20
134.76628034550509
 30
0.0
 11
255.94928330971041
 21
119.7662595714456
 31
0.0
  0
ARC
  5
958
  8
0
 10
370.28791338936861
 20
83.766280345505109
 30
0.0
 40
32.0
 50
269.99999999999989
 51
90.000000000000099
  0
ARC
  5
959
  8
0
 10
370.28791338936861
 20
83.766280345505109
 30
0.0
 40
34.0
 50
269.99999999999989
 51
90.000000000000071
  0
ARC
  5
95A
  8
0
 10
370.28791338936861
 20
83.766280345505109
 30
0.0
 40
34.5
 50
269.99999999999989
 51
90.000000000000071
  0
ARC
  5
95B
  8
CENTER
 10
370.28791338936861
 20
83.766280345505109
 30
0.0
 40
40.0
 50
269.99999999999989
 51
90.000000000000071
  0
ARC
  5
95C
  8
0
 10
370.28791338936861
 20
83.766280345505109
 30
0.0
 40
47.5
 50
269.99999999999989
 51
90.000000000000057
  0
ARC
  5
999
  8
0
 10
370.28791338936861
 20
83.766280345505109
 30
0.0
 40
24.499979225940478
 50
269.99999999999989
 51
90.000000000000114
  0
ARC
  5
99B
  8
0
 10
370.28791338936861
 20
83.766280345505109
 30
0.0
 40
20.000000000000011
 50
269.99999999999977
 51
90.000000000000171
  0
LINE
  5
99C
  8
HIDE
 10
287.94928299554869
 20
47.766259571445659
 30
0.0
 11
255.94928330971041
 21
47.766259571445637
 31
0.0
  0
LINE
  5
99D
  8
HIDE
 10
259.94928330971021
 20
63.766238797386109
 30
0.0
 11
272.94928330971032
 21
63.766238797386123
 31
0.0
  0
LINE
  5
99E
  8
HIDE
 10
274.9481016738896
 20
63.766238797386123
 30
0.0
 11
287.95046494553787
 21
63.76623879738613
 31
0.0
  0
LINE
  5
9A0
  8
HIDE
 10
293.94928330971049
 20
46.266238797386222
 30
0.0
 11
293.94928330971049
 21
41.26623879738613
 31
0.0
  0
LINE
  5
9A1
  8
HIDE
 10
297.94928330971061
 20
46.266238797386158
 30
0.0
 11
297.94928330971061
 21
41.266238797386158
 31
0.0
  0
LINE
  5
9A3
  8
HIDE
 10
288.94928330971038
 20
48.766259571445651
 30
0.0
 11
288.94928330971038
 21
62.766238797386137
 31
0.0
  0
LINE
  5
9A4
  8
HIDE
 10
273.94928330971038
 20
48.76625957144563
 30
0.0
 11
273.94928330971049
 21
62.766239495518008
 31
0.0
  0
LINE
  5
9A5
  8
HIDE
 10
258.94928330971038
 20
47.766259571445637
 30
0.0
 11
258.94928330971038
 21
62.766238797386222
 31
0.0
  0
LINE
  5
9A6
  8
CENTER
  6
CENTER
 10
272.12174330971197
 20
59.006503946251868
 30
0.0
 11
260.7768133097091
 21
52.456503946248937
 31
0.0
  0
CIRCLE
  5
9A7
  8
HIDE
 10
266.44928330971038
 20
55.731453946251683
 30
0.0
 40
3.1749990000000001
  0
LINE
  5
9A8
  8
HIDE
 10
273.94928330971038
 20
52.231453946251669
 30
0.0
 11
267.85128330970872
 21
52.231453946251669
 31
0.0
  0
LINE
  5
9B2
  8
HIDE
 10
273.44928330971049
 20
55.731453946251683
 30
0.0
 11
269.62428330970971
 21
55.731453946251683
 31
0.0
  0
LINE
  5
9B3
  8
HIDE
 10
265.40976330971199
 20
58.731453946251662
 30
0.0
 11
259.44928330971038
 21
58.731453946251662
 31
0.0
  0
LINE
  5
9B4
  8
HIDE
 10
263.27429330971091
 20
55.731453946251662
 30
0.0
 11
259.44928330971038
 21
55.731453946251662
 31
0.0
  0
ARC
  5
9B5
  8
HIDE
 10
267.85128330970872
 20
52.731453946251669
 30
0.0
 40
0.5
 50
185.0037219999179
 51
269.99998199988357
  0
ARC
  5
9B6
  8
HIDE
 10
259.44928330971038
 20
59.231453946251662
 30
0.0
 40
0.5
 50
180.00003600002449
 51
269.99998199988357
  0
ARC
  5
9B7
  8
HIDE
 10
259.44928330971038
 20
55.231453946251662
 30
0.0
 40
0.5
 50
90.000019999897845
 51
180.00004000000399
  0
ARC
  5
9B8
  8
HIDE
 10
273.44928346679109
 20
56.231453946251648
 30
0.0
 40
0.5
 50
269.99998199988357
 51
359.99995999999589
  0
LINE
  5
9BA
  8
CENTER
  6
CENTER
 10
287.12168330970991
 20
52.456493946249232
 30
0.0
 11
275.7767633097103
 21
59.006483946248729
 31
0.0
  0
ARC
  5
9BB
  8
HIDE
 10
280.04727330970883
 20
52.731453946251669
 30
0.0
 40
0.5
 50
269.99998199988357
 51
354.99627999998432
  0
CIRCLE
  5
9BC
  8
HIDE
 10
281.44928330971049
 20
55.731453946251683
 30
0.0
 40
3.1749990000000001
  0
LINE
  5
9BD
  8
HIDE
 10
288.44928330971038
 20
58.73145394625169
 30
0.0
 11
282.48880330970889
 21
58.731453946251683
 31
0.0
  0
LINE
  5
9BE
  8
HIDE
 10
288.44928330971038
 20
55.73145394625169
 30
0.0
 11
284.62426330971022
 21
55.73145394625169
 31
0.0
  0
ARC
  5
9BF
  8
HIDE
 10
288.44928330971038
 20
59.23145394625169
 30
0.0
 40
0.5
 50
269.99998199988357
 51
359.99995999999589
  0
ARC
  5
9C0
  8
HIDE
 10
288.44928330971038
 20
55.23145394625169
 30
0.0
 40
0.5
 50
359.99995999999589
 51
90.000000000000057
  0
LINE
  5
9C1
  8
HIDE
 10
278.27427330971142
 20
55.731453946251683
 30
0.0
 11
274.44928330971038
 21
55.731453946251683
 31
0.0
  0
LINE
  5
9C2
  8
HIDE
 10
280.04727330970883
 20
52.231453946251669
 30
0.0
 11
273.94928330971038
 21
52.231453946251669
 31
0.0
  0
ARC
  5
9C3
  8
HIDE
 10
274.44928346679109
 20
56.231453946251648
 30
0.0
 40
0.5
 50
180.0
 51
269.99998199988357
  0
ARC
  5
9C6
  8
HIDE
 10
272.94928330971032
 20
62.766238797386237
 30
0.0
 40
1.0
 50
0.0000400000040257
 51
90.000019999897845
  0
ARC
  5
9C9
  8
HIDE
 10
272.94928330971032
 20
48.76625957144563
 30
0.0
 40
1.0
 50
269.99998199988357
 51
359.99995999999589
  0
ARC
  5
9CA
  8
HIDE
 10
259.94928330971021
 20
62.766238797386222
 30
0.0
 40
1.0
 50
90.000019999897845
 51
180.0
  0
ARC
  5
9CB
  8
HIDE
 10
259.94928330971021
 20
48.766259571445609
 30
0.0
 40
1.0
 50
180.00003600002449
 51
269.99998199988357
  0
ARC
  5
9CC
  8
HIDE
 10
287.9492833097101
 20
62.766239495518022
 30
0.0
 40
1.0
 50
359.99995999999589
 51
90.000000000000057
  0
ARC
  5
9CD
  8
HIDE
 10
274.94928330970998
 20
62.766239495518008
 30
0.0
 40
1.0
 50
90.000019999897845
 51
180.0
  0
ARC
  5
9CE
  8
HIDE
 10
287.9492833097101
 20
48.766260269577529
 30
0.0
 40
1.0
 50
269.99998199988357
 51
359.99995999999589
  0
ARC
  5
9CF
  8
HIDE
 10
274.94928330970998
 20
48.766260269577508
 30
0.0
 40
1.0
 50
180.0
 51
269.99998199988357
  0
LINE
  5
9D6
  8
CENTER
 10
310.71151499833081
 20
43.76623879738618
 30
0.0
 11
289.67491902019759
 21
43.766238797386187
 31
0.0
  0
LINE
  5
9D7
  8
HIDE
 10
306.94928330971038
 20
46.766238797386201
 30
0.0
 11
298.81530871349491
 21
46.766238797386187
 31
0.0
  0
LINE
  5
9D8
  8
HIDE
 10
306.94928330971038
 20
46.266238797386201
 30
0.0
 11
293.94928330971049
 21
46.266238797386222
 31
0.0
  0
LINE
  5
9D9
  8
HIDE
 10
306.94928330971038
 20
40.766238797386208
 30
0.0
 11
298.81530871349491
 21
40.766238797386187
 31
0.0
  0
LINE
  5
9DA
  8
HIDE
 10
306.94928330971049
 20
41.26623879738618
 30
0.0
 11
293.94928330971049
 21
41.266238797386187
 31
0.0
  0
LINE
  5
9DB
  8
HIDE
 10
297.94928330971049
 20
41.266238797386187
 30
0.0
 11
298.81530871349503
 21
40.766238797386158
 31
0.0
  0
LINE
  5
9DC
  8
HIDE
 10
293.94928330971049
 20
41.266238797386158
 30
0.0
 11
292.50590763673642
 21
43.766238797386187
 31
0.0
  0
LINE
  5
9DD
  8
HIDE
 10
293.94928330971049
 20
46.266238797386222
 30
0.0
 11
292.50590763673642
 21
43.766238797386187
 31
0.0
  0
LINE
  5
9DE
  8
HIDE
 10
297.94928330971049
 20
46.266238797386187
 30
0.0
 11
298.81530871349503
 21
46.766238797386222
 31
0.0
  0
LINE
  5
9DF
  8
0
 10
256.94928330971038
 20
12.766238797386141
 30
0.0
 11
272.94928330971032
 21
12.76623879738619
 31
0.0
  0
LINE
  5
9E0
  8
0
 10
255.94928330971041
 20
13.766238797386141
 30
0.0
 11
256.94928330971038
 21
12.766238797386141
 31
0.0
  0
LINE
  5
9E1
  8
0
 10
241.94928330971049
 20
32.766238797386137
 30
0.0
 11
255.94928330971041
 21
32.766238797386137
 31
0.0
  0
LINE
  5
9E2
  8
0
 10
240.94928330971049
 20
33.766238797386137
 30
0.0
 11
241.94928330971049
 21
32.766238797386137
 31
0.0
  0
LINE
  5
9E3
  8
0
 10
255.94928330971049
 20
32.766238797386109
 30
0.0
 11
255.94928330971041
 21
13.766238797386141
 31
0.0
  0
LINE
  5
9E4
  8
0
 10
240.9492833097103
 20
83.766259571445616
 30
0.0
 11
240.94928330971049
 21
33.766238797386137
 31
0.0
  0
LINE
  5
9E7
  8
HIDE
 10
256.94928330971118
 20
59.266259571445637
 30
0.0
 11
256.94928330971152
 21
49.766238797385412
 31
0.0
  0
LINE
  5
9E8
  8
HIDE
 10
244.94928330971101
 20
59.26625957144563
 30
0.0
 11
244.94928330971041
 21
49.26623879738618
 31
0.0
  0
LINE
  5
9E9
  8
HIDE
 10
262.94928330971049
 20
30.266259571445691
 30
0.0
 11
262.94928330971049
 21
16.266259571445659
 31
0.0
  0
LINE
  5
9EA
  8
0
 10
273.94928330971038
 20
36.26625957144563
 30
0.0
 11
273.94928330971032
 21
13.766238797386221
 31
0.0
  0
LINE
  5
9EB
  8
0
 10
306.94928330971049
 20
83.766259571445659
 30
0.0
 11
306.94928330971038
 21
37.266259571445723
 31
0.0
  0
LINE
  5
9EC
  8
0
 10
272.94928330971032
 20
12.76623879738619
 30
0.0
 11
273.94928330971032
 21
13.76623879738619
 31
0.0
  0
LINE
  5
9ED
  8
CENTER
 10
284.53113671266669
 20
23.266259571445659
 30
0.0
 11
243.72549020910611
 21
23.26625957144563
 31
0.0
  0
LINE
  5
9EE
  8
HIDE
 10
262.94928330971049
 20
30.266259571445659
 30
0.0
 11
255.94928330971041
 21
30.266259571445659
 31
0.0
  0
LINE
  5
9EF
  8
HIDE
 10
262.94928330971049
 20
16.266259571445659
 30
0.0
 11
255.94928330971041
 21
16.26625957144563
 31
0.0
  0
LINE
  5
9F0
  8
HIDE
 10
273.94928330971032
 20
27.766259571445659
 30
0.0
 11
262.94928330971049
 21
27.766259571445659
 31
0.0
  0
LINE
  5
9F1
  8
HIDE
 10
273.94928330971032
 20
18.76625957144568
 30
0.0
 11
262.94928330971049
 21
18.76625957144568
 31
0.0
  0
LINE
  5
9F2
  8
HIDE
 10
240.94928330971041
 20
49.266238797386151
 30
0.0
 11
244.94928330971041
 21
49.266238797386173
 31
0.0
  0
LINE
  5
9F3
  8
HIDE
 10
244.94928330971049
 20
49.766238797385377
 30
0.0
 11
256.94928330971152
 21
49.766238797385391
 31
0.0
  0
LINE
  5
9F4
  8
HIDE
 10
256.94928330971152
 20
51.76623879738549
 30
0.0
 11
258.94928330971049
 21
51.766238797385533
 31
0.0
  0
LINE
  5
9F5
  8
HIDE
 10
240.94928330971041
 20
63.766238797386123
 30
0.0
 11
258.94928330971038
 21
63.766238797386123
 31
0.0
  0
LINE
  5
9F7
  8
HIDE
 10
258.94928330971049
 20
59.26625957144563
 30
0.0
 11
240.94928330971041
 21
59.26625957144563
 31
0.0
  0
LINE
  5
9F8
  8
0
 10
305.94928330971038
 20
36.266259571445701
 30
0.0
 11
273.94928330971032
 21
36.266259571445659
 31
0.0
  0
LINE
  5
9F9
  8
0
 10
306.94928330971038
 20
37.266259571445723
 30
0.0
 11
305.94928330971038
 21
36.266259571445723
 31
0.0
  0
LINE
  5
9FA
  8
HIDE
 10
290.94928330970959
 20
59.266259571445687
 30
0.0
 11
290.94928330970947
 21
49.766238797385462
 31
0.0
  0
LINE
  5
9FB
  8
HIDE
 10
302.94928330970993
 20
59.266259571445723
 30
0.0
 11
302.94928330971049
 21
49.266238797386251
 31
0.0
  0
LINE
  5
9FC
  8
HIDE
 10
306.94928330971049
 20
49.266238797386222
 30
0.0
 11
302.94928330971049
 21
49.266238797386237
 31
0.0
  0
LINE
  5
9FD
  8
HIDE
 10
302.94928330971038
 20
49.766238797385462
 30
0.0
 11
290.94928330970947
 21
49.766238797385441
 31
0.0
  0
LINE
  5
9FE
  8
HIDE
 10
290.94928330970947
 20
51.76623879738554
 30
0.0
 11
288.94928330971038
 21
51.766238797385562
 31
0.0
  0
LINE
  5
9FF
  8
HIDE
 10
288.94928330971038
 20
59.266259571445673
 30
0.0
 11
306.94928330971049
 21
59.266259571445701
 31
0.0
  0
LINE
  5
A00
  8
HIDE
 10
255.94928330971049
 20
32.766238797386137
 30
0.0
 11
255.94928330971041
 21
47.766259571445637
 31
0.0
  0
LINE
  5
A31
  8
HIDE
 10
288.94928330971038
 20
103.76628034550509
 30
0.0
 11
306.94928330971038
 21
103.76628034550519
 31
0.0
  0
LINE
  5
A32
  8
HIDE
 10
288.94928330971038
 20
104.76628034550509
 30
0.0
 11
288.94928330971038
 21
103.76628034550509
 31
0.0
  0
LINE
  5
A33
  8
HIDE
 10
288.94928330971038
 20
63.766238797386059
 30
0.0
 11
306.94928330971038
 21
63.766238797386023
 31
0.0
  0
LINE
  5
A34
  8
HIDE
 10
288.94928330971038
 20
62.766238797386073
 30
0.0
 11
288.94928330971038
 21
63.766238797386059
 31
0.0
  0
LINE
  5
A35
  8
HIDE
 10
258.94928330971038
 20
62.766238225040432
 30
0.0
 11
258.94928330971038
 21
63.766238797386109
 31
0.0
  0
LINE
  5
A36
  8
HIDE
 10
258.94928330971021
 20
104.766280345505
 30
0.0
 11
258.94928330971021
 21
103.76628034550509
 31
0.0
  0
ARC
  5
BC5
  8
HIDE
 10
100.7017789407853
 20
83.76628034550329
 30
0.0
 40
20.0
 50
300.00000000001131
 51
210.0000000001524
  0
CIRCLE
  5
BC7
  8
0
 10
100.7017789407853
 20
83.76628034550329
 30
0.0
 40
29.0
  0
CIRCLE
  5
BC8
  8
0
 10
100.7017789407853
 20
83.766280345505109
 30
0.0
 40
19.25
  0
INSERT
  5
BC9
  8
0
  2
*U11
 10
41540.093944078872
 20
12599.948481165749
 30
0.0
 50
30.0
  0
INSERT
  5
BCA
  8
0
  2
*U13
 10
41469.225149326579
 20
12731.317321851309
 30
0.0
 50
30.0
  0
LINE
  5
BCC
  8
0
 10
218.9492833097103
 20
112.7662595714456
 30
0.0
 11
218.9492833097103
 21
54.766259571445602
 31
0.0
  0
LINE
  5
BCD
  8
0
 10
240.9492833097103
 20
109.7662595714456
 30
0.0
 11
240.9492833097103
 21
57.766259571445602
 31
0.0
  0
LINE
  5
BCE
  8
0
 10
238.9492833097103
 20
109.7662595714456
 30
0.0
 11
238.9492833097103
 21
57.766259571445602
 31
0.0
  0
LINE
  5
BCF
  8
0
 10
238.9492833097176
 20
109.7662595714456
 30
0.0
 11
240.9492833097103
 21
109.7662595714456
 31
0.0
  0
LINE
  5
BD0
  8
0
 10
238.9492833097103
 20
109.7662595714456
 30
0.0
 11
237.2172325021385
 21
112.7662595714456
 31
0.0
  0
LINE
  5
BD1
  8
0
 10
218.9492833097103
 20
112.7662595714456
 30
0.0
 11
237.2172325021385
 21
112.7662595714456
 31
0.0
  0
LINE
  5
BD2
  8
0
 10
238.9492833097176
 20
57.766259571445602
 30
0.0
 11
240.9492833097103
 21
57.766259571445602
 31
0.0
  0
LINE
  5
BD3
  8
0
 10
238.9492833097103
 20
57.766259571445602
 30
0.0
 11
237.2172325021385
 21
54.766259571445602
 31
0.0
  0
LINE
  5
BD4
  8
0
 10
237.2172325021385
 20
54.766259571445602
 30
0.0
 11
218.9492833097103
 21
54.766259571445602
 31
0.0
  0
LINE
  5
BD5
  8
HIDE
 10
219.181921672811
 20
56.366259571445958
 30
0.0
 11
222.80667625432409
 21
56.366259571445958
 31
0.0
  0
LINE
  5
BD6
  8
HIDE
 10
219.181921672811
 20
60.66625957144705
 30
0.0
 11
222.80667625432409
 21
60.66625957144705
 31
0.0
  0
LINE
  5
BD7
  8
HIDE
 10
222.80528833234729
 20
60.668577376295701
 30
0.0
 11
224.09411520662269
 21
58.516259571445602
 31
0.0
  0
LINE
  5
BD8
  8
HIDE
 10
222.80667625432409
 20
56.366259571445958
 30
0.0
 11
224.09411520662269
 21
58.516259571445602
 31
0.0
  0
LINE
  5
BD9
  8
HIDE
 10
222.80667625432409
 20
56.366259571445958
 30
0.0
 11
222.80667625432409
 21
60.66625957144705
 31
0.0
  0
LINE
  5
BDA
  8
HIDE
 10
218.9492833097103
 20
56.176422461833759
 30
0.0
 11
219.181921672811
 21
56.366259571445958
 31
0.0
  0
LINE
  5
BDB
  8
HIDE
 10
218.9492833097103
 20
60.85609668105743
 30
0.0
 11
219.181921672811
 21
60.66625957144705
 31
0.0
  0
LINE
  5
BDC
  8
HIDE
 10
219.181921672811
 20
56.366259571445958
 30
0.0
 11
219.181921672811
 21
60.66625957144705
 31
0.0
  0
POINT
  5
BDD
  8
HIDE
 10
219.181921672811
 20
56.366259571445958
 30
0.0
  0
POINT
  5
BDE
  8
HIDE
 10
219.181921672811
 20
60.66625957144705
 30
0.0
  0
LINE
  5
BDF
  8
CENTER
 10
216.17692610938701
 20
58.516259571443783
 30
0.0
 11
225.81528025542519
 21
58.516259571443783
 31
0.0
  0
LINE
  5
BE0
  8
CENTER
 10
228.9492833097103
 20
60.930302172305431
 30
0.0
 11
228.9492833097103
 21
53.552091370867032
 31
0.0
  0
LINE
  5
BE1
  8
HIDE
 10
226.4492833097103
 20
59.377564566449188
 30
0.0
 11
226.4492833097103
 21
55.102677170659348
 31
0.0
  0
LINE
  5
BE2
  8
HIDE
 10
231.4492833097103
 20
59.377564566449188
 30
0.0
 11
231.4492833097103
 21
55.102677170659348
 31
0.0
  0
LINE
  5
BE3
  8
HIDE
 10
231.4492833097103
 20
59.377564566449188
 30
0.0
 11
226.4492833097103
 21
59.377564566449188
 31
0.0
  0
LINE
  5
BE4
  8
HIDE
 10
226.4492833097103
 20
59.377564566449188
 30
0.0
 11
228.9492833097103
 21
60.508407869459091
 31
0.0
  0
LINE
  5
BE5
  8
HIDE
 10
231.4492833097103
 20
59.377564566449188
 30
0.0
 11
228.9492833097103
 21
60.508407869459091
 31
0.0
  0
LINE
  5
BE6
  8
HIDE
 10
226.17126812475931
 20
54.766259571445602
 30
0.0
 11
226.4492833097103
 21
55.102677170659348
 31
0.0
  0
LINE
  5
BE7
  8
HIDE
 10
231.7272984946614
 20
54.766259571445602
 30
0.0
 11
231.4492833097103
 21
55.102677170659348
 31
0.0
  0
LINE
  5
BE8
  8
HIDE
 10
226.4492833097103
 20
55.102677170659348
 30
0.0
 11
231.4492833097103
 21
55.102677170659348
 31
0.0
  0
POINT
  5
BE9
  8
HIDE
 10
231.4492833097103
 20
55.102677170659348
 30
0.0
  0
POINT
  5
BEA
  8
HIDE
 10
226.4492833097103
 20
55.102677170659348
 30
0.0
  0
LINE
  5
BEB
  8
HIDE
 10
219.1367833097103
 20
108.3745127469184
 30
0.0
 11
226.65649289092849
 21
112.71601909786391
 31
0.0
  0
LINE
  5
BEC
  8
HIDE
 10
225.4444738380918
 20
112.0162595714456
 30
0.0
 11
227.8819738380918
 21
107.7943857279962
 31
0.0
  0
LINE
  5
BED
  8
HIDE
 10
220.24832141538371
 20
109.0162595714456
 30
0.0
 11
222.68582141538371
 21
104.7943857279961
 31
0.0
  0
LINE
  5
BEE
  8
HIDE
 10
225.05476240639129
 20
111.79125957145069
 30
0.0
 11
230.12101101854219
 21
103.01625957144741
 31
0.0
  0
LINE
  5
BEF
  8
HIDE
  6
CONTINUOUS
 10
220.63803284709161
 20
109.2412595714478
 30
0.0
 11
224.2320382727996
 21
103.0162595714456
 31
0.0
  0
LINE
  5
BF0
  8
HIDE
 10
223.19808094180931
 20
104.65712620157601
 30
0.0
 11
227.74471431168081
 21
107.28212620157601
 31
0.0
  0
LINE
  5
BF1
  8
HIDE
 10
227.74471431168081
 20
107.28212620157601
 30
0.0
 11
227.8819738380918
 21
107.7943857279962
 31
0.0
  0
LINE
  5
BF2
  8
HIDE
 10
223.19808094180931
 20
104.65712620157601
 30
0.0
 11
222.68582141538371
 21
104.7943857279961
 31
0.0
  0
LINE
  5
BF3
  8
HIDE
 10
222.68582141538371
 20
104.7943857279961
 30
0.0
 11
227.8819738380918
 21
107.7943857279962
 31
0.0
  0
ARC
  5
BF4
  8
HIDE
 10
226.84399289092849
 20
112.3912595714456
 30
0.0
 40
0.375
 50
90.0
 51
120.0000000000112
  0
ARC
  5
BF5
  8
HIDE
 10
219.3242833097103
 20
108.0497532204982
 30
0.0
 40
0.375
 50
120.0000000000112
 51
180.0
  0
INSERT
  5
BF6
  8
HIDE
  6
CONTINUOUS
  2
*X32
 10
0.0
 20
0.0
 30
0.0
1001
ACAD
1000
HATCH
1002
{
1070
    19
1000
ANSI37
1040
9.75
1040
0.5235987755982988
1000
R14_HATCH_DATA
1000
BF6
1011
1.0
1021
0.0
1031
0.0
1021
0.0
1031
0.0
1011
0.0
1021
0.0
1031
0.0
1021
1.0
1031
0.0
1011
0.0
1021
0.0
1031
0.0
1021
0.0
1031
1.0
1040
0.0
1010
0.0
1020
0.0
1030
1.0
1000
ANSI37
1070
     0
1070
     0
1071
        2
1071
        1
1071
        4
1070
     1
1040
224.2320382727996
1040
103.01625957144741
1040
227.17652464566359
1040
103.01625957144741
1070
     1
1040
227.17652464566359
1040
103.01625957144741
1040
225.4713976267451
1040
105.96962620157601
1070
     1
1040
225.4713976267451
1040
105.96962620157601
1040
223.26303284709161
1040
104.6946262015763
1070
     1
1040
223.26303284709161
1040
104.6946262015763
1040
224.2320382727996
1040
103.01625957144741
1071
        0
1071
        1
1071
        4
1070
     1
1040
227.1765246456709
1040
103.01625957144741
1040
230.1210110185277
1040
103.01625957144741
1070
     1
1040
230.1210110185277
1040
103.01625957144741
1040
227.67976240639859
1040
107.2446262015774
1070
     1
1040
227.67976240639859
1040
107.2446262015774
1040
225.4713976267451
1040
105.96962620157601
1070
     1
1040
225.4713976267451
1040
105.96962620157601
1040
227.1765246456709
1040
103.01625957144741
1071
        0
1070
     0
1070
     1
1040
0.5235987755982988
1040
9.75
1070
     0
1070
     2
1040
1.3089969389957461
1040
81.245799239732321
1040
-76.229745202887813
1040
-1.1772221007898021
1040
0.3154357112186975
1070
     0
1040
2.8797932657906431
1040
81.245799239732321
1040
-76.229745202887813
1040
-0.3154357112186975
1040
-1.1772221007898021
1070
     0
1071
        4
1040
224.74591363143571
1040
103.6549620840988
1040
0.0
1040
227.27277588823219
1040
104.67679647045139
1040
0.0
1040
226.37032440370979
1040
102.15226616868409
1040
0.0
1040
228.71669683857201
1040
101.9719435696871
1040
0.0
1002
}
  0
LINE
  5
BF7
  8
HIDE
 10
218.9492833097103
 20
103.7662595714456
 30
0.0
 11
240.9492833097103
 21
103.7662595714456
 31
0.0
  0
LINE
  5
BF8
  8
HIDE
 10
218.9492833097103
 20
103.01625957144741
 30
0.0
 11
240.9492833097103
 21
103.01625957144741
 31
0.0
  0
LINE
  5
BF9
  8
CENTER
  6
CENTER
 10
222.38326959335259
 20
111.31842085568231
 30
0.0
 11
228.6030404835403
 21
100.5454616624384
 31
0.0
  0
LINE
  5
BFB
  8
HIDE
 10
218.9492833097103
 20
63.766259571445602
 30
0.0
 11
240.9492833097103
 21
63.766259571445602
 31
0.0
  0
LINE
  5
BFC
  8
HIDE
 10
218.9492833097103
 20
64.516259571443783
 30
0.0
 11
240.9492833097103
 21
64.516259571443783
 31
0.0
  0
INSERT
  5
BFD
  8
0
  2
*U15
 10
43986.410146225717
 20
-10147.745215534231
 30
0.0
  0
ARC
  5
CCF
  8
HIDE
 10
2190.1891280637919
 20
855.60262366484221
 30
0.0
 40
20.0
 50
300.00000000001108
 51
210.00000000015251
  0
LINE
  5
CD0
  8
CENTER
 10
2156.7162668190631
 20
855.60262366484051
 30
0.0
 11
2223.6619893085208
 21
855.60262366484403
 31
0.0
  0
CIRCLE
  5
CD1
  8
0
 10
2190.1891280637919
 20
855.60262366484221
 30
0.0
 40
29.0
  0
CIRCLE
  5
CD2
  8
0
 10
2190.1891280637919
 20
855.60262366484403
 30
0.0
 40
19.25
  0
INSERT
  5
CD3
  8
0
  2
*U26
 10
43629.581293201867
 20
13371.78482448509
 30
0.0
 50
30.0
  0
INSERT
  5
CD4
  8
0
  2
*U28
 10
43558.712498449582
 20
13503.15366517065
 30
0.0
 50
30.0
  0
LINE
  5
CD5
  8
CENTER
 10
2190.1891280637919
 20
822.129762420117
 30
0.0
 11
2190.1891280637919
 21
889.07548490957095
 31
0.0
  0
LINE
  5
CD6
  8
0
 10
2249.3247075610111
 20
884.6026236648421
 30
0.0
 11
2249.3247075610111
 21
826.6026236648421
 31
0.0
  0
LINE
  5
CD7
  8
0
 10
2271.3247075610111
 20
881.60262366484221
 30
0.0
 11
2271.3247075610111
 21
829.60262366484221
 31
0.0
  0
LINE
  5
CD8
  8
0
 10
2269.3247075610111
 20
881.60262366484221
 30
0.0
 11
2269.3247075610111
 21
829.60262366484221
 31
0.0
  0
LINE
  5
CD9
  8
0
 10
2269.3247075610179
 20
881.60262366484221
 30
0.0
 11
2271.3247075610111
 21
881.60262366484221
 31
0.0
  0
LINE
  5
CDA
  8
0
 10
2269.3247075610111
 20
881.60262366484221
 30
0.0
 11
2267.5926567534389
 21
884.6026236648421
 31
0.0
  0
LINE
  5
CDB
  8
0
 10
2249.3247075610111
 20
884.6026236648421
 30
0.0
 11
2267.5926567534389
 21
884.6026236648421
 31
0.0
  0
LINE
  5
CDC
  8
0
 10
2269.3247075610179
 20
829.60262366484221
 30
0.0
 11
2271.3247075610111
 21
829.60262366484221
 31
0.0
  0
LINE
  5
CDD
  8
0
 10
2269.3247075610111
 20
829.60262366484221
 30
0.0
 11
2267.5926567534389
 21
826.6026236648421
 31
0.0
  0
LINE
  5
CDE
  8
0
 10
2267.5926567534389
 20
826.6026236648421
 30
0.0
 11
2249.3247075610111
 21
826.6026236648421
 31
0.0
  0
LINE
  5
CDF
  8
HIDE
 10
2249.5573459241109
 20
828.20262366484246
 30
0.0
 11
2253.182100505624
 21
828.20262366484246
 31
0.0
  0
LINE
  5
CE0
  8
HIDE
 10
2249.5573459241109
 20
832.50262366484367
 30
0.0
 11
2253.182100505624
 21
832.50262366484367
 31
0.0
  0
LINE
  5
CE1
  8
HIDE
 10
2253.1807125836481
 20
832.50494146969231
 30
0.0
 11
2254.469539457923
 21
830.3526236648421
 31
0.0
  0
LINE
  5
CE2
  8
HIDE
 10
2253.182100505624
 20
828.20262366484246
 30
0.0
 11
2254.469539457923
 21
830.3526236648421
 31
0.0
  0
LINE
  5
CE3
  8
HIDE
 10
2253.182100505624
 20
828.20262366484246
 30
0.0
 11
2253.182100505624
 21
832.50262366484367
 31
0.0
  0
LINE
  5
CE4
  8
HIDE
 10
2249.3247075610111
 20
828.01278655523026
 30
0.0
 11
2249.5573459241109
 21
828.20262366484246
 31
0.0
  0
LINE
  5
CE5
  8
HIDE
 10
2249.3247075610111
 20
832.69246077445405
 30
0.0
 11
2249.5573459241109
 21
832.50262366484367
 31
0.0
  0
LINE
  5
CE6
  8
HIDE
 10
2249.5573459241109
 20
828.20262366484246
 30
0.0
 11
2249.5573459241109
 21
832.50262366484367
 31
0.0
  0
POINT
  5
CE7
  8
HIDE
 10
2249.5573459241109
 20
828.20262366484246
 30
0.0
  0
POINT
  5
CE8
  8
HIDE
 10
2249.5573459241109
 20
832.50262366484367
 30
0.0
  0
LINE
  5
CE9
  8
CENTER
 10
2246.5523503606869
 20
830.35262366484028
 30
0.0
 11
2256.1907045067251
 21
830.35262366484028
 31
0.0
  0
LINE
  5
CEA
  8
CENTER
 10
2259.3247075610111
 20
832.76666626570193
 30
0.0
 11
2259.3247075610111
 21
825.38845546426364
 31
0.0
  0
LINE
  5
CEB
  8
HIDE
 10
2256.8247075610111
 20
831.21392865984581
 30
0.0
 11
2256.8247075610111
 21
826.93904126405585
 31
0.0
  0
LINE
  5
CEC
  8
HIDE
 10
2261.8247075610111
 20
831.21392865984581
 30
0.0
 11
2261.8247075610111
 21
826.93904126405585
 31
0.0
  0
LINE
  5
CED
  8
HIDE
 10
2261.8247075610111
 20
831.21392865984581
 30
0.0
 11
2256.8247075610111
 21
831.21392865984581
 31
0.0
  0
LINE
  5
CEE
  8
HIDE
 10
2256.8247075610111
 20
831.21392865984581
 30
0.0
 11
2259.3247075610111
 21
832.3447719628557
 31
0.0
  0
LINE
  5
CEF
  8
HIDE
 10
2261.8247075610111
 20
831.21392865984581
 30
0.0
 11
2259.3247075610111
 21
832.3447719628557
 31
0.0
  0
LINE
  5
CF0
  8
HIDE
 10
2256.54669237606
 20
826.6026236648421
 30
0.0
 11
2256.8247075610111
 21
826.93904126405585
 31
0.0
  0
LINE
  5
CF1
  8
HIDE
 10
2262.1027227459622
 20
826.6026236648421
 30
0.0
 11
2261.8247075610111
 21
826.93904126405585
 31
0.0
  0
LINE
  5
CF2
  8
HIDE
 10
2256.8247075610111
 20
826.93904126405585
 30
0.0
 11
2261.8247075610111
 21
826.93904126405585
 31
0.0
  0
POINT
  5
CF3
  8
HIDE
 10
2261.8247075610111
 20
826.93904126405585
 30
0.0
  0
POINT
  5
CF4
  8
HIDE
 10
2256.8247075610111
 20
826.93904126405585
 30
0.0
  0
LINE
  5
CF5
  8
HIDE
 10
2249.5122075610111
 20
880.21087684031488
 30
0.0
 11
2257.0319171422288
 21
884.55238319126056
 31
0.0
  0
LINE
  5
CF6
  8
HIDE
 10
2255.8198980893922
 20
883.8526236648421
 30
0.0
 11
2258.2573980893922
 21
879.63074982139267
 31
0.0
  0
LINE
  5
CF7
  8
HIDE
 10
2250.623745666684
 20
880.85262366484221
 30
0.0
 11
2253.061245666684
 21
876.63074982139278
 31
0.0
  0
LINE
  5
CF8
  8
HIDE
 10
2255.430186657692
 20
883.62762366484731
 30
0.0
 11
2260.496435269843
 21
874.85262366484415
 31
0.0
  0
LINE
  5
CF9
  8
HIDE
  6
CONTINUOUS
 10
2251.0134570983919
 20
881.07762366484428
 30
0.0
 11
2254.6074625240999
 21
874.8526236648421
 31
0.0
  0
LINE
  5
CFA
  8
HIDE
 10
2253.5735051931101
 20
876.4934902949725
 30
0.0
 11
2258.1201385629811
 21
879.11849029497262
 31
0.0
  0
LINE
  5
CFB
  8
HIDE
 10
2258.1201385629811
 20
879.11849029497262
 30
0.0
 11
2258.2573980893922
 21
879.63074982139267
 31
0.0
  0
LINE
  5
CFC
  8
HIDE
 10
2253.5735051931101
 20
876.4934902949725
 30
0.0
 11
2253.061245666684
 21
876.63074982139278
 31
0.0
  0
LINE
  5
CFD
  8
HIDE
 10
2253.061245666684
 20
876.63074982139278
 30
0.0
 11
2258.2573980893922
 21
879.63074982139267
 31
0.0
  0
ARC
  5
CFE
  8
HIDE
 10
2257.2194171422288
 20
884.2276236648421
 30
0.0
 40
0.375
 50
90.0
 51
120.000000000011
  0
ARC
  5
CFF
  8
HIDE
 10
2249.6997075610111
 20
879.88611731389483
 30
0.0
 40
0.375
 50
120.000000000011
 51
180.0
  0
INSERT
  5
D00
  8
HIDE
  6
CONTINUOUS
  2
*X35
 10
0.0
 20
0.0
 30
0.0
1001
ACAD
1000
HATCH
1002
{
1070
    19
1000
ANSI37
1040
9.75
1040
0.5235987755982988
1000
R14_HATCH_DATA
1000
D00
1011
1.0
1021
0.0
1031
0.0
1021
0.0
1031
0.0
1011
0.0
1021
0.0
1031
0.0
1021
1.0
1031
0.0
1011
0.0
1021
0.0
1031
0.0
1021
0.0
1031
1.0
1040
0.0
1010
0.0
1020
0.0
1030
1.0
1000
ANSI37
1070
     0
1070
     0
1071
        2
1071
        1
1071
        4
1070
     1
1040
2254.6074625240999
1040
874.85262366484415
1040
2257.5519488969639
1040
874.85262366484415
1070
     1
1040
2257.5519488969639
1040
874.85262366484415
1040
2255.8468218780458
1040
877.80599029497262
1070
     1
1040
2255.8468218780458
1040
877.80599029497262
1040
2253.6384570983919
1040
876.53099029497287
1070
     1
1040
2253.6384570983919
1040
876.53099029497287
1040
2254.6074625240999
1040
874.85262366484415
1071
        0
1071
        1
1071
        4
1070
     1
1040
2257.5519488969712
1040
874.85262366484415
1040
2260.496435269828
1040
874.85262366484415
1070
     1
1040
2260.496435269828
1040
874.85262366484415
1040
2258.0551866576989
1040
879.08099029497407
1070
     1
1040
2258.0551866576989
1040
879.08099029497407
1040
2255.8468218780458
1040
877.80599029497262
1070
     1
1040
2255.8468218780458
1040
877.80599029497262
1040
2257.5519488969712
1040
874.85262366484415
1071
        0
1070
     0
1070
     1
1040
0.5235987755982988
1040
9.75
1070
     0
1070
     2
1040
1.3089969389957461
1040
2111.6212234910331
1040
695.60661889050868
1040
-1.1772221007898021
1040
0.3154357112186975
1070
     0
1040
2.8797932657906431
1040
2111.6212234910331
1040
695.60661889050868
1040
-0.3154357112186975
1040
-1.1772221007898021
1070
     0
1071
        4
1040
2255.121337882736
1040
875.49132617749547
1040
0.0
1040
2257.6482001395329
1040
876.51316056384803
1040
0.0
1040
2256.7457486550102
1040
873.98863026208062
1040
0.0
1040
2259.0921210898732
1040
873.80830766308384
1040
0.0
1002
}
  0
LINE
  5
D01
  8
HIDE
 10
2249.3247075610111
 20
875.60262366484221
 30
0.0
 11
2271.3247075610111
 21
875.60262366484221
 31
0.0
  0
LINE
  5
D02
  8
HIDE
 10
2249.3247075610111
 20
874.85262366484415
 30
0.0
 11
2271.3247075610111
 21
874.85262366484415
 31
0.0
  0
LINE
  5
D03
  8
CENTER
  6
CENTER
 10
2252.758693844653
 20
883.15478494907893
 30
0.0
 11
2258.9784647348411
 21
872.38182575583505
 31
0.0
  0
LINE
  5
D04
  8
CENTER
 10
2244.8038597378959
 20
855.60262366484221
 30
0.0
 11
2273.7410948065722
 21
855.60262366484221
 31
0.0
  0
LINE
  5
D05
  8
HIDE
 10
2249.3247075610111
 20
835.6026236648421
 30
0.0
 11
2271.3247075610111
 21
835.6026236648421
 31
0.0
  0
LINE
  5
D06
  8
HIDE
 10
2249.3247075610111
 20
836.35262366484039
 30
0.0
 11
2271.3247075610111
 21
836.35262366484039
 31
0.0
  0
INSERT
  5
D07
  8
0
  2
*U30
 10
46075.897495348727
 20
-9375.9088722148917
 30
0.0
  0
INSERT
  5
D08
  8
HIDE
  2
*U36
 10
0.0
 20
0.0
 30
0.0
  0
ENDSEC
  0
EOF
