  0
SECTION
  2
HEADER
  9
$ACADVER
  1
AC1009
  9
$INSBASE
 10
0.0
 20
0.0
 30
0.0
  9
$EXTMIN
 10
27.500603355146989
 20
-25.601554642831829
 30
0.0
  9
$EXTMAX
 10
625.53062070224371
 20
161.20546366753811
 30
0.0
  9
$LIMMIN
 10
0.0
 20
0.0
  9
$LIMMAX
 10
12.0
 20
9.0
  9
$ORTHOMODE
 70
     0
  9
$REGENMODE
 70
     1
  9
$FILLMODE
 70
     1
  9
$QTEXTMODE
 70
     0
  9
$MIRRTEXT
 70
     0
  9
$DRAGMODE
 70
     2
  9
$LTSCALE
 40
1.0
  9
$OSMODE
 70
  2239
  9
$ATTMODE
 70
     1
  9
$TEXTSIZE
 40
0.2
  9
$TRACEWID
 40
0.05
  9
$TEXTSTYLE
  7
STANDARD
  9
$CLAYER
  8
0
  9
$CELTYPE
  6
BYLAYER
  9
$CECOLOR
 62
   256
  9
$DIMSCALE
 40
1.0
  9
$DIMASZ
 40
0.18
  9
$DIMEXO
 40
0.0625
  9
$DIMDLI
 40
0.38
  9
$DIMRND
 40
0.0
  9
$DIMDLE
 40
0.0
  9
$DIMEXE
 40
0.18
  9
$DIMTP
 40
0.0
  9
$DIMTM
 40
0.0
  9
$DIMTXT
 40
0.18
  9
$DIMCEN
 40
0.09
  9
$DIMTSZ
 40
0.0
  9
$DIMTOL
 70
     0
  9
$DIMLIM
 70
     0
  9
$DIMTIH
 70
     1
  9
$DIMTOH
 70
     1
  9
$DIMSE1
 70
     0
  9
$DIMSE2
 70
     0
  9
$DIMTAD
 70
     0
  9
$DIMZIN
 70
     0
  9
$DIMBLK
  1

  9
$DIMASO
 70
     1
  9
$DIMSHO
 70
     1
  9
$DIMPOST
  1

  9
$DIMAPOST
  1

  9
$DIMALT
 70
     0
  9
$DIMALTD
 70
     2
  9
$DIMALTF
 40
25.399999999999999
  9
$DIMLFAC
 40
1.0
  9
$DIMTOFL
 70
     0
  9
$DIMTVP
 40
0.0
  9
$DIMTIX
 70
     0
  9
$DIMSOXD
 70
     0
  9
$DIMSAH
 70
     0
  9
$DIMBLK1
  1

  9
$DIMBLK2
  1

  9
$DIMSTYLE
  2
STANDARD
  9
$DIMCLRD
 70
     0
  9
$DIMCLRE
 70
     0
  9
$DIMCLRT
 70
     0
  9
$DIMTFAC
 40
1.0
  9
$DIMGAP
 40
0.09
  9
$LUNITS
 70
     2
  9
$LUPREC
 70
     4
  9
$SKETCHINC
 40
0.1
  9
$FILLETRAD
 40
0.0
  9
$AUNITS
 70
     0
  9
$AUPREC
 70
     0
  9
$MENU
  1
.
  9
$ELEVATION
 40
0.0
  9
$PELEVATION
 40
0.0
  9
$THICKNESS
 40
0.0
  9
$LIMCHECK
 70
     0
  9
$BLIPMODE
 70
     0
  9
$CHAMFERA
 40
1.0
  9
$CHAMFERB
 40
1.0
  9
$SKPOLY
 70
     0
  9
$TDCREATE
 40
2455485.671822188
  9
$TDUPDATE
 40
2456648.4348279508
  9
$TDINDWG
 40
0.3276341667
  9
$TDUSRTIMER
 40
0.3276341667
  9
$USRTIMER
 70
     1
  9
$ANGBASE
 50
0.0
  9
$ANGDIR
 70
     0
  9
$PDMODE
 70
     0
  9
$PDSIZE
 40
0.0
  9
$PLINEWID
 40
0.0
  9
$COORDS
 70
     1
  9
$SPLFRAME
 70
     0
  9
$SPLINETYPE
 70
     6
  9
$SPLINESEGS
 70
     8
  9
$ATTDIA
 70
     0
  9
$ATTREQ
 70
     1
  9
$HANDLING
 70
     1
  9
$HANDSEED
  5
D29
  9
$SURFTAB1
 70
     6
  9
$SURFTAB2
 70
     6
  9
$SURFTYPE
 70
     6
  9
$SURFU
 70
     6
  9
$SURFV
 70
     6
  9
$UCSNAME
  2

  9
$UCSORG
 10
0.0
 20
0.0
 30
0.0
  9
$UCSXDIR
 10
1.0
 20
0.0
 30
0.0
  9
$UCSYDIR
 10
0.0
 20
1.0
 30
0.0
  9
$PUCSNAME
  2

  9
$PUCSORG
 10
0.0
 20
0.0
 30
0.0
  9
$PUCSXDIR
 10
1.0
 20
0.0
 30
0.0
  9
$PUCSYDIR
 10
0.0
 20
1.0
 30
0.0
  9
$USERI1
 70
     0
  9
$USERI2
 70
     0
  9
$USERI3
 70
     0
  9
$USERI4
 70
     0
  9
$USERI5
 70
     0
  9
$USERR1
 40
0.0
  9
$USERR2
 40
0.0
  9
$USERR3
 40
0.0
  9
$USERR4
 40
0.0
  9
$USERR5
 40
0.0
  9
$WORLDVIEW
 70
     1
  9
$SHADEDGE
 70
     3
  9
$SHADEDIF
 70
    70
  9
$TILEMODE
 70
     1
  9
$MAXACTVP
 70
    48
  9
$PLIMCHECK
 70
     0
  9
$PEXTMIN
 10
0.0
 20
0.0
 30
0.0
  9
$PEXTMAX
 10
0.0
 20
0.0
 30
0.0
  9
$PLIMMIN
 10
0.0
 20
0.0
  9
$PLIMMAX
 10
12.0
 20
9.0
  9
$UNITMODE
 70
     0
  9
$VISRETAIN
 70
     1
  9
$PLINEGEN
 70
     0
  9
$PSLTSCALE
 70
     1
  0
ENDSEC
  0
SECTION
  2
TABLES
  0
TABLE
  2
VPORT
 70
     1
  0
VPORT
  2
*ACTIVE
 70
     0
 10
0.0
 20
0.0
 11
1.0
 21
1.0
 12
205.44267950477641
 22
71.369316225310627
 13
0.0
 23
0.0
 14
0.5
 24
0.5
 15
0.5
 25
0.5
 16
0.0
 26
0.0
 36
1.0
 17
0.0
 27
0.0
 37
0.0
 40
257.86629543976142
 41
2.1408934707903771
 42
50.0
 43
0.0
 44
0.0
 50
0.0
 51
0.0
 71
     0
 72
  1000
 73
     1
 74
     3
 75
     0
 76
     0
 77
     0
 78
     0
  0
ENDTAB
  0
TABLE
  2
LTYPE
 70
     4
  0
LTYPE
  2
CONTINUOUS
 70
     0
  3
Solid line
 72
    65
 73
     0
 40
0.0
  0
LTYPE
  2
CENTER
 70
     0
  3
____ _ ____ _ ____ _ ____ _ ____ _ ____ _ ____ 
 72
    65
 73
     4
 40
2.0
 49
1.25
 49
-0.25
 49
0.25
 49
-0.25
  0
LTYPE
  2
PHANTOM2
 70
     0
  3
Phantom (.5x) ___ _ _ ___ _ _ ___ _ _ ___ _ _
 72
    65
 73
     6
 40
1.25
 49
0.625
 49
-0.125
 49
0.125
 49
-0.125
 49
0.125
 49
-0.125
  0
ENDTAB
  0
TABLE
  2
LAYER
 70
     4
  0
LAYER
  2
0
 70
     0
 62
     7
  6
CONTINUOUS
  0
LAYER
  2
CENTER
 70
     0
 62
     3
  6
CENTER
  0
LAYER
  2
HIDE
 70
     0
 62
     1
  6
CONTINUOUS
  0
ENDTAB
  0
TABLE
  2
STYLE
 70
     3
  0
STYLE
  2
STANDARD
 70
     0
 40
0.0
 41
1.0
 50
0.0
 71
     0
 42
0.2
  3
txt
  4
whgtxt.shx
  0
STYLE
  2
DUKI7
 70
     0
 40
20.0
 41
1.0
 50
0.0
 71
     0
 42
20.0
  3
txt
  4

  0
ENDTAB
  0
TABLE
  2
VIEW
 70
     0
  0
ENDTAB
  0
TABLE
  2
UCS
 70
     0
  0
ENDTAB
  0
TABLE
  2
APPID
 70
    13
  0
APPID
  2
ACAD
 70
     0
  0
APPID
  2
ACADANNOPO
 70
     0
  0
APPID
  2
ACADANNOTATIVE
 70
     0
  0
APPID
  2
ACAD_DSTYLE_DIMJAG
 70
     0
  0
APPID
  2
ACAD_DSTYLE_DIMTALN
 70
     0
  0
APPID
  2
ACAD_MLEADERVER
 70
     0
  0
APPID
  2
ACAD_PSEXT
 70
     0
  0
APPID
  2
ACAECLAYERSTANDARD
 70
     0
  0
APPID
  2
ACAD_DSTYLE_DIMBREAK
 70
     0
  0
APPID
  2
ACAD_DSTYLE_DIMTEXT_FILL
 70
     0
  0
APPID
  2
ACAD_EXEMPT_FROM_CAD_STANDARDS
 70
     0
  0
APPID
  2
ACAD_NAV_VCDISPLAY
 70
     0
  0
APPID
  2
ACDBDYNAMICBLOCKTRUENAME2
 70
     0
  0
ENDTAB
  0
TABLE
  2
DIMSTYLE
 70
     1
  0
DIMSTYLE
  2
STANDARD
 70
     0
  3

  4

  5

  6

  7

 40
1.0
 41
0.18
 42
0.0625
 43
0.38
 44
0.18
 45
0.0
 46
0.0
 47
0.0
 48
0.0
140
0.18
141
0.09
142
0.0
143
25.399999999999999
144
1.0
145
0.0
146
1.0
147
0.09
 71
     0
 72
     0
 73
     1
 74
     1
 75
     0
 76
     0
 77
     0
 78
     0
170
     0
171
     2
172
     0
173
     0
174
     0
175
     0
176
     0
177
     0
178
     0
  0
ENDTAB
  0
ENDSEC
  0
SECTION
  2
BLOCKS
  0
BLOCK
  8
0
  2
$MODEL_SPACE
 70
     0
 10
0.0
 20
0.0
 30
0.0
  3
$MODEL_SPACE
  1

  0
ENDBLK
  5
21
  8
0
  0
BLOCK
 67
     1
  8
0
  2
$PAPER_SPACE
 70
     0
 10
0.0
 20
0.0
 30
0.0
  3
$PAPER_SPACE
  1

  0
ENDBLK
  5
5B
 67
     1
  8
0
  0
BLOCK
  8
0
  2
*U9
 70
     1
 10
0.0
 20
0.0
 30
0.0
  3
*U9
  1

  0
CIRCLE
  5
C23
  8
0
 10
-0.000000000007276
 20
0.0
 30
0.0
 40
2.5
  0
ENDBLK
  5
C24
  8
0
  0
BLOCK
  8
0
  2
*U11
 70
     1
 10
0.0
 20
0.0
 30
0.0
  3
*U11
  1

  0
INSERT
  5
C2A
  8
0
  6
BYBLOCK
 62
     0
  2
*U9
 10
-42145.657432805529
 20
9905.6143382640785
 30
0.0
  0
INSERT
  5
C2B
  8
0
  6
BYBLOCK
 62
     0
  2
*U9
 10
-42167.524574251082
 20
9892.9893382640785
 30
0.0
 50
59.999999999999993
  0
INSERT
  5
C2C
  8
0
  6
BYBLOCK
 62
     0
  2
*U9
 10
-42167.524574251082
 20
9867.7393382640785
 30
0.0
 50
120.0
  0
INSERT
  5
C2D
  8
0
  6
BYBLOCK
 62
     0
  2
*U9
 10
-42145.657432805529
 20
9855.1143382640785
 30
0.0
 50
180.0
  0
INSERT
  5
C2E
  8
0
  6
BYBLOCK
 62
     0
  2
*U9
 10
-42123.790291359968
 20
9867.7393382640785
 30
0.0
 50
240.0
  0
INSERT
  5
C2F
  8
0
  6
BYBLOCK
 62
     0
  2
*U9
 10
-42123.790291359968
 20
9892.9893382640785
 30
0.0
 50
300.0
  0
ENDBLK
  5
C30
  8
0
  0
BLOCK
  8
0
  2
*U12
 70
     1
 10
0.0
 20
0.0
 30
0.0
  3
*U12
  1

  0
ARC
  5
C33
  8
CENTER
 10
-0.000000000007276
 20
-25.25
 30
0.0
 40
25.25
 50
78.282506638421367
 51
101.7174933615786
  0
LINE
  5
C34
  8
CENTER
 10
-0.000000000007276
 20
5.1548540571220647
 30
0.0
 11
0.0
 21
-5.1548540571220647
 31
0.0
  0
LINE
  5
C35
  8
CENTER
 10
0.0
 20
-5.1548540571220647
 30
0.0
 11
0.0
 21
5.1548540571220647
 31
0.0
  0
LINE
  5
C36
  8
CENTER
 10
-0.000000000007276
 20
5.1548540571220647
 30
0.0
 11
0.0
 21
-5.1548540571220647
 31
0.0
  0
ENDBLK
  5
C37
  8
0
  0
BLOCK
  8
0
  2
*U13
 70
     1
 10
0.0
 20
0.0
 30
0.0
  3
*U13
  1

  0
INSERT
  5
C3B
  8
0
  6
BYBLOCK
 62
     0
  2
*U12
 10
-42149.967676557237
 20
9756.4111875885283
 30
0.0
  0
INSERT
  5
C3C
  8
0
  6
BYBLOCK
 62
     0
  2
*U12
 10
-42171.834818002797
 20
9743.7861875885355
 30
0.0
 41
0.9999999999999998
 42
0.9999999999999998
 43
0.9999999999999998
 50
59.999999999999993
  0
INSERT
  5
C3D
  8
0
  6
BYBLOCK
 62
     0
  2
*U12
 10
-42171.834818002797
 20
9718.5361875885374
 30
0.0
 41
0.9999999999999998
 42
0.9999999999999998
 43
0.9999999999999998
 50
119.9999999999999
  0
INSERT
  5
C3E
  8
0
  6
BYBLOCK
 62
     0
  2
*U12
 10
-42149.967676557237
 20
9705.9111875885337
 30
0.0
 50
180.0
  0
INSERT
  5
C3F
  8
0
  6
BYBLOCK
 62
     0
  2
*U12
 10
-42128.100535111676
 20
9718.5361875885264
 30
0.0
 41
0.9999999999999998
 42
0.9999999999999998
 43
0.9999999999999998
 50
240.0
  0
INSERT
  5
C40
  8
0
  6
BYBLOCK
 62
     0
  2
*U12
 10
-42128.100535111676
 20
9743.7861875885246
 30
0.0
 41
0.9999999999999998
 42
0.9999999999999998
 43
0.9999999999999998
 50
300.0
  0
ENDBLK
  5
C41
  8
0
  0
BLOCK
  8
0
  2
*U14
 70
     1
 10
0.0
 20
0.0
 30
0.0
  3
*U14
  1

  0
ARC
  5
C44
  8
0
 10
-0.000000000007276
 20
2.7337045651402141
 30
0.0
 40
4.7392728971135512
 50
188.8378600469801
 51
351.1621399530199
  0
ENDBLK
  5
C45
  8
0
  0
BLOCK
  8
0
  2
*U15
 70
     1
 10
0.0
 20
0.0
 30
0.0
  3
*U15
  1

  0
INSERT
  5
C49
  8
0
  6
BYBLOCK
 62
     0
  2
*U14
 10
-43885.708367284918
 20
10258.125317387179
 30
0.0
  0
INSERT
  5
C4A
  8
0
  6
BYBLOCK
 62
     0
  2
*U14
 10
-43908.756612802172
 20
10218.204585126021
 30
0.0
 41
0.9999999999999998
 42
0.9999999999999998
 43
0.9999999999999998
 50
120.0
  0
INSERT
  5
C4B
  8
0
  6
BYBLOCK
 62
     0
  2
*U14
 10
-43862.660121767702
 20
10218.20458512601
 30
0.0
 50
239.99999999999989
  0
ENDBLK
  5
C4C
  8
0
  0
BLOCK
  8
0
  2
*X16
 70
     1
 10
0.0
 20
0.0
 30
0.0
  3
*X16
  1

  0
LINE
  5
CFC
  8
0
 62
     0
 10
98.711109661541144
 20
95.207542040573884
 30
0.0
 11
97.508469572106776
 21
95.529788481323124
 31
0.0
  0
LINE
  5
CFD
  8
0
 62
     0
 10
96.089531271459023
 20
94.648249008216496
 30
0.0
 11
96.015811760097918
 21
94.668002091752115
 31
0.0
  0
LINE
  5
CFE
  8
0
 62
     0
 10
99.572896051108543
 20
93.71488422856639
 30
0.0
 11
96.089531271459165
 21
94.648249008216439
 31
0.0
  0
LINE
  5
CFF
  8
0
 62
     0
 10
96.951317661029094
 20
93.155591196208292
 30
0.0
 11
94.523153948087668
 21
93.806215702181504
 31
0.0
  0
LINE
  5
D00
  8
0
 62
     0
 10
100.4346824406759
 20
92.222226416558911
 30
0.0
 11
96.951317661033556
 21
93.155591196207098
 31
0.0
  0
LINE
  5
D01
  8
0
 62
     0
 10
97.519446545524119
 20
91.741618675536259
 30
0.0
 11
94.329739270949887
 21
92.596298163850108
 31
0.0
  0
LINE
  5
D02
  8
0
 62
     0
 10
99.543456641430254
 20
91.741618675536259
 30
0.0
 11
99.913921220772565
 21
93.124211308046355
 31
0.0
  0
LINE
  5
D03
  8
0
 62
     0
 10
98.281713796555479
 20
91.741618675536259
 30
0.0
 11
99.052134831202466
 21
94.616869120058595
 31
0.0
  0
LINE
  5
D04
  8
0
 62
     0
 10
97.256983661981863
 20
92.626162152419894
 30
0.0
 11
98.13137121079572
 21
95.889420910098778
 31
0.0
  0
LINE
  5
D05
  8
0
 62
     0
 10
97.019970951680691
 20
91.741618675536259
 30
0.0
 11
97.256983661980257
 21
92.626162152413855
 31
0.0
  0
LINE
  5
D06
  8
0
 62
     0
 10
96.395197272409888
 20
94.118819964425157
 30
0.0
 11
96.638713398787317
 21
95.027634520527982
 31
0.0
  0
LINE
  5
D07
  8
0
 62
     0
 10
95.758228106805888
 20
91.741618675536259
 30
0.0
 11
96.395197272409433
 21
94.118819964423437
 31
0.0
  0
LINE
  5
D08
  8
0
 62
     0
 10
94.600046103188205
 20
92.128112996782363
 30
0.0
 11
95.146055586779113
 21
94.165848130958068
 31
0.0
  0
ENDBLK
  5
D0A
  8
0
  0
BLOCK
  8
0
  2
*U17
 70
     1
 10
0.0
 20
0.0
 30
0.0
  3
*U17
  1

  0
TEXT
  5
D0C
  8
0
 10
36.919064398389132
 20
7.5649178866531299
 30
0.0
 40
20.0
  1
WBK40
  7
DUKI7
  0
ENDBLK
  5
D0E
  8
0
  0
BLOCK
  8
0
  2
*X18
 70
     1
 10
0.0
 20
0.0
 30
0.0
  3
*X18
  1

  0
LINE
  5
D10
  8
0
 62
     0
 10
213.11995923073979
 20
106.482182936485
 30
0.0
 11
211.9173191413054
 21
106.8044293772342
 31
0.0
  0
LINE
  5
D11
  8
0
 62
     0
 10
210.49838084065769
 20
105.9228899041276
 30
0.0
 11
210.42466132929661
 21
105.94264298766321
 31
0.0
  0
LINE
  5
D12
  8
0
 62
     0
 10
213.98174562030721
 20
104.9895251244775
 30
0.0
 11
210.4983808406578
 21
105.9228899041276
 31
0.0
  0
LINE
  5
D13
  8
0
 62
     0
 10
211.36016723022769
 20
104.4302320921194
 30
0.0
 11
208.93200351728629
 21
105.08085659809259
 31
0.0
  0
LINE
  5
D14
  8
0
 62
     0
 10
214.84353200987459
 20
103.49686731247
 30
0.0
 11
211.36016723023221
 21
104.4302320921182
 31
0.0
  0
LINE
  5
D15
  8
0
 62
     0
 10
211.92829611472271
 20
103.01625957144741
 30
0.0
 11
208.73858884014851
 21
103.8709390597612
 31
0.0
  0
LINE
  5
D16
  8
0
 62
     0
 10
213.9523062106289
 20
103.01625957144741
 30
0.0
 11
214.3227707899712
 21
104.3988522039575
 31
0.0
  0
LINE
  5
D17
  8
0
 62
     0
 10
212.69056336575409
 20
103.01625957144741
 30
0.0
 11
213.46098440040109
 21
105.8915100159697
 31
0.0
  0
LINE
  5
D18
  8
0
 62
     0
 10
211.6658332311805
 20
103.900803048331
 30
0.0
 11
212.5402207799944
 21
107.1640618060099
 31
0.0
  0
LINE
  5
D19
  8
0
 62
     0
 10
211.42882052087941
 20
103.01625957144741
 30
0.0
 11
211.66583323117891
 21
103.900803048325
 31
0.0
  0
LINE
  5
D1A
  8
0
 62
     0
 10
210.80404684160851
 20
105.3934608603363
 30
0.0
 11
211.0475629679859
 21
106.3022754164391
 31
0.0
  0
LINE
  5
D1B
  8
0
 62
     0
 10
210.16707767600451
 20
103.01625957144741
 30
0.0
 11
210.80404684160811
 21
105.3934608603345
 31
0.0
  0
LINE
  5
D1C
  8
0
 62
     0
 10
209.0088956723869
 20
103.4027538926935
 30
0.0
 11
209.55490515597779
 21
105.4404890268692
 31
0.0
  0
ENDBLK
  5
D1E
  8
0
  0
BLOCK
  8
0
  2
*U19
 70
     1
 10
0.0
 20
0.0
 30
0.0
  3
*U19
  1

  0
TEXT
  5
D20
  8
0
 10
176.71103704561369
 20
-18.876011164570961
 30
0.0
 40
20.0
  1
WBK40DFF
  7
DUKI7
  0
ENDBLK
  5
D22
  8
0
  0
ENDSEC
  0
SECTION
  2
ENTITIES
  0
LINE
  5
2B0
  8
CENTER
  6
CENTER
 10
104.93978667718
 20
161.20546366753811
 30
0.0
 11
104.9397866771799
 21
-1.5365480729226559
 31
0.0
  0
LINE
  5
2B4
  8
CENTER
  6
CENTER
 10
182.3789699992129
 20
83.766280345505109
 30
0.0
 11
27.500603355146989
 21
83.766280345505109
 31
0.0
  0
LINE
  5
30E
  8
CENTER
 10
329.96938842559871
 20
83.766259571445588
 30
0.0
 11
194.65994677962561
 21
83.766259571445588
 31
0.0
  0
LINE
  5
41E
  8
CENTER
  6
CENTER
 10
370.28791338936861
 20
143.76628034550509
 30
0.0
 11
370.28791338936861
 21
23.76628034550512
 31
0.0
  0
LINE
  5
41F
  8
CENTER
  6
CENTER
 10
420.28790338936881
 20
83.766280345505109
 30
0.0
 11
370.28791338936861
 21
83.766280345505109
 31
0.0
  0
CIRCLE
  5
5D3
  8
0
 10
104.9397866771799
 20
126.26628034550519
 30
0.0
 40
7.0
  0
CIRCLE
  5
5D4
  8
0
 10
104.9397866771799
 20
126.26628034550519
 30
0.0
 40
6.0
  0
LINE
  5
5D5
  8
0
 10
107.96478667718
 20
124.5057761563594
 30
0.0
 11
107.9647866771799
 21
128.026784534651
 31
0.0
  0
LINE
  5
5D6
  8
0
 10
101.9147866771799
 20
124.5057761563594
 30
0.0
 11
101.9147866771799
 21
128.026784534651
 31
0.0
  0
LINE
  5
5D7
  8
0
 10
101.9147866771799
 20
124.5057761563594
 30
0.0
 11
101.9147866771799
 21
128.026784534651
 31
0.0
  0
LINE
  5
5D8
  8
0
 10
101.91478667718
 20
128.02678453465111
 30
0.0
 11
104.9397866771799
 21
129.76628034550521
 31
0.0
  0
LINE
  5
5D9
  8
0
 10
104.9397866771799
 20
129.76628034550521
 30
0.0
 11
107.96478667718
 21
128.026784534651
 31
0.0
  0
LINE
  5
5DA
  8
0
 10
101.91478667718
 20
124.5057761563594
 30
0.0
 11
104.9397866771799
 21
122.76628034550519
 31
0.0
  0
LINE
  5
5DB
  8
0
 10
104.9397866771799
 20
122.76628034550519
 30
0.0
 11
107.96478667718
 21
124.5057761563595
 31
0.0
  0
LINE
  5
5EF
  8
CENTER
 10
75.00018997266217
 20
97.727343570893893
 30
0.0
 11
57.474564756670361
 21
105.89967682306521
 31
0.0
  0
CIRCLE
  5
5F0
  8
0
 10
66.421705728122305
 20
101.7275564694848
 30
0.0
 40
7.0
  0
CIRCLE
  5
5F1
  8
0
 10
66.421705728122305
 20
101.7275564694848
 30
0.0
 40
6.0
  0
LINE
  5
5F2
  8
0
 10
63.396705728122257
 20
99.967052280339061
 30
0.0
 11
63.396705728122292
 21
103.4880606586306
 31
0.0
  0
LINE
  5
5F3
  8
0
 10
69.446705728122311
 20
99.967052280339004
 30
0.0
 11
69.446705728122311
 21
103.4880606586306
 31
0.0
  0
LINE
  5
5F4
  8
0
 10
69.446705728122311
 20
99.967052280339004
 30
0.0
 11
69.446705728122311
 21
103.4880606586306
 31
0.0
  0
LINE
  5
5F5
  8
0
 10
69.446705728122282
 20
103.4880606586307
 30
0.0
 11
66.421705728122305
 21
105.2275564694848
 31
0.0
  0
LINE
  5
5F6
  8
0
 10
66.421705728122305
 20
105.2275564694848
 30
0.0
 11
63.396705728122257
 21
103.4880606586306
 31
0.0
  0
LINE
  5
5F7
  8
0
 10
69.446705728122282
 20
99.96705228033899
 30
0.0
 11
66.421705728122305
 21
98.227556469484838
 31
0.0
  0
LINE
  5
5F8
  8
0
 10
66.421705728122305
 20
98.227556469484838
 30
0.0
 11
63.396705728122242
 21
99.967052280339104
 31
0.0
  0
CIRCLE
  5
60E
  8
0
 10
89.281234448477477
 20
142.20479283599369
 30
0.0
 40
8.75
  0
CIRCLE
  5
60F
  8
0
 10
89.281234448477477
 20
142.20479283599369
 30
0.0
 40
5.5
  0
ARC
  5
61F
  8
HIDE
 10
76.655515429718122
 20
112.0505515929669
 30
0.0
 40
3.0
 50
239.80903336669891
 51
145.78362026624319
  0
CIRCLE
  5
620
  8
0
 10
76.655515429718122
 20
112.0505515929669
 30
0.0
 40
2.5
  0
LINE
  5
65B
  8
HIDE
 10
303.94928330971038
 20
119.7662595714456
 30
0.0
 11
303.94928330971038
 21
104.76628034550509
 31
0.0
  0
LINE
  5
674
  8
CENTER
  6
CENTER
 10
257.12174330971197
 20
108.52601519663941
 30
0.0
 11
245.77681330970901
 21
115.0760151966423
 31
0.0
  0
CIRCLE
  5
675
  8
HIDE
 10
251.44928330971041
 20
111.8010651966396
 30
0.0
 40
3.1749990000000001
  0
LINE
  5
676
  8
HIDE
 10
258.94928330971038
 20
115.3010651966396
 30
0.0
 11
252.85128330970861
 21
115.3010651966396
 31
0.0
  0
LINE
  5
677
  8
CENTER
  6
CENTER
 10
302.12168330970991
 20
115.07602519664199
 30
0.0
 11
290.7767633097103
 21
108.5260351966425
 31
0.0
  0
ARC
  5
678
  8
HIDE
 10
295.04727330970883
 20
114.8010651966396
 30
0.0
 40
0.5
 50
5.003720000016469
 51
90.000018000116427
  0
CIRCLE
  5
679
  8
HIDE
 10
296.44928330971038
 20
111.8010651966396
 30
0.0
 40
3.1749990000000001
  0
LINE
  5
67A
  8
HIDE
 10
303.44928330971038
 20
108.8010651966396
 30
0.0
 11
297.48880330970883
 21
108.8010651966396
 31
0.0
  0
LINE
  5
67B
  8
HIDE
 10
303.44928330971038
 20
111.8010651966396
 30
0.0
 11
299.62426330971022
 21
111.8010651966396
 31
0.0
  0
ARC
  5
67C
  8
HIDE
 10
303.44928330971038
 20
108.3010651966396
 30
0.0
 40
0.5
 50
0.0000400000040257
 51
90.000018000116427
  0
ARC
  5
67D
  8
HIDE
 10
303.44928330971038
 20
112.3010651966396
 30
0.0
 40
0.5
 50
270.0
 51
0.0000400000040257
  0
LINE
  5
67E
  8
HIDE
 10
293.27427330971142
 20
111.8010651966396
 30
0.0
 11
289.44928330971038
 21
111.8010651966396
 31
0.0
  0
LINE
  5
67F
  8
HIDE
 10
295.04727330970883
 20
115.3010651966396
 30
0.0
 11
288.94928330971038
 21
115.3010651966396
 31
0.0
  0
LINE
  5
680
  8
HIDE
 10
258.44928330971038
 20
111.8010651966396
 30
0.0
 11
254.6242833097096
 21
111.8010651966396
 31
0.0
  0
LINE
  5
681
  8
HIDE
 10
250.40976330971191
 20
108.8010651966396
 30
0.0
 11
244.44928330971041
 21
108.8010651966396
 31
0.0
  0
LINE
  5
682
  8
HIDE
 10
248.2742933097108
 20
111.8010651966396
 30
0.0
 11
244.44928330971041
 21
111.8010651966396
 31
0.0
  0
ARC
  5
683
  8
HIDE
 10
252.85128330970861
 20
114.8010651966396
 30
0.0
 40
0.5
 50
90.000018000116455
 51
174.99627800008199
  0
ARC
  5
684
  8
HIDE
 10
244.44928330971041
 20
108.3010651966396
 30
0.0
 40
0.5
 50
90.000018000116455
 51
179.99996399997551
  0
ARC
  5
685
  8
HIDE
 10
244.44928330971041
 20
112.3010651966396
 30
0.0
 40
0.5
 50
179.99995999999589
 51
269.9999800001022
  0
ARC
  5
68E
  8
HIDE
 10
258.44928346679097
 20
111.3010651966396
 30
0.0
 40
0.5
 50
0.0000400000040257
 51
90.000018000116455
  0
ARC
  5
68F
  8
HIDE
 10
289.44928346679097
 20
111.3010651966396
 30
0.0
 40
0.5
 50
90.000018000116427
 51
180.0
  0
LINE
  5
690
  8
HIDE
 10
288.94928330971038
 20
118.7662595714456
 30
0.0
 11
288.94928330971038
 21
104.76628034550509
 31
0.0
  0
LINE
  5
692
  8
HIDE
 10
273.94928330971038
 20
118.7662595714456
 30
0.0
 11
273.94928330971038
 21
104.7662796473732
 31
0.0
  0
LINE
  5
693
  8
CENTER
  6
CENTER
 10
287.12168330970979
 20
115.07602519664199
 30
0.0
 11
275.7767633097103
 21
108.5260351966425
 31
0.0
  0
ARC
  5
694
  8
HIDE
 10
280.04727330970871
 20
114.8010651966396
 30
0.0
 40
0.5
 50
5.003720000016469
 51
90.000018000116427
  0
CIRCLE
  5
695
  8
HIDE
 10
281.44928330971038
 20
111.8010651966396
 30
0.0
 40
3.1749990000000001
  0
LINE
  5
696
  8
HIDE
 10
288.44928330971038
 20
108.8010651966396
 30
0.0
 11
282.48880330970883
 21
108.8010651966396
 31
0.0
  0
LINE
  5
697
  8
HIDE
 10
288.44928330971038
 20
111.8010651966396
 30
0.0
 11
284.62426330971022
 21
111.8010651966396
 31
0.0
  0
ARC
  5
698
  8
HIDE
 10
288.44928330971038
 20
108.3010651966396
 30
0.0
 40
0.5
 50
0.0000400000040257
 51
90.000018000116427
  0
ARC
  5
699
  8
HIDE
 10
288.44928330971038
 20
112.3010651966396
 30
0.0
 40
0.5
 50
270.0
 51
0.0000400000040257
  0
LINE
  5
69A
  8
HIDE
 10
278.2742733097113
 20
111.8010651966396
 30
0.0
 11
274.44928330971038
 21
111.8010651966396
 31
0.0
  0
LINE
  5
69B
  8
HIDE
 10
280.04727330970871
 20
115.3010651966396
 30
0.0
 11
273.94928330971038
 21
115.3010651966396
 31
0.0
  0
ARC
  5
69C
  8
HIDE
 10
274.44928346679097
 20
111.3010651966396
 30
0.0
 40
0.5
 50
90.000018000116427
 51
180.0
  0
LINE
  5
69D
  8
HIDE
 10
243.94928330971041
 20
119.7662595714456
 30
0.0
 11
243.94928330971041
 21
104.766280345505
 31
0.0
  0
ARC
  5
6B0
  8
HIDE
 10
302.94928330971038
 20
104.76628034550509
 30
0.0
 40
1.0
 50
270.0
 51
0.0000400000040257
  0
ARC
  5
6B1
  8
HIDE
 10
289.94928330971038
 20
104.76628034550509
 30
0.0
 40
1.0
 50
180.0
 51
269.9999800001022
  0
ARC
  5
6B5
  8
HIDE
 10
302.94928330971038
 20
118.7662595714456
 30
0.0
 40
1.0
 50
0.0000400000040257
 51
90.000018000116427
  0
ARC
  5
6B6
  8
HIDE
 10
289.94928330971038
 20
118.7662595714456
 30
0.0
 40
1.0
 50
90.000018000116427
 51
180.0
  0
ARC
  5
6B8
  8
HIDE
 10
244.94928330971021
 20
104.766280345505
 30
0.0
 40
1.0
 50
180.0
 51
269.9999800001022
  0
ARC
  5
6B9
  8
HIDE
 10
244.94928330971021
 20
118.7662595714456
 30
0.0
 40
1.0
 50
90.000018000116455
 51
179.99996399997551
  0
ARC
  5
6BA
  8
HIDE
 10
287.94928330970998
 20
104.7662796473732
 30
0.0
 40
1.0
 50
270.0
 51
0.0000400000040257
  0
ARC
  5
6BB
  8
HIDE
 10
274.94928330970998
 20
104.7662796473732
 30
0.0
 40
1.0
 50
180.0
 51
269.9999800001022
  0
ARC
  5
6BC
  8
HIDE
 10
287.94928330970998
 20
118.7662588733137
 30
0.0
 40
1.0
 50
0.0000400000040257
 51
90.000018000116427
  0
ARC
  5
6BD
  8
HIDE
 10
274.94928330970998
 20
118.7662588733137
 30
0.0
 40
1.0
 50
90.000018000116427
 51
180.0
  0
LINE
  5
6BF
  8
HIDE
 10
289.94928330971038
 20
103.76628034550509
 30
0.0
 11
321.94928330971032
 21
103.76628034550509
 31
0.0
  0
LINE
  5
6C0
  8
HIDE
 10
274.94810167388948
 20
103.76628034550509
 30
0.0
 11
287.95046494553787
 21
103.76628034550509
 31
0.0
  0
LINE
  5
6C3
  8
HIDE
 10
244.94928330971021
 20
103.76628034550509
 30
0.0
 11
257.94928330971021
 21
103.76628034550509
 31
0.0
  0
LINE
  5
6F3
  8
CENTER
 10
395.2187378042006
 20
108.6971047603371
 30
0.0
 11
402.55293726665548
 21
116.0313042227921
 31
0.0
  0
ARC
  5
6F4
  8
HIDE
 10
398.57218463683051
 20
112.050551592967
 30
0.0
 40
3.0
 50
215.24317242610829
 51
123.57783539362831
  0
CIRCLE
  5
6F9
  8
0
 10
398.57218463683051
 20
112.050551592967
 30
0.0
 40
2.5
  0
LINE
  5
6FA
  8
CENTER
 10
395.2187378042006
 20
58.835455930673099
 30
0.0
 11
402.55293726665548
 21
51.501256468218152
 31
0.0
  0
ARC
  5
6FB
  8
HIDE
 10
398.57218463683051
 20
55.482009098043179
 30
0.0
 40
3.0
 50
236.42216460637161
 51
144.75682757389271
  0
CIRCLE
  5
6FC
  8
0
 10
398.57218463683051
 20
55.482009098043228
 30
0.0
 40
2.5
  0
LINE
  5
6FD
  8
CENTER
 10
325.71151499833047
 20
123.76628034550509
 30
0.0
 11
304.67491902019742
 21
123.76628034550509
 31
0.0
  0
LINE
  5
6FE
  8
HIDE
 10
321.94928330971021
 20
126.76628034550509
 30
0.0
 11
313.81530871349469
 21
126.76628034550509
 31
0.0
  0
LINE
  5
6FF
  8
HIDE
 10
321.94928330971021
 20
120.76628034550509
 30
0.0
 11
313.81530871349469
 21
120.76628034550509
 31
0.0
  0
LINE
  5
700
  8
HIDE
 10
312.94928330971038
 20
121.26628034550509
 30
0.0
 11
312.94928330971032
 21
126.26628034550509
 31
0.0
  0
LINE
  5
701
  8
HIDE
 10
308.94928330971032
 20
121.266280345505
 30
0.0
 11
308.94928330971032
 21
126.26628034550509
 31
0.0
  0
LINE
  5
702
  8
HIDE
 10
321.94928330971032
 20
126.26628034550509
 30
0.0
 11
308.94928330971032
 21
126.26628034550509
 31
0.0
  0
LINE
  5
703
  8
HIDE
 10
321.94928330971021
 20
121.26628034550509
 30
0.0
 11
308.94928330971032
 21
121.266280345505
 31
0.0
  0
LINE
  5
706
  8
HIDE
 10
312.94928330971032
 20
126.26628034550509
 30
0.0
 11
313.8153087134948
 21
126.76628034550509
 31
0.0
  0
LINE
  5
709
  8
HIDE
 10
308.94928330971032
 20
126.26628034550509
 30
0.0
 11
307.5059076367362
 21
123.76628034550509
 31
0.0
  0
LINE
  5
72A
  8
HIDE
 10
308.94928330971032
 20
121.266280345505
 30
0.0
 11
307.5059076367362
 21
123.76628034550509
 31
0.0
  0
LINE
  5
72B
  8
HIDE
 10
312.94928330971032
 20
121.26628034550509
 30
0.0
 11
313.8153087134948
 21
120.766280345505
 31
0.0
  0
CIRCLE
  5
7D5
  8
0
 10
104.93978667718
 20
83.766280345505109
 30
0.0
 40
51.0
  0
LINE
  5
7D6
  8
CENTER
 10
93.163520125015296
 20
127.7159054416577
 30
0.0
 11
84.897051196252335
 21
158.56678748299041
 31
0.0
  0
LINE
  5
7D7
  8
CENTER
 10
84.433690022770122
 20
104.2723769999149
 30
0.0
 11
50.182015020622259
 21
138.5240520020628
 31
0.0
  0
CIRCLE
  5
7D9
  8
0
 10
62.159826415393859
 20
126.5462406072912
 30
0.0
 40
8.75
  0
CIRCLE
  5
7DA
  8
0
 10
62.159826415393859
 20
126.5462406072912
 30
0.0
 40
5.5
  0
CIRCLE
  5
7E0
  8
CENTER
 10
104.9397866771799
 20
83.766280345505237
 30
0.0
 40
42.5
  0
CIRCLE
  5
7E1
  8
0
 10
104.93978667718
 20
83.766280345505066
 30
0.0
 40
34.5
  0
CIRCLE
  5
7E8
  8
0
 10
104.93978667718
 20
83.766280345505066
 30
0.0
 40
32.0
  0
CIRCLE
  5
7E9
  8
0
 10
104.9397866771799
 20
83.766280345505109
 30
0.0
 40
34.0
  0
ARC
  5
7F3
  8
CENTER
 10
104.93978667718
 20
83.766280345505066
 30
0.0
 40
40.0
 50
126.0813280452444
 51
142.2985917028945
  0
ARC
  5
808
  8
HIDE
 10
76.655515429718065
 20
55.482009098043207
 30
0.0
 40
3.0
 50
239.80903336669891
 51
145.78362026624299
  0
CIRCLE
  5
809
  8
0
 10
76.655515429718065
 20
55.482009098043207
 30
0.0
 40
2.5
  0
ARC
  5
80A
  8
HIDE
 10
133.2240579246419
 20
55.482009098043157
 30
0.0
 40
3.0
 50
239.8090333666992
 51
145.78362026624291
  0
CIRCLE
  5
80B
  8
0
 10
133.2240579246419
 20
55.482009098043157
 30
0.0
 40
2.5
  0
ARC
  5
80C
  8
HIDE
 10
133.22405792464181
 20
112.050551592967
 30
0.0
 40
3.0
 50
239.8090333666992
 51
145.78362026624319
  0
CIRCLE
  5
80D
  8
0
 10
133.22405792464181
 20
112.050551592967
 30
0.0
 40
2.5
  0
ARC
  5
812
  8
CENTER
 10
104.93978667718
 20
83.766280345505066
 30
0.0
 40
40.0
 50
215.8064009745741
 51
233.771435247152
  0
ARC
  5
813
  8
CENTER
 10
104.93978667718
 20
83.766280345505066
 30
0.0
 40
40.0
 50
306.80718021597971
 51
323.43207062774923
  0
ARC
  5
814
  8
CENTER
 10
104.93978667718
 20
83.766280345505066
 30
0.0
 40
40.0
 50
36.455323210610402
 51
53.637268795765351
  0
CIRCLE
  5
815
  8
0
 10
104.9397866771799
 20
41.266280345504981
 30
0.0
 40
7.0
  0
CIRCLE
  5
816
  8
0
 10
104.9397866771799
 20
41.266280345504981
 30
0.0
 40
6.0
  0
LINE
  5
817
  8
0
 10
107.96478667718
 20
43.026784534650737
 30
0.0
 11
107.9647866771799
 21
39.505776156359161
 31
0.0
  0
LINE
  5
818
  8
0
 10
101.9147866771799
 20
43.026784534650787
 30
0.0
 11
101.9147866771799
 21
39.505776156359161
 31
0.0
  0
LINE
  5
819
  8
0
 10
101.9147866771799
 20
43.026784534650787
 30
0.0
 11
101.9147866771799
 21
39.505776156359161
 31
0.0
  0
LINE
  5
81A
  8
0
 10
101.91478667718
 20
39.505776156359133
 30
0.0
 11
104.9397866771799
 21
37.766280345504981
 31
0.0
  0
LINE
  5
81B
  8
0
 10
104.9397866771799
 20
37.766280345504981
 30
0.0
 11
107.96478667718
 21
39.50577615635919
 31
0.0
  0
LINE
  5
81C
  8
0
 10
101.91478667718
 20
43.02678453465083
 30
0.0
 11
104.9397866771799
 21
44.766280345504981
 31
0.0
  0
LINE
  5
81D
  8
0
 10
104.9397866771799
 20
44.766280345504981
 30
0.0
 11
107.96478667718
 21
43.026784534650709
 31
0.0
  0
LINE
  5
81E
  8
CENTER
 10
75.00018997266217
 20
69.805217120116325
 30
0.0
 11
57.474564756670361
 21
61.632883867944969
 31
0.0
  0
CIRCLE
  5
81F
  8
0
 10
66.421705728122305
 20
65.80500422152538
 30
0.0
 40
7.0
  0
CIRCLE
  5
820
  8
0
 10
66.421705728122305
 20
65.80500422152538
 30
0.0
 40
6.0
  0
LINE
  5
821
  8
0
 10
63.396705728122257
 20
67.565508410671157
 30
0.0
 11
63.396705728122292
 21
64.044500032379545
 31
0.0
  0
LINE
  5
822
  8
0
 10
69.446705728122311
 20
67.565508410671214
 30
0.0
 11
69.446705728122311
 21
64.044500032379545
 31
0.0
  0
LINE
  5
823
  8
0
 10
69.446705728122311
 20
67.565508410671214
 30
0.0
 11
69.446705728122311
 21
64.044500032379545
 31
0.0
  0
LINE
  5
824
  8
0
 10
69.446705728122282
 20
64.044500032379531
 30
0.0
 11
66.421705728122305
 21
62.305004221525373
 31
0.0
  0
LINE
  5
825
  8
0
 10
66.421705728122305
 20
62.305004221525373
 30
0.0
 11
63.396705728122257
 21
64.044500032379574
 31
0.0
  0
LINE
  5
826
  8
0
 10
69.446705728122282
 20
67.565508410671228
 30
0.0
 11
66.421705728122305
 21
69.30500422152538
 31
0.0
  0
LINE
  5
827
  8
0
 10
66.421705728122305
 20
69.30500422152538
 30
0.0
 11
63.396705728122242
 21
67.565508410671114
 31
0.0
  0
LINE
  5
828
  8
CENTER
 10
134.87938338169781
 20
97.727343570893893
 30
0.0
 11
152.40500859768949
 21
105.89967682306521
 31
0.0
  0
CIRCLE
  5
829
  8
0
 10
143.4578676262376
 20
101.7275564694848
 30
0.0
 40
7.0
  0
CIRCLE
  5
82A
  8
0
 10
143.4578676262376
 20
101.7275564694848
 30
0.0
 40
6.0
  0
LINE
  5
82B
  8
0
 10
146.48286762623761
 20
99.967052280339061
 30
0.0
 11
146.48286762623761
 21
103.4880606586306
 31
0.0
  0
LINE
  5
82C
  8
0
 10
140.4328676262376
 20
99.967052280339004
 30
0.0
 11
140.4328676262376
 21
103.4880606586306
 31
0.0
  0
LINE
  5
82D
  8
0
 10
140.4328676262376
 20
99.967052280339004
 30
0.0
 11
140.4328676262376
 21
103.4880606586306
 31
0.0
  0
LINE
  5
82E
  8
0
 10
140.4328676262376
 20
103.4880606586307
 30
0.0
 11
143.4578676262376
 21
105.2275564694848
 31
0.0
  0
LINE
  5
82F
  8
0
 10
143.4578676262376
 20
105.2275564694848
 30
0.0
 11
146.48286762623761
 21
103.4880606586306
 31
0.0
  0
LINE
  5
830
  8
0
 10
140.4328676262376
 20
99.96705228033899
 30
0.0
 11
143.4578676262376
 21
98.227556469484838
 31
0.0
  0
LINE
  5
831
  8
0
 10
143.4578676262376
 20
98.227556469484838
 30
0.0
 11
146.48286762623769
 21
99.967052280339104
 31
0.0
  0
LINE
  5
832
  8
CENTER
 10
134.87938338169781
 20
69.805217120116325
 30
0.0
 11
152.40500859768949
 21
61.632883867944969
 31
0.0
  0
CIRCLE
  5
833
  8
0
 10
143.4578676262376
 20
65.80500422152538
 30
0.0
 40
7.0
  0
CIRCLE
  5
834
  8
0
 10
143.4578676262376
 20
65.80500422152538
 30
0.0
 40
6.0
  0
LINE
  5
835
  8
0
 10
146.48286762623761
 20
67.565508410671157
 30
0.0
 11
146.48286762623761
 21
64.044500032379545
 31
0.0
  0
LINE
  5
836
  8
0
 10
140.4328676262376
 20
67.565508410671214
 30
0.0
 11
140.4328676262376
 21
64.044500032379545
 31
0.0
  0
LINE
  5
837
  8
0
 10
140.4328676262376
 20
67.565508410671214
 30
0.0
 11
140.4328676262376
 21
64.044500032379545
 31
0.0
  0
LINE
  5
838
  8
0
 10
140.4328676262376
 20
64.044500032379531
 30
0.0
 11
143.4578676262376
 21
62.305004221525373
 31
0.0
  0
LINE
  5
839
  8
0
 10
143.4578676262376
 20
62.305004221525373
 30
0.0
 11
146.48286762623761
 21
64.044500032379574
 31
0.0
  0
LINE
  5
83A
  8
0
 10
140.4328676262376
 20
67.565508410671228
 30
0.0
 11
143.4578676262376
 21
69.30500422152538
 31
0.0
  0
LINE
  5
83B
  8
0
 10
143.4578676262376
 20
69.30500422152538
 30
0.0
 11
146.48286762623769
 21
67.565508410671114
 31
0.0
  0
LINE
  5
85D
  8
0
 10
256.94928330971038
 20
154.76628034550509
 30
0.0
 11
272.94928330971032
 21
154.76628034550501
 31
0.0
  0
LINE
  5
85E
  8
0
 10
226.9492833097103
 20
134.76628034550509
 30
0.0
 11
255.94928330971041
 21
134.76628034550509
 31
0.0
  0
LINE
  5
860
  8
0
 10
273.94928330971032
 20
131.2662595714456
 30
0.0
 11
273.94928330971032
 21
153.76628034550501
 31
0.0
  0
LINE
  5
861
  8
0
 10
255.94928330971041
 20
153.76628034550509
 30
0.0
 11
256.94928330971038
 21
154.76628034550509
 31
0.0
  0
LINE
  5
862
  8
0
 10
272.94928330971032
 20
154.76628034550501
 30
0.0
 11
273.94928330971032
 21
153.76628034550509
 31
0.0
  0
LINE
  5
864
  8
CENTER
 10
284.53113671266658
 20
144.2662595714456
 30
0.0
 11
243.725490209106
 21
144.2662595714456
 31
0.0
  0
ARC
  5
865
  8
0
 10
104.93978667718
 20
83.766280345505066
 30
0.0
 40
71.0
 50
41.713719322368561
 51
138.28628067763151
  0
CIRCLE
  5
866
  8
CENTER
 10
104.9397866771799
 20
83.766280345505109
 30
0.0
 40
60.5
  0
ARC
  5
86E
  8
0
 10
104.93978667718
 20
83.766280345505066
 30
0.0
 40
71.0
 50
221.71371932236849
 51
318.2862806776314
  0
LINE
  5
86F
  8
0
 10
157.93978667717991
 20
131.01032758957601
 30
0.0
 11
157.93978667717991
 21
36.522233101434111
 31
0.0
  0
LINE
  5
870
  8
0
 10
51.939786677179953
 20
36.522233101434267
 30
0.0
 11
51.939786677179953
 21
131.01032758957581
 31
0.0
  0
CIRCLE
  5
871
  8
0
 10
120.5983389058824
 20
142.20479283599369
 30
0.0
 40
8.75
  0
CIRCLE
  5
872
  8
0
 10
120.5983389058824
 20
142.20479283599369
 30
0.0
 40
5.5
  0
LINE
  5
873
  8
CENTER
 10
116.7160532293446
 20
127.7159054416577
 30
0.0
 11
124.9825221581076
 21
158.56678748299041
 31
0.0
  0
LINE
  5
874
  8
CENTER
 10
125.4458833315898
 20
104.2723769999149
 30
0.0
 11
159.6975583337377
 21
138.5240520020628
 31
0.0
  0
CIRCLE
  5
875
  8
0
 10
147.71974693896601
 20
126.5462406072912
 30
0.0
 40
8.75
  0
CIRCLE
  5
876
  8
0
 10
147.71974693896601
 20
126.5462406072912
 30
0.0
 40
5.5
  0
CIRCLE
  5
877
  8
0
 10
89.281234448477477
 20
25.327767855016479
 30
0.0
 40
8.75
  0
CIRCLE
  5
878
  8
0
 10
89.281234448477477
 20
25.327767855016479
 30
0.0
 40
5.5
  0
LINE
  5
879
  8
CENTER
 10
93.163520125015296
 20
39.8166552493525
 30
0.0
 11
84.897051196252335
 21
8.9657732080197547
 31
0.0
  0
LINE
  5
87A
  8
CENTER
 10
84.433690022770122
 20
63.260183691095278
 30
0.0
 11
50.182015020622252
 21
29.008508688947401
 31
0.0
  0
CIRCLE
  5
87B
  8
0
 10
62.159826415393859
 20
40.986320083718958
 30
0.0
 40
8.75
  0
CIRCLE
  5
87C
  8
0
 10
62.159826415393859
 20
40.986320083718958
 30
0.0
 40
5.5
  0
CIRCLE
  5
87D
  8
0
 10
120.5983389058824
 20
25.327767855016479
 30
0.0
 40
8.75
  0
CIRCLE
  5
87E
  8
0
 10
120.5983389058824
 20
25.327767855016479
 30
0.0
 40
5.5
  0
LINE
  5
87F
  8
CENTER
 10
116.7160532293446
 20
39.8166552493525
 30
0.0
 11
124.9825221581076
 21
8.9657732080197547
 31
0.0
  0
LINE
  5
880
  8
CENTER
 10
125.4458833315898
 20
63.260183691095278
 30
0.0
 11
159.6975583337377
 21
29.008508688947391
 31
0.0
  0
CIRCLE
  5
881
  8
0
 10
147.71974693896601
 20
40.986320083718958
 30
0.0
 40
8.75
  0
CIRCLE
  5
882
  8
0
 10
147.71974693896601
 20
40.986320083718958
 30
0.0
 40
5.5
  0
LINE
  5
886
  8
HIDE
 10
273.94928330971032
 20
148.76625957144549
 30
0.0
 11
262.94928330971049
 21
148.76625957144549
 31
0.0
  0
LINE
  5
887
  8
HIDE
 10
273.94928330971032
 20
139.7662595714456
 30
0.0
 11
262.94928330971038
 21
139.7662595714456
 31
0.0
  0
LINE
  5
888
  8
HIDE
 10
262.94928330971049
 20
151.2662595714456
 30
0.0
 11
255.9492833097103
 21
151.2662595714456
 31
0.0
  0
LINE
  5
889
  8
HIDE
 10
262.94928330971038
 20
137.2662595714456
 30
0.0
 11
255.9492833097103
 21
137.2662595714456
 31
0.0
  0
LINE
  5
88A
  8
HIDE
 10
262.94928330971038
 20
137.2662595714456
 30
0.0
 11
262.94928330971049
 21
151.2662595714456
 31
0.0
  0
LINE
  5
88C
  8
0
 10
225.9492833097103
 20
83.766259571445616
 30
0.0
 11
225.94928330971041
 21
133.76628034550509
 31
0.0
  0
LINE
  5
88D
  8
0
 10
225.94928330971041
 20
133.76628034550509
 30
0.0
 11
226.9492833097103
 21
134.76628034550509
 31
0.0
  0
LINE
  5
88E
  8
HIDE
 10
225.94928330971041
 20
118.26628034550509
 30
0.0
 11
229.9492833097103
 21
118.266280345505
 31
0.0
  0
LINE
  5
88F
  8
HIDE
 10
229.94928330971041
 20
117.76628034550581
 30
0.0
 11
241.94928330971129
 21
117.76628034550581
 31
0.0
  0
LINE
  5
890
  8
HIDE
 10
241.94928330971129
 20
115.76628034550571
 30
0.0
 11
243.94928330971041
 21
115.76628034550571
 31
0.0
  0
LINE
  5
891
  8
HIDE
 10
229.94928330971089
 20
108.2662595714456
 30
0.0
 11
229.94928330971041
 21
118.266280345505
 31
0.0
  0
LINE
  5
893
  8
HIDE
 10
241.94928330971109
 20
108.2662595714456
 30
0.0
 11
241.94928330971129
 21
117.76628034550581
 31
0.0
  0
LINE
  5
894
  8
HIDE
 10
225.9492833097103
 20
103.76628034550509
 30
0.0
 11
246.9492833097103
 21
103.76628034550509
 31
0.0
  0
LINE
  5
896
  8
0
 10
321.94928330971032
 20
83.766259571445644
 30
0.0
 11
321.94928330971021
 21
130.26625957144549
 31
0.0
  0
LINE
  5
899
  8
HIDE
 10
243.94928330971041
 20
108.2662595714456
 30
0.0
 11
225.9492833097103
 21
108.2662595714456
 31
0.0
  0
LINE
  5
89A
  8
0
 10
255.94928330971041
 20
134.76628034550509
 30
0.0
 11
255.94928330971041
 21
153.76628034550509
 31
0.0
  0
LINE
  5
8AA
  8
0
 10
320.94928330971021
 20
131.26625957144549
 30
0.0
 11
273.94928330971032
 21
131.2662595714456
 31
0.0
  0
LINE
  5
8AB
  8
0
 10
321.94928330971021
 20
130.26625957144549
 30
0.0
 11
320.94928330971021
 21
131.26625957144549
 31
0.0
  0
LINE
  5
8AD
  8
HIDE
 10
303.94928330971038
 20
119.7662595714456
 30
0.0
 11
240.9492833097103
 21
119.7662595714456
 31
0.0
  0
LINE
  5
8ED
  8
HIDE
 10
305.94928330970941
 20
108.2662595714456
 30
0.0
 11
305.94928330970919
 21
117.76628034550581
 31
0.0
  0
LINE
  5
8EE
  8
HIDE
 10
317.94928330970959
 20
108.2662595714456
 30
0.0
 11
317.94928330971032
 21
118.266280345505
 31
0.0
  0
LINE
  5
8EF
  8
HIDE
 10
321.94928330971032
 20
118.26628034550509
 30
0.0
 11
317.94928330971032
 21
118.266280345505
 31
0.0
  0
LINE
  5
8F0
  8
HIDE
 10
317.94928330971021
 20
117.76628034550581
 30
0.0
 11
305.94928330970919
 21
117.76628034550581
 31
0.0
  0
LINE
  5
8F1
  8
HIDE
 10
305.94928330970919
 20
115.76628034550571
 30
0.0
 11
303.94928330971021
 21
115.76628034550571
 31
0.0
  0
LINE
  5
8F2
  8
HIDE
 10
303.94928330971021
 20
108.2662595714456
 30
0.0
 11
321.94928330971032
 21
108.2662595714456
 31
0.0
  0
LINE
  5
8F3
  8
HIDE
 10
240.9492833097103
 20
134.76628034550509
 30
0.0
 11
240.9492833097103
 21
119.7662595714456
 31
0.0
  0
ARC
  5
958
  8
0
 10
370.28791338936861
 20
83.766280345505109
 30
0.0
 40
32.0
 50
269.99999999999989
 51
90.000000000000099
  0
ARC
  5
959
  8
0
 10
370.28791338936861
 20
83.766280345505109
 30
0.0
 40
34.0
 50
269.99999999999989
 51
90.000000000000071
  0
ARC
  5
95A
  8
0
 10
370.28791338936861
 20
83.766280345505109
 30
0.0
 40
34.5
 50
269.99999999999989
 51
90.000000000000071
  0
ARC
  5
95B
  8
CENTER
 10
370.28791338936861
 20
83.766280345505109
 30
0.0
 40
40.0
 50
269.99999999999989
 51
90.000000000000071
  0
ARC
  5
95C
  8
0
 10
370.28791338936861
 20
83.766280345505109
 30
0.0
 40
47.5
 50
269.99999999999989
 51
90.000000000000057
  0
ARC
  5
999
  8
0
 10
370.28791338936861
 20
83.766280345505109
 30
0.0
 40
24.499979225940478
 50
269.99999999999989
 51
90.000000000000114
  0
ARC
  5
99B
  8
0
 10
370.28791338936861
 20
83.766280345505109
 30
0.0
 40
20.000000000000011
 50
269.99999999999977
 51
90.000000000000171
  0
LINE
  5
99C
  8
HIDE
 10
303.94928330971038
 20
47.76625957144568
 30
0.0
 11
240.94928330971041
 21
47.766259571445637
 31
0.0
  0
LINE
  5
99D
  8
HIDE
 10
244.9492833097103
 20
63.766238797386109
 30
0.0
 11
257.94928330971021
 21
63.766238797386123
 31
0.0
  0
LINE
  5
99E
  8
HIDE
 10
274.9481016738896
 20
63.766238797386123
 30
0.0
 11
287.95046494553787
 21
63.76623879738613
 31
0.0
  0
LINE
  5
99F
  8
HIDE
 10
289.94928330971038
 20
63.76623879738613
 30
0.0
 11
321.94928330971032
 21
63.766238797386158
 31
0.0
  0
LINE
  5
9A0
  8
HIDE
 10
308.94928330971038
 20
46.266238797386222
 30
0.0
 11
308.94928330971038
 21
41.26623879738613
 31
0.0
  0
LINE
  5
9A1
  8
HIDE
 10
312.94928330971049
 20
46.266238797386158
 30
0.0
 11
312.94928330971038
 21
41.266238797386158
 31
0.0
  0
LINE
  5
9A2
  8
HIDE
 10
303.94928330971038
 20
47.766259571445687
 30
0.0
 11
303.94928330971038
 21
62.766238797386151
 31
0.0
  0
LINE
  5
9A3
  8
HIDE
 10
288.94928330971038
 20
48.766259571445651
 30
0.0
 11
288.94928330971038
 21
62.766238797386137
 31
0.0
  0
LINE
  5
9A4
  8
HIDE
 10
273.94928330971038
 20
48.76625957144563
 30
0.0
 11
273.94928330971049
 21
62.766239495518008
 31
0.0
  0
LINE
  5
9A5
  8
HIDE
 10
243.94928330971049
 20
47.766259571445637
 30
0.0
 11
243.94928330971049
 21
62.766238797386222
 31
0.0
  0
LINE
  5
9A6
  8
CENTER
  6
CENTER
 10
257.12174330971197
 20
59.006503946251868
 30
0.0
 11
245.7768133097091
 21
52.456503946248937
 31
0.0
  0
CIRCLE
  5
9A7
  8
HIDE
 10
251.44928330971041
 20
55.731453946251683
 30
0.0
 40
3.1749990000000001
  0
LINE
  5
9A8
  8
HIDE
 10
258.94928330971038
 20
52.231453946251669
 30
0.0
 11
252.85128330970861
 21
52.231453946251669
 31
0.0
  0
LINE
  5
9A9
  8
CENTER
  6
CENTER
 10
302.12168330970991
 20
52.456493946249239
 30
0.0
 11
290.77676330971042
 21
59.00648394624875
 31
0.0
  0
ARC
  5
9AA
  8
HIDE
 10
295.04727330970883
 20
52.73145394625169
 30
0.0
 40
0.5
 50
269.99998199988357
 51
354.99627999998432
  0
CIRCLE
  5
9AB
  8
HIDE
 10
296.44928330971038
 20
55.73145394625169
 30
0.0
 40
3.1749990000000001
  0
LINE
  5
9AC
  8
HIDE
 10
303.44928330971038
 20
58.731453946251698
 30
0.0
 11
297.48880330970889
 21
58.73145394625169
 31
0.0
  0
LINE
  5
9AD
  8
HIDE
 10
303.44928330971038
 20
55.731453946251712
 30
0.0
 11
299.62426330971022
 21
55.73145394625169
 31
0.0
  0
ARC
  5
9AE
  8
HIDE
 10
303.44928330971038
 20
59.231453946251698
 30
0.0
 40
0.5
 50
269.99998199988357
 51
359.99995999999589
  0
ARC
  5
9AF
  8
HIDE
 10
303.44928330971038
 20
55.231453946251712
 30
0.0
 40
0.5
 50
359.99995999999589
 51
90.000000000000057
  0
LINE
  5
9B0
  8
HIDE
 10
293.27427330971142
 20
55.73145394625169
 30
0.0
 11
289.44928330971038
 21
55.73145394625169
 31
0.0
  0
LINE
  5
9B1
  8
HIDE
 10
295.04727330970883
 20
52.23145394625169
 30
0.0
 11
288.94928330971038
 21
52.23145394625169
 31
0.0
  0
LINE
  5
9B2
  8
HIDE
 10
258.44928330971049
 20
55.731453946251683
 30
0.0
 11
254.62428330970971
 21
55.731453946251683
 31
0.0
  0
LINE
  5
9B3
  8
HIDE
 10
250.40976330971199
 20
58.731453946251662
 30
0.0
 11
244.44928330971041
 21
58.731453946251662
 31
0.0
  0
LINE
  5
9B4
  8
HIDE
 10
248.27429330971091
 20
55.731453946251662
 30
0.0
 11
244.44928330971041
 21
55.731453946251662
 31
0.0
  0
ARC
  5
9B5
  8
HIDE
 10
252.85128330970861
 20
52.731453946251669
 30
0.0
 40
0.5
 50
185.0037219999179
 51
269.99998199988352
  0
ARC
  5
9B6
  8
HIDE
 10
244.44928330971041
 20
59.231453946251662
 30
0.0
 40
0.5
 50
180.00003600002449
 51
269.99998199988352
  0
ARC
  5
9B7
  8
HIDE
 10
244.44928330971041
 20
55.231453946251662
 30
0.0
 40
0.5
 50
90.000019999897788
 51
180.00004000000399
  0
ARC
  5
9B8
  8
HIDE
 10
258.44928346679109
 20
56.231453946251648
 30
0.0
 40
0.5
 50
269.99998199988352
 51
359.99995999999589
  0
ARC
  5
9B9
  8
HIDE
 10
289.44928346679109
 20
56.231453946251662
 30
0.0
 40
0.5
 50
180.0
 51
269.99998199988357
  0
LINE
  5
9BA
  8
CENTER
  6
CENTER
 10
287.12168330970991
 20
52.456493946249232
 30
0.0
 11
275.7767633097103
 21
59.006483946248729
 31
0.0
  0
ARC
  5
9BB
  8
HIDE
 10
280.04727330970883
 20
52.731453946251669
 30
0.0
 40
0.5
 50
269.99998199988357
 51
354.99627999998432
  0
CIRCLE
  5
9BC
  8
HIDE
 10
281.44928330971049
 20
55.731453946251683
 30
0.0
 40
3.1749990000000001
  0
LINE
  5
9BD
  8
HIDE
 10
288.44928330971038
 20
58.73145394625169
 30
0.0
 11
282.48880330970889
 21
58.731453946251683
 31
0.0
  0
LINE
  5
9BE
  8
HIDE
 10
288.44928330971038
 20
55.73145394625169
 30
0.0
 11
284.62426330971022
 21
55.73145394625169
 31
0.0
  0
ARC
  5
9BF
  8
HIDE
 10
288.44928330971038
 20
59.23145394625169
 30
0.0
 40
0.5
 50
269.99998199988357
 51
359.99995999999589
  0
ARC
  5
9C0
  8
HIDE
 10
288.44928330971038
 20
55.23145394625169
 30
0.0
 40
0.5
 50
359.99995999999589
 51
90.000000000000057
  0
LINE
  5
9C1
  8
HIDE
 10
278.27427330971142
 20
55.731453946251683
 30
0.0
 11
274.44928330971038
 21
55.731453946251683
 31
0.0
  0
LINE
  5
9C2
  8
HIDE
 10
280.04727330970883
 20
52.231453946251669
 30
0.0
 11
273.94928330971038
 21
52.231453946251669
 31
0.0
  0
ARC
  5
9C4
  8
HIDE
 10
302.94928330971038
 20
62.766238797386151
 30
0.0
 40
1.0
 50
359.99995999999589
 51
90.000000000000057
  0
ARC
  5
9C5
  8
HIDE
 10
289.94928330971038
 20
62.766238797386137
 30
0.0
 40
1.0
 50
90.000019999897845
 51
180.0
  0
ARC
  5
9C6
  8
HIDE
 10
257.94928330971021
 20
62.766238797386237
 30
0.0
 40
1.0
 50
0.0000400000040257
 51
90.000019999897788
  0
ARC
  5
9C7
  8
HIDE
 10
302.94928330971038
 20
48.766259571445659
 30
0.0
 40
1.0
 50
269.99998199988357
 51
359.99995999999589
  0
ARC
  5
9C8
  8
HIDE
 10
289.94928330971038
 20
48.766259571445651
 30
0.0
 40
1.0
 50
180.0
 51
269.99998199988357
  0
ARC
  5
9C9
  8
HIDE
 10
257.94928330971021
 20
48.76625957144563
 30
0.0
 40
1.0
 50
269.99998199988352
 51
359.99995999999589
  0
ARC
  5
9CA
  8
HIDE
 10
244.9492833097103
 20
62.766238797386222
 30
0.0
 40
1.0
 50
90.000019999897788
 51
180.0
  0
ARC
  5
9CB
  8
HIDE
 10
244.9492833097103
 20
48.766259571445609
 30
0.0
 40
1.0
 50
180.00003600002449
 51
269.99998199988352
  0
ARC
  5
9CC
  8
HIDE
 10
287.9492833097101
 20
62.766239495518022
 30
0.0
 40
1.0
 50
359.99995999999589
 51
90.000000000000057
  0
ARC
  5
9CD
  8
HIDE
 10
274.94928330970998
 20
62.766239495518008
 30
0.0
 40
1.0
 50
90.000019999897845
 51
180.0
  0
ARC
  5
9CE
  8
HIDE
 10
287.9492833097101
 20
48.766260269577529
 30
0.0
 40
1.0
 50
269.99998199988357
 51
359.99995999999589
  0
ARC
  5
9CF
  8
HIDE
 10
274.94928330970998
 20
48.766260269577508
 30
0.0
 40
1.0
 50
180.0
 51
269.99998199988357
  0
LINE
  5
9D6
  8
CENTER
 10
325.71151499833059
 20
43.76623879738618
 30
0.0
 11
304.67491902019742
 21
43.766238797386187
 31
0.0
  0
LINE
  5
9D7
  8
HIDE
 10
321.94928330971032
 20
46.766238797386201
 30
0.0
 11
313.8153087134948
 21
46.766238797386187
 31
0.0
  0
LINE
  5
9D8
  8
HIDE
 10
321.94928330971032
 20
46.266238797386201
 30
0.0
 11
308.94928330971032
 21
46.266238797386222
 31
0.0
  0
LINE
  5
9D9
  8
HIDE
 10
321.94928330971032
 20
40.766238797386208
 30
0.0
 11
313.8153087134948
 21
40.766238797386187
 31
0.0
  0
LINE
  5
9DA
  8
HIDE
 10
321.94928330971032
 20
41.26623879738618
 30
0.0
 11
308.94928330971032
 21
41.266238797386187
 31
0.0
  0
LINE
  5
9DB
  8
HIDE
 10
312.94928330971032
 20
41.266238797386187
 30
0.0
 11
313.8153087134948
 21
40.766238797386158
 31
0.0
  0
LINE
  5
9DC
  8
HIDE
 10
308.94928330971032
 20
41.266238797386158
 30
0.0
 11
307.50590763673631
 21
43.766238797386187
 31
0.0
  0
LINE
  5
9DD
  8
HIDE
 10
308.94928330971032
 20
46.266238797386222
 30
0.0
 11
307.50590763673631
 21
43.766238797386187
 31
0.0
  0
LINE
  5
9DE
  8
HIDE
 10
312.94928330971032
 20
46.266238797386187
 30
0.0
 11
313.8153087134948
 21
46.766238797386222
 31
0.0
  0
LINE
  5
9DF
  8
0
 10
256.94928330971038
 20
12.766238797386141
 30
0.0
 11
272.94928330971032
 21
12.76623879738619
 31
0.0
  0
LINE
  5
9E0
  8
0
 10
255.94928330971041
 20
13.766238797386141
 30
0.0
 11
256.94928330971038
 21
12.766238797386141
 31
0.0
  0
LINE
  5
9E1
  8
0
 10
226.94928330971041
 20
32.766238797386137
 30
0.0
 11
255.94928330971049
 21
32.766238797386137
 31
0.0
  0
LINE
  5
9E2
  8
0
 10
225.94928330971041
 20
33.766238797386137
 30
0.0
 11
226.94928330971041
 21
32.766238797386137
 31
0.0
  0
LINE
  5
9E3
  8
0
 10
255.94928330971049
 20
32.766238797386109
 30
0.0
 11
255.94928330971041
 21
13.766238797386141
 31
0.0
  0
LINE
  5
9E4
  8
0
 10
225.9492833097103
 20
83.766259571445616
 30
0.0
 11
225.94928330971041
 21
33.766238797386137
 31
0.0
  0
LINE
  5
9E7
  8
HIDE
 10
241.94928330971121
 20
59.266259571445637
 30
0.0
 11
241.9492833097114
 21
49.766238797385412
 31
0.0
  0
LINE
  5
9E8
  8
HIDE
 10
229.94928330971089
 20
59.26625957144563
 30
0.0
 11
229.94928330971041
 21
49.26623879738618
 31
0.0
  0
LINE
  5
9E9
  8
HIDE
 10
262.94928330971049
 20
30.266259571445691
 30
0.0
 11
262.94928330971049
 21
16.266259571445659
 31
0.0
  0
LINE
  5
9EA
  8
0
 10
273.94928330971038
 20
36.26625957144563
 30
0.0
 11
273.94928330971032
 21
13.766238797386221
 31
0.0
  0
LINE
  5
9EB
  8
0
 10
321.94928330971032
 20
83.766259571445659
 30
0.0
 11
321.94928330971032
 21
37.266259571445723
 31
0.0
  0
LINE
  5
9EC
  8
0
 10
272.94928330971032
 20
12.76623879738619
 30
0.0
 11
273.94928330971032
 21
13.76623879738619
 31
0.0
  0
LINE
  5
9ED
  8
CENTER
 10
284.53113671266669
 20
23.266259571445659
 30
0.0
 11
243.72549020910611
 21
23.26625957144563
 31
0.0
  0
LINE
  5
9EE
  8
HIDE
 10
262.94928330971049
 20
30.266259571445659
 30
0.0
 11
255.94928330971041
 21
30.266259571445659
 31
0.0
  0
LINE
  5
9EF
  8
HIDE
 10
262.94928330971049
 20
16.266259571445659
 30
0.0
 11
255.94928330971041
 21
16.26625957144563
 31
0.0
  0
LINE
  5
9F0
  8
HIDE
 10
273.94928330971032
 20
27.766259571445659
 30
0.0
 11
262.94928330971049
 21
27.766259571445659
 31
0.0
  0
LINE
  5
9F1
  8
HIDE
 10
273.94928330971032
 20
18.76625957144568
 30
0.0
 11
262.94928330971049
 21
18.76625957144568
 31
0.0
  0
LINE
  5
9F2
  8
HIDE
 10
225.94928330971041
 20
49.266238797386151
 30
0.0
 11
229.94928330971041
 21
49.266238797386173
 31
0.0
  0
LINE
  5
9F3
  8
HIDE
 10
229.94928330971041
 20
49.766238797385377
 30
0.0
 11
241.9492833097114
 21
49.766238797385391
 31
0.0
  0
LINE
  5
9F4
  8
HIDE
 10
241.9492833097114
 20
51.76623879738549
 30
0.0
 11
243.94928330971049
 21
51.766238797385533
 31
0.0
  0
LINE
  5
9F5
  8
HIDE
 10
225.94928330971041
 20
63.766238797386109
 30
0.0
 11
246.94928330971041
 21
63.766238797386109
 31
0.0
  0
LINE
  5
9F7
  8
HIDE
 10
243.94928330971049
 20
59.26625957144563
 30
0.0
 11
225.9492833097103
 21
59.26625957144563
 31
0.0
  0
LINE
  5
9F8
  8
0
 10
320.94928330971032
 20
36.266259571445723
 30
0.0
 11
273.94928330971032
 21
36.266259571445659
 31
0.0
  0
LINE
  5
9F9
  8
0
 10
321.94928330971032
 20
37.266259571445723
 30
0.0
 11
320.94928330971032
 21
36.266259571445723
 31
0.0
  0
LINE
  5
9FA
  8
HIDE
 10
305.94928330970947
 20
59.266259571445687
 30
0.0
 11
305.9492833097093
 21
49.766238797385462
 31
0.0
  0
LINE
  5
9FB
  8
HIDE
 10
317.9492833097097
 20
59.266259571445723
 30
0.0
 11
317.94928330971032
 21
49.266238797386251
 31
0.0
  0
LINE
  5
9FC
  8
HIDE
 10
321.94928330971032
 20
49.266238797386222
 30
0.0
 11
317.94928330971032
 21
49.266238797386237
 31
0.0
  0
LINE
  5
9FD
  8
HIDE
 10
317.94928330971032
 20
49.766238797385462
 30
0.0
 11
305.9492833097093
 21
49.766238797385441
 31
0.0
  0
LINE
  5
9FE
  8
HIDE
 10
305.9492833097093
 20
51.76623879738554
 30
0.0
 11
303.94928330971032
 21
51.766238797385562
 31
0.0
  0
LINE
  5
9FF
  8
HIDE
 10
303.94928330971032
 20
59.266259571445673
 30
0.0
 11
321.94928330971032
 21
59.266259571445701
 31
0.0
  0
LINE
  5
A00
  8
HIDE
 10
240.94928330971041
 20
32.766238797386137
 30
0.0
 11
240.94928330971041
 21
47.766259571445637
 31
0.0
  0
LINE
  5
A17
  8
HIDE
 10
258.94928330971038
 20
48.766259571445687
 30
0.0
 11
258.94928330971049
 21
62.766239495518072
 31
0.0
  0
LINE
  5
A18
  8
HIDE
 10
258.94928330971038
 20
118.7662595714455
 30
0.0
 11
258.94928330971038
 21
104.7662796473732
 31
0.0
  0
ARC
  5
A19
  8
HIDE
 10
257.94928330971021
 20
104.76628104363679
 30
0.0
 40
1.0
 50
269.9999800001022
 51
359.99995999999589
  0
ARC
  5
A1A
  8
HIDE
 10
257.94928330971021
 20
118.7662602695774
 30
0.0
 40
1.0
 50
0.0000400000040257
 51
90.000018000116455
  0
LINE
  5
A1B
  8
HIDE
 10
259.94810167388948
 20
103.76628034550509
 30
0.0
 11
272.95046494553787
 21
103.76628034550509
 31
0.0
  0
ARC
  5
A26
  8
HIDE
 10
272.94928330970998
 20
104.7662796473732
 30
0.0
 40
1.0
 50
270.0
 51
0.0000400000040257
  0
ARC
  5
A27
  8
HIDE
 10
259.94928330970998
 20
104.7662796473732
 30
0.0
 40
1.0
 50
180.0
 51
269.9999800001022
  0
ARC
  5
A28
  8
HIDE
 10
272.94928330970998
 20
118.7662588733137
 30
0.0
 40
1.0
 50
0.0000400000040257
 51
90.000018000116455
  0
ARC
  5
A29
  8
HIDE
 10
259.94928330970998
 20
118.7662588733137
 30
0.0
 40
1.0
 50
90.000018000116455
 51
180.0
  0
LINE
  5
A2A
  8
HIDE
 10
259.9481016738896
 20
63.766238797386123
 30
0.0
 11
272.95046494553787
 21
63.76623879738613
 31
0.0
  0
ARC
  5
A34
  8
HIDE
 10
272.9492833097101
 20
62.766239495518022
 30
0.0
 40
1.0
 50
359.99995999999589
 51
90.000000000000099
  0
ARC
  5
A35
  8
HIDE
 10
259.94928330970998
 20
62.766239495518008
 30
0.0
 40
1.0
 50
90.000019999897788
 51
180.0
  0
ARC
  5
A36
  8
HIDE
 10
272.9492833097101
 20
48.766260269577529
 30
0.0
 40
1.0
 50
269.99998199988352
 51
359.99995999999589
  0
ARC
  5
A37
  8
HIDE
 10
259.94928330970998
 20
48.766260269577508
 30
0.0
 40
1.0
 50
180.0
 51
269.99998199988352
  0
ARC
  5
A38
  8
HIDE
 10
274.44928346679109
 20
56.231453946251577
 30
0.0
 40
0.5
 50
180.0
 51
269.99998199988352
  0
LINE
  5
A3D
  8
CENTER
  6
CENTER
 10
272.12174330971197
 20
108.52601519663941
 30
0.0
 11
260.77681330970898
 21
115.0760151966423
 31
0.0
  0
CIRCLE
  5
A3E
  8
HIDE
 10
266.44928330971038
 20
111.8010651966396
 30
0.0
 40
3.1749990000000001
  0
LINE
  5
A3F
  8
HIDE
 10
273.94928330971038
 20
115.3010651966396
 30
0.0
 11
267.85128330970861
 21
115.3010651966396
 31
0.0
  0
LINE
  5
A40
  8
HIDE
 10
273.44928330971038
 20
111.8010651966396
 30
0.0
 11
269.6242833097096
 21
111.8010651966396
 31
0.0
  0
LINE
  5
A41
  8
HIDE
 10
265.40976330971188
 20
108.8010651966396
 30
0.0
 11
259.44928330971038
 21
108.8010651966396
 31
0.0
  0
LINE
  5
A42
  8
HIDE
 10
263.27429330971091
 20
111.8010651966396
 30
0.0
 11
259.44928330971038
 21
111.8010651966396
 31
0.0
  0
ARC
  5
A43
  8
HIDE
 10
267.85128330970861
 20
114.8010651966396
 30
0.0
 40
0.5
 50
90.000018000116455
 51
174.99627800008199
  0
ARC
  5
A44
  8
HIDE
 10
259.44928330971038
 20
108.3010651966396
 30
0.0
 40
0.5
 50
90.000018000116455
 51
179.99996399997551
  0
ARC
  5
A45
  8
HIDE
 10
259.44928330971038
 20
112.3010651966396
 30
0.0
 40
0.5
 50
179.99995999999589
 51
269.9999800001022
  0
ARC
  5
A46
  8
HIDE
 10
273.44928346679097
 20
111.3010651966396
 30
0.0
 40
0.5
 50
0.0000400000040257
 51
90.000018000116455
  0
LINE
  5
A47
  8
CENTER
  6
CENTER
 10
272.12174330971197
 20
59.006503946251868
 30
0.0
 11
260.7768133097091
 21
52.456503946248937
 31
0.0
  0
CIRCLE
  5
A48
  8
HIDE
 10
266.44928330971038
 20
55.731453946251683
 30
0.0
 40
3.1749990000000001
  0
LINE
  5
A49
  8
HIDE
 10
273.94928330971038
 20
52.231453946251669
 30
0.0
 11
267.85128330970872
 21
52.231453946251669
 31
0.0
  0
LINE
  5
A4A
  8
HIDE
 10
273.44928330971049
 20
55.731453946251683
 30
0.0
 11
269.62428330970971
 21
55.731453946251683
 31
0.0
  0
LINE
  5
A4B
  8
HIDE
 10
265.40976330971199
 20
58.731453946251662
 30
0.0
 11
259.44928330971038
 21
58.731453946251662
 31
0.0
  0
LINE
  5
A4C
  8
HIDE
 10
263.27429330971091
 20
55.731453946251662
 30
0.0
 11
259.44928330971038
 21
55.731453946251662
 31
0.0
  0
ARC
  5
A4D
  8
HIDE
 10
267.85128330970872
 20
52.731453946251669
 30
0.0
 40
0.5
 50
185.0037219999179
 51
269.99998199988352
  0
ARC
  5
A4E
  8
HIDE
 10
259.44928330971038
 20
59.231453946251662
 30
0.0
 40
0.5
 50
180.00003600002449
 51
269.99998199988352
  0
ARC
  5
A4F
  8
HIDE
 10
259.44928330971038
 20
55.231453946251662
 30
0.0
 40
0.5
 50
90.000019999897788
 51
180.00004000000399
  0
ARC
  5
A50
  8
HIDE
 10
273.44928346679109
 20
56.231453946251648
 30
0.0
 40
0.5
 50
269.99998199988352
 51
359.99995999999589
  0
ARC
  5
BEA
  8
HIDE
 10
104.93978667718
 20
83.766280345503247
 30
0.0
 40
20.0
 50
300.00000000001131
 51
210.0000000001522
  0
CIRCLE
  5
BEB
  8
0
 10
104.93978667718
 20
83.766280345503247
 30
0.0
 40
29.0
  0
CIRCLE
  5
BEC
  8
0
 10
104.93978667718
 20
83.766280345505066
 30
0.0
 40
19.25
  0
INSERT
  5
BED
  8
0
  2
*U11
 10
41544.331951815257
 20
12599.948481165749
 30
0.0
 50
30.0
  0
INSERT
  5
BEE
  8
0
  2
*U13
 10
41473.463157062957
 20
12731.317321851309
 30
0.0
 50
30.0
  0
LINE
  5
BEF
  8
0
 10
203.94928330971021
 20
112.7662595714456
 30
0.0
 11
203.94928330971021
 21
54.766259571445623
 31
0.0
  0
LINE
  5
BF0
  8
0
 10
225.9492833097103
 20
109.7662595714456
 30
0.0
 11
225.9492833097103
 21
57.766259571445609
 31
0.0
  0
LINE
  5
BF1
  8
0
 10
223.9492833097103
 20
109.7662595714456
 30
0.0
 11
223.9492833097103
 21
57.766259571445609
 31
0.0
  0
LINE
  5
BF2
  8
0
 10
223.94928330971749
 20
109.7662595714456
 30
0.0
 11
225.9492833097103
 21
109.7662595714456
 31
0.0
  0
LINE
  5
BF3
  8
0
 10
223.9492833097103
 20
109.7662595714456
 30
0.0
 11
222.2172325021385
 21
112.7662595714456
 31
0.0
  0
LINE
  5
BF4
  8
0
 10
203.94928330971021
 20
112.7662595714456
 30
0.0
 11
222.2172325021385
 21
112.7662595714456
 31
0.0
  0
LINE
  5
BF5
  8
0
 10
223.94928330971749
 20
57.766259571445609
 30
0.0
 11
225.9492833097103
 21
57.766259571445609
 31
0.0
  0
LINE
  5
BF6
  8
0
 10
223.9492833097103
 20
57.766259571445609
 30
0.0
 11
222.2172325021385
 21
54.766259571445623
 31
0.0
  0
LINE
  5
BF7
  8
0
 10
222.2172325021385
 20
54.766259571445623
 30
0.0
 11
203.94928330971021
 21
54.766259571445623
 31
0.0
  0
LINE
  5
BF8
  8
HIDE
 10
204.181921672811
 20
56.36625957144598
 30
0.0
 11
207.80667625432409
 21
56.36625957144598
 31
0.0
  0
LINE
  5
BF9
  8
HIDE
 10
204.181921672811
 20
60.666259571447071
 30
0.0
 11
207.80667625432409
 21
60.666259571447071
 31
0.0
  0
LINE
  5
BFA
  8
HIDE
 10
207.8052883323472
 20
60.668577376295723
 30
0.0
 11
209.0941152066226
 21
58.516259571445623
 31
0.0
  0
LINE
  5
BFB
  8
HIDE
 10
207.80667625432409
 20
56.36625957144598
 30
0.0
 11
209.0941152066226
 21
58.516259571445623
 31
0.0
  0
LINE
  5
BFC
  8
HIDE
 10
207.80667625432409
 20
56.36625957144598
 30
0.0
 11
207.80667625432409
 21
60.666259571447071
 31
0.0
  0
LINE
  5
BFD
  8
HIDE
 10
203.94928330971021
 20
56.176422461833781
 30
0.0
 11
204.181921672811
 21
56.36625957144598
 31
0.0
  0
LINE
  5
BFE
  8
HIDE
 10
203.94928330971021
 20
60.856096681057451
 30
0.0
 11
204.181921672811
 21
60.666259571447071
 31
0.0
  0
LINE
  5
BFF
  8
HIDE
 10
204.181921672811
 20
56.36625957144598
 30
0.0
 11
204.181921672811
 21
60.666259571447071
 31
0.0
  0
POINT
  5
C00
  8
HIDE
 10
204.181921672811
 20
56.36625957144598
 30
0.0
  0
POINT
  5
C01
  8
HIDE
 10
204.181921672811
 20
60.666259571447071
 30
0.0
  0
LINE
  5
C02
  8
CENTER
 10
201.17692610938701
 20
58.516259571443797
 30
0.0
 11
210.81528025542511
 21
58.516259571443797
 31
0.0
  0
LINE
  5
C03
  8
CENTER
 10
213.9492833097103
 20
60.930302172305453
 30
0.0
 11
213.9492833097103
 21
53.552091370867039
 31
0.0
  0
LINE
  5
C04
  8
HIDE
 10
211.4492833097103
 20
59.377564566449209
 30
0.0
 11
211.4492833097103
 21
55.102677170659362
 31
0.0
  0
LINE
  5
C05
  8
HIDE
 10
216.4492833097103
 20
59.377564566449209
 30
0.0
 11
216.4492833097103
 21
55.102677170659362
 31
0.0
  0
LINE
  5
C06
  8
HIDE
 10
216.4492833097103
 20
59.377564566449209
 30
0.0
 11
211.4492833097103
 21
59.377564566449209
 31
0.0
  0
LINE
  5
C07
  8
HIDE
 10
211.4492833097103
 20
59.377564566449209
 30
0.0
 11
213.9492833097103
 21
60.508407869459113
 31
0.0
  0
LINE
  5
C08
  8
HIDE
 10
216.4492833097103
 20
59.377564566449209
 30
0.0
 11
213.9492833097103
 21
60.508407869459113
 31
0.0
  0
LINE
  5
C09
  8
HIDE
 10
211.17126812475919
 20
54.766259571445623
 30
0.0
 11
211.4492833097103
 21
55.102677170659362
 31
0.0
  0
LINE
  5
C0A
  8
HIDE
 10
216.72729849466131
 20
54.766259571445623
 30
0.0
 11
216.4492833097103
 21
55.102677170659362
 31
0.0
  0
LINE
  5
C0B
  8
HIDE
 10
211.4492833097103
 20
55.102677170659362
 30
0.0
 11
216.4492833097103
 21
55.102677170659362
 31
0.0
  0
POINT
  5
C0C
  8
HIDE
 10
216.4492833097103
 20
55.102677170659362
 30
0.0
  0
POINT
  5
C0D
  8
HIDE
 10
211.4492833097103
 20
55.102677170659362
 30
0.0
  0
LINE
  5
C0E
  8
HIDE
 10
204.1367833097103
 20
108.3745127469184
 30
0.0
 11
211.6564928909284
 21
112.71601909786391
 31
0.0
  0
LINE
  5
C0F
  8
HIDE
 10
210.4444738380918
 20
112.0162595714456
 30
0.0
 11
212.8819738380918
 21
107.7943857279962
 31
0.0
  0
LINE
  5
C10
  8
HIDE
 10
205.2483214153836
 20
109.0162595714456
 30
0.0
 11
207.6858214153836
 21
104.7943857279962
 31
0.0
  0
LINE
  5
C11
  8
HIDE
 10
210.05476240639121
 20
111.79125957145069
 30
0.0
 11
215.12101101854211
 21
103.01625957144741
 31
0.0
  0
LINE
  5
C12
  8
HIDE
  6
CONTINUOUS
 10
205.63803284709149
 20
109.2412595714478
 30
0.0
 11
209.23203827279951
 21
103.0162595714456
 31
0.0
  0
LINE
  5
C13
  8
HIDE
 10
208.19808094180931
 20
104.65712620157601
 30
0.0
 11
212.7447143116807
 21
107.28212620157601
 31
0.0
  0
LINE
  5
C14
  8
HIDE
 10
212.7447143116807
 20
107.28212620157601
 30
0.0
 11
212.8819738380918
 21
107.7943857279962
 31
0.0
  0
LINE
  5
C15
  8
HIDE
 10
208.19808094180931
 20
104.65712620157601
 30
0.0
 11
207.6858214153836
 21
104.7943857279962
 31
0.0
  0
LINE
  5
C16
  8
HIDE
 10
207.6858214153836
 20
104.7943857279962
 30
0.0
 11
212.8819738380918
 21
107.7943857279962
 31
0.0
  0
ARC
  5
C17
  8
HIDE
 10
211.84399289092849
 20
112.3912595714456
 30
0.0
 40
0.375
 50
90.0
 51
120.0000000000112
  0
ARC
  5
C18
  8
HIDE
 10
204.3242833097103
 20
108.0497532204982
 30
0.0
 40
0.375
 50
120.0000000000112
 51
180.0
  0
INSERT
  5
C19
  8
HIDE
  6
CONTINUOUS
  2
*X18
 10
0.0
 20
0.0
 30
0.0
1001
ACAD
1000
HATCH
1002
{
1070
    19
1000
ANSI37
1040
9.75
1040
0.5235987755982988
1000
R14_HATCH_DATA
1000
C19
1011
1.0
1021
0.0
1031
0.0
1021
0.0
1031
0.0
1011
0.0
1021
0.0
1031
0.0
1021
1.0
1031
0.0
1011
0.0
1021
0.0
1031
0.0
1021
0.0
1031
1.0
1040
0.0
1010
0.0
1020
0.0
1030
1.0
1000
ANSI37
1070
     0
1070
     0
1071
        2
1071
        1
1071
        4
1070
     1
1040
209.23203827279951
1040
103.01625957144741
1040
212.17652464566351
1040
103.01625957144741
1070
     1
1040
212.17652464566351
1040
103.01625957144741
1040
210.47139762674499
1040
105.96962620157601
1070
     1
1040
210.47139762674499
1040
105.96962620157601
1040
208.26303284709149
1040
104.6946262015764
1070
     1
1040
208.26303284709149
1040
104.6946262015764
1040
209.23203827279951
1040
103.01625957144741
1071
        0
1071
        1
1071
        4
1070
     1
1040
212.17652464567081
1040
103.01625957144741
1040
215.12101101852761
1040
103.01625957144741
1070
     1
1040
215.12101101852761
1040
103.01625957144741
1040
212.67976240639851
1040
107.2446262015775
1070
     1
1040
212.67976240639851
1040
107.2446262015775
1040
210.47139762674499
1040
105.96962620157601
1070
     1
1040
210.47139762674499
1040
105.96962620157601
1040
212.17652464567081
1040
103.01625957144741
1071
        0
1070
     0
1070
     1
1040
0.5235987755982988
1040
9.75
1070
     0
1070
     2
1040
1.3089969389957461
1040
66.245799239732264
1040
-76.229745202887798
1040
-1.1772221007898021
1040
0.3154357112186975
1070
     0
1040
2.8797932657906431
1040
66.245799239732264
1040
-76.229745202887798
1040
-0.3154357112186975
1040
-1.1772221007898021
1070
     0
1071
        4
1040
209.7459136314356
1040
103.6549620840989
1040
0.0
1040
212.2727758882321
1040
104.67679647045139
1040
0.0
1040
211.37032440370979
1040
102.15226616868409
1040
0.0
1040
213.71669683857189
1040
101.9719435696871
1040
0.0
1002
}
  0
LINE
  5
C1A
  8
HIDE
 10
203.94928330971021
 20
103.7662595714456
 30
0.0
 11
225.9492833097103
 21
103.7662595714456
 31
0.0
  0
LINE
  5
C1B
  8
HIDE
 10
203.94928330971021
 20
103.01625957144741
 30
0.0
 11
225.9492833097103
 21
103.01625957144741
 31
0.0
  0
LINE
  5
C1C
  8
CENTER
  6
CENTER
 10
207.38326959335259
 20
111.31842085568231
 30
0.0
 11
213.60304048354021
 21
100.5454616624384
 31
0.0
  0
LINE
  5
C1D
  8
HIDE
 10
203.94928330971021
 20
63.766259571445609
 30
0.0
 11
225.9492833097103
 21
63.766259571445609
 31
0.0
  0
LINE
  5
C1E
  8
HIDE
 10
203.94928330971021
 20
64.516259571443797
 30
0.0
 11
225.9492833097103
 21
64.516259571443797
 31
0.0
  0
INSERT
  5
C1F
  8
0
  2
*U15
 10
43990.648153962109
 20
-10147.745215534231
 30
0.0
  0
INSERT
  5
C20
  8
0
  2
*U19
 10
0.0
 20
0.0
 30
0.0
  0
ENDSEC
  0
EOF
